  0
SECTION
  2
HEADER
  9
$ACADVER
  1
AC1009
  9
$INSBASE
 10
0
 20
0
 30
0
  9
$EXTMIN
 10
0
 20
0
  9
$EXTMAX
 10
4200
 20
2970
  9
$LIMMIN
 10
0
 20
0
  9
$LIMMAX
 10
4200
 20
2970
  9
$LTSCALE
 40
10
  0
ENDSEC
  0
SECTION
  2
TABLES
  0
TABLE
  2
LTYPE
 70
     9
  0
LTYPE
  2
CONTINUOUS
 70
    64
  3
実線
 72
    65
 73
     0
 40
0.0
  0
LTYPE
  2
DASHED1
 70
    64
  3
--  --  --  --  --  --  --  --  
 72
    65
 73
     2
 40
2.5
 49
1.25
 49
-1.25
  0
LTYPE
  2
DASHED2
 70
    64
  3
----    ----    ----    ----    
 72
    65
 73
     2
 40
5.0
 49
2.5
 49
-2.5
  0
LTYPE
  2
DASHED3
 70
    64
  3
------  ------  ------  ------  
 72
    65
 73
     2
 40
5.0
 49
3.75
 49
-1.25
  0
LTYPE
  2
CENTER1
 70
    64
  3
----- - ----- - ----- - ----- - 
 72
    65
 73
     4
 40
10.0
 49
6.25
 49
-1.25
 49
1.25
 49
-1.25
  0
LTYPE
  2
CENTER2
 70
    64
  3
----------  --  ----------  --  
 72
    65
 73
     4
 40
20.0
 49
12.5
 49
-2.5
 49
2.5
 49
-2.5
  0
LTYPE
  2
PHANTOM1
 70
    64
  3
--- - - --- - - --- - - --- - - 
 72
    65
 73
     6
 40
10.0
 49
3.25
 49
-1.25
 49
1.25
 49
-1.25
 49
1.25
 49
-1.25
  0
LTYPE
  2
PHANTOM2
 70
    64
  3
--------  -  -  --------  -  -  
 72
    65
 73
     6
 40
20.0
 49
10.0
 49
-2.5
 49
1.25
 49
-2.5
 49
1.25
 49
-2.5
  0
LTYPE
  2
DOT
 70
    64
  3
-   -   -   -   -   -   -   -   
 72
    65
 73
     2
 40
2.5
 49
0.625
 49
-1.875
  0
LTYPE
  2
DUMMY
 70
    64
  3
ダミー
 72
    65
 73
     0
 40
0.0
  0
LTYPE
  2
RAND1
 70
    64
  3
ランダム線1
 72
    65
 73
     4
 40
10.0
 49
1.0
 49
-2.0
 49
3.0
 49
-4.0
  0
LTYPE
  2
RAND2
 70
    64
  3
ランダム線2
 72
    65
 73
     4
 40
14.0
 49
2.0
 49
-3.0
 49
4.0
 49
-5.0
  0
LTYPE
  2
RAND3
 70
    64
  3
ランダム線3
 72
    65
 73
     4
 40
18.0
 49
3.0
 49
-4.0
 49
5.0
 49
-6.0
  0
LTYPE
  2
RAND4
 70
    64
  3
ランダム線4
 72
    65
 73
     4
 40
22.0
 49
4.0
 49
-5.0
 49
6.0
 49
-7.0
  0
LTYPE
  2
RAND5
 70
    64
  3
ランダム線5
 72
    65
 73
     4
 40
26.0
 49
5.0
 49
-6.0
 49
7.0
 49
-8.0
  0
LTYPE
  2
LONG1
 70
    64
  3
----------  --  ----------  --  
 72
    65
 73
     4
 40
40.0
 49
32.5
 49
-2.5
 49
2.5
 49
-2.5
  0
LTYPE
  2
LONG2
 70
    64
  3
--------  -  -  --------  -  -  
 72
    65
 73
     6
 40
40.0
 49
30.0
 49
-2.5
 49
1.25
 49
-2.5
 49
1.25
 49
-2.5
  0
LTYPE
  2
LONG3
 70
    64
  3
+++++++++++++++..+++++++++++++++
 72
    65
 73
     2
 40
40.0
 49
37.5
 49
-2.5
  0
LTYPE
  2
LONG4
 70
    64
  3
+++++++++++++++..+++++++++++++++
 72
    65
 73
     2
 40
80.0
 49
75.0
 49
-5.0
  0
LTYPE
  2
LONG5
 70
    64
  3
----------  --  ----------  --  
 72
    65
 73
     4
 40
60.0
 49
37.5
 49
-7.5
 49
7.5
 49
-7.5
  0
LTYPE
  2
dashed
 70
   64
  3
-------   -------------   ------
 72
   65
 73
    2
 40
7.5
 49
6
 49
-1.5
  0
LTYPE
  2
dashed_spaced
 70
   64
  3
----        --------        ----
 72
   65
 73
    2
 40
12
 49
6
 49
-6
  0
LTYPE
  2
long_dashed_dotted
 70
   64
  3
------------- --- --------------
 72
   65
 73
    4
 40
15.25
 49
12
 49
-1.5
 49
0.25
 49
-1.5
  0
LTYPE
  2
long_dashed_double-dotted
 70
   64
  3
----------- --- --- ------------
 72
   65
 73
    6
 40
17
 49
12
 49
-1.5
 49
0.25
 49
-1.5
 49
0.25
 49
-1.5
  0
LTYPE
  2
long_dashed_triplicate-dotted
 70
   64
  3
--------- --- --- --- ----------
 72
   65
 73
    8
 40
18.75
 49
12
 49
-1.5
 49
0.25
 49
-1.5
 49
0.25
 49
-1.5
 49
0.25
 49
-1.5
  0
LTYPE
  2
dotted
 70
   64
  3
   -       -       -       -    
 72
   65
 73
    2
 40
1.75
 49
0.25
 49
-1.5
  0
LTYPE
  2
chain
 70
   64
  3
-------------- -- --------------
 72
   65
 73
    4
 40
18.5
 49
12
 49
-1.5
 49
3.5
 49
-1.5
  0
LTYPE
  2
chain_double_dash
 70
   64
  3
------------ -- -- -------------
 72
   65
 73
    6
 40
23.5
 49
12
 49
-1.5
 49
3.5
 49
-1.5
 49
3.5
 49
-1.5
  0
LTYPE
  2
dashed_dotted
 70
   64
  3
-----------     -     ----------
 72
   65
 73
    4
 40
9.25
 49
6
 49
-1.5
 49
0.25
 49
-1.5
  0
LTYPE
  2
double-dashed_dotted
 70
   64
  3
------   -----------   -   -----
 72
   65
 73
    6
 40
16.75
 49
6
 49
-1.5
 49
6
 49
-1.5
 49
0.25
 49
-1.5
  0
LTYPE
  2
dashed_double-dotted
 70
   64
  3
---------    -    -    ---------
 72
   65
 73
    6
 40
11
 49
6
 49
-1.5
 49
0.25
 49
-1.5
 49
0.25
 49
-1.5
  0
LTYPE
  2
double-dashed_double-dotted
 70
   64
  3
-----   ---------   -   -   ----
 72
   65
 73
    8
 40
18.5
 49
6
 49
-1.5
 49
6
 49
-1.5
 49
0.25
 49
-1.5
 49
0.25
 49
-1.5
  0
LTYPE
  2
dashed_triplicate-dotted
 70
   64
  3
-------    -    -    -    ------
 72
   65
 73
    8
 40
12.75
 49
6
 49
-1.5
 49
0.25
 49
-1.5
 49
0.25
 49
-1.5
 49
0.25
 49
-1.5
  0
LTYPE
  2
double-dashed_triplicate-dotted
 70
   64
  3
-----  ---------  -  -  -  -----
 72
   65
 73
   10
 40
20.25
 49
6
 49
-1.5
 49
6
 49
-1.5
 49
0.25
 49
-1.5
 49
0.25
 49
-1.5
 49
0.25
 49
-1.5
  0
LTYPE
  2
undefined
 70
   64
  3
--------------------------------
 72
   65
 73
    0
 40
0
  0
LTYPE
  2
_
 70
   64
  3
                                
 72
   65
 73
    0
 40
0
  0
LTYPE
  2
__18
 70
   64
  3
                                
 72
   65
 73
    0
 40
0
  0
LTYPE
  2
__19
 70
   64
  3
                                
 72
   65
 73
    0
 40
0
  0
LTYPE
  2
__20
 70
   64
  3
                                
 72
   65
 73
    0
 40
0
  0
LTYPE
  2
__21
 70
   64
  3
                                
 72
   65
 73
    0
 40
0
  0
LTYPE
  2
__22
 70
   64
  3
                                
 72
   65
 73
    0
 40
0
  0
LTYPE
  2
__23
 70
   64
  3
                                
 72
   65
 73
    0
 40
0
  0
LTYPE
  2
__24
 70
   64
  3
                                
 72
   65
 73
    0
 40
0
  0
LTYPE
  2
__25
 70
   64
  3
                                
 72
   65
 73
    0
 40
0
  0
LTYPE
  2
__26
 70
   64
  3
                                
 72
   65
 73
    0
 40
0
  0
LTYPE
  2
__27
 70
   64
  3
                                
 72
   65
 73
    0
 40
0
  0
LTYPE
  2
__28
 70
   64
  3
                                
 72
   65
 73
    0
 40
0
  0
LTYPE
  2
__29
 70
   64
  3
                                
 72
   65
 73
    0
 40
0
  0
LTYPE
  2
__30
 70
   64
  3
                                
 72
   65
 73
    0
 40
0
  0
LTYPE
  2
__31
 70
   64
  3
                                
 72
   65
 73
    0
 40
0
  0
LTYPE
  2
__32
 70
   64
  3
                                
 72
   65
 73
    0
 40
0
  0
ENDTAB
  0
TABLE
  2
STYLE
  5
3
100
AcDbSymbolTable
 70
     1
  0
STYLE
  5
10
100
AcDbSymbolTableRecord
100
AcDbTextStyleTableRecord
  2
STANDARD
 70
     0
 40
0.0
 41
1.0
 50
0.0
 71
     0
 42
0.2
  3
txt
  4
bigfont.shx
  0
STYLE
  5
26
100
AcDbSymbolTableRecord
100
AcDbTextStyleTableRecord
  2
TATEGAKI
 70
    68
 40
0.0
 41
1.0
 50
0.0
 71
     0
 42
1.0
  3
txt
  4
bigfont.shx
  0
ENDTAB
  0
TABLE
  2
LAYER
 70
   15
  0
LAYER
  2
_0-0_
 70
   64
 62
    7
  6
CONTINUOUS
  0
LAYER
  2
_0-3_
 70
   64
 62
    7
  6
CONTINUOUS
  0
LAYER
  2
_0-4_
 70
   64
 62
    7
  6
CONTINUOUS
  0
LAYER
  2
_0-6_
 70
   64
 62
    7
  6
CONTINUOUS
  0
LAYER
  2
_0-8_
 70
   64
 62
    7
  6
CONTINUOUS
  0
LAYER
  2
_0-9_
 70
   64
 62
    7
  6
CONTINUOUS
  0
LAYER
  2
_0-a_
 70
   64
 62
    7
  6
CONTINUOUS
  0
LAYER
  2
_0-d_
 70
   64
 62
    7
  6
CONTINUOUS
  0
LAYER
  2
_1-4_
 70
   64
 62
    7
  6
CONTINUOUS
  0
LAYER
  2
_e-0_
 70
   64
 62
    7
  6
CONTINUOUS
  0
LAYER
  2
_f-7_
 70
   64
 62
    7
  6
CONTINUOUS
  0
LAYER
  2
_f-8_
 70
   64
 62
    7
  6
CONTINUOUS
  0
LAYER
  2
_f-9_
 70
   64
 62
    7
  6
CONTINUOUS
  0
LAYER
  2
_f-d_固定文字
 70
   64
 62
    7
  6
CONTINUOUS
  0
LAYER
  2
ADD_LINE
 70
   64
 62
    7
  6
CONTINUOUS
  0
ENDTAB
  0
ENDSEC
  0
SECTION
  2
BLOCKS
  0
ENDSEC
  0
SECTION
  2
ENTITIES
  0
LINE
  8
_f-9_
  6
CONTINUOUS
 62
    7
 10
630
 20
120
 11
630
 21
220
  0
LINE
  8
_f-9_
  6
CONTINUOUS
 62
    7
 10
170
 20
120
 11
610
 21
120
  0
LINE
  8
_f-9_
  6
CONTINUOUS
 62
    7
 10
170
 20
220
 11
610
 21
220
  0
LINE
  8
_f-9_
  6
CONTINUOUS
 62
    7
 10
1420
 20
120
 11
1420
 21
220
  0
LINE
  8
_f-9_
  6
CONTINUOUS
 62
    7
 10
2210
 20
120
 11
2210
 21
220
  0
LINE
  8
_f-9_
  6
CONTINUOUS
 62
    7
 10
2220
 20
120
 11
2220
 21
220
  0
LINE
  8
_f-9_
  6
CONTINUOUS
 62
    7
 10
630
 20
120
 11
2210
 21
120
  0
LINE
  8
_f-9_
  6
CONTINUOUS
 62
    7
 10
630
 20
220
 11
2210
 21
220
  0
LINE
  8
_f-9_
  6
CONTINUOUS
 62
    7
 10
2710
 20
120
 11
2710
 21
220
  0
LINE
  8
_f-9_
  6
CONTINUOUS
 62
    7
 10
2720
 20
120
 11
2720
 21
220
  0
LINE
  8
_f-9_
  6
CONTINUOUS
 62
    7
 10
2220
 20
120
 11
2710
 21
120
  0
LINE
  8
_f-9_
  6
CONTINUOUS
 62
    7
 10
2220
 20
220
 11
2710
 21
220
  0
LINE
  8
_f-9_
  6
CONTINUOUS
 62
    7
 10
3020
 20
120
 11
3020
 21
220
  0
LINE
  8
_f-9_
  6
CONTINUOUS
 62
    7
 10
3320
 20
120
 11
3320
 21
220
  0
LINE
  8
_f-9_
  6
CONTINUOUS
 62
    7
 10
3700
 20
120
 11
3700
 21
220
  0
LINE
  8
_f-9_
  6
CONTINUOUS
 62
    7
 10
2720
 20
120
 11
4110
 21
120
  0
LINE
  8
_f-9_
  6
CONTINUOUS
 62
    7
 10
4110
 20
120
 11
4110
 21
220
  0
LINE
  8
_f-9_
  6
CONTINUOUS
 62
    7
 10
2720
 20
220
 11
4110
 21
220
  0
LINE
  8
_0-0_
  6
CONTINUOUS
 62
    7
 10
4130
 20
2860
 11
4130
 21
100
  0
LINE
  8
_0-0_
  6
CONTINUOUS
 62
    7
 10
150
 20
2860
 11
4130
 21
2860
  0
LINE
  8
_0-0_
  6
CONTINUOUS
 62
    7
 10
150
 20
100
 11
4130
 21
100
  0
LINE
  8
_0-0_
  6
CONTINUOUS
 62
    7
 10
150
 20
100
 11
150
 21
2860
  0
TEXT
  8
_f-8_
 62
    7
 10
3040
 20
187.5
 40
25
 41
0.64
 50
0
  1
ＤＡＴＡ
  0
TEXT
  8
_f-8_
 62
    7
 10
3340
 20
187.5
 40
25
 41
0.64
 50
0
  1
ＣＨＥＣＫＥＤ
  0
TEXT
  8
_f-8_
 62
    7
 10
3720
 20
187.5
 40
25
 41
0.64
 50
0
  1
ＳＨＥＥＴ　ＮＯ．
  0
TEXT
  8
_f-8_
 62
    7
 10
3542
 20
187.5
 40
25
 41
0.64
 50
0
  1
ＤＲＡＷＩＮＧ
  0
LINE
  8
_f-9_
  6
CONTINUOUS
 62
    7
 10
170
 20
170
 11
610
 21
170
  0
TEXT
  8
_f-8_
 62
    7
 10
2861
 20
142.5
 40
35
 41
0.5714285714285711
 50
0
  1
１／１０
  0
TEXT
  8
_f-8_
 62
    7
 10
2740.3739840854213
 20
187.46937299484983
 40
25
 41
0.64
 50
0
  1
ＳＣＡＬＥ
  0
TEXT
  8
_f-8_
 62
    7
 10
1445
 20
187.5
 40
25
 41
0.8
 50
0
  1
図面名称
  0
TEXT
  8
_f-8_
 62
    7
 10
655
 20
187.5
 40
25
 41
0.8
 50
0
  1
名　称
  0
LINE
  8
_f-8_
  6
CONTINUOUS
 62
    7
 10
2165
 20
2872
 11
2166.15
 21
2874.0000000000004
  0
LINE
  8
_f-8_
  6
CONTINUOUS
 62
    7
 10
2158.6399999999998
 20
2877
 11
2165
 21
2866
  0
LINE
  8
_f-8_
  6
CONTINUOUS
 62
    7
 10
2165
 20
2866
 11
2171.3499999999999
 21
2877
  0
LINE
  8
_f-8_
  6
CONTINUOUS
 62
    7
 10
2165
 20
2860
 11
2176.5399999999999
 21
2880
  0
LINE
  8
_f-8_
  6
CONTINUOUS
 62
    7
 10
2153.4499999999998
 20
2880
 11
2165
 21
2860
  0
LINE
  8
_f-8_
  6
CONTINUOUS
 62
    7
 10
2176.5399999999999
 20
2880
 11
2153.4499999999998
 21
2880
  0
LINE
  8
_f-8_
  6
CONTINUOUS
 62
    7
 10
2163.8400000000001
 20
2874.0000000000004
 11
2165
 21
2872
  0
LINE
  8
_f-8_
  6
CONTINUOUS
 62
    7
 10
2166.15
 20
2874.0000000000004
 11
2163.8400000000001
 21
2874.0000000000004
  0
LINE
  8
_f-8_
  6
CONTINUOUS
 62
    7
 10
2171.3499999999999
 20
2877
 11
2158.6399999999998
 21
2877
  0
LINE
  8
_f-7_
  6
CONTINUOUS
 62
    7
 10
120
 20
1462.6794919243113
 11
120
 21
1497.3205080756886
  0
LINE
  8
_f-7_
  6
CONTINUOUS
 62
    7
 10
120
 20
1497.3205080756886
 11
150
 21
1480
  0
LINE
  8
_f-7_
  6
CONTINUOUS
 62
    7
 10
150
 20
1480
 11
120
 21
1462.6794919243113
  0
LINE
  8
_f-7_
  6
CONTINUOUS
 62
    7
 10
125
 20
1471.3397459621555
 11
125
 21
1488.6602540378444
  0
LINE
  8
_f-7_
  6
CONTINUOUS
 62
    7
 10
125
 20
1488.6602540378444
 11
140
 21
1480
  0
LINE
  8
_f-7_
  6
CONTINUOUS
 62
    7
 10
140
 20
1480
 11
125
 21
1471.3397459621555
  0
LINE
  8
_f-7_
  6
CONTINUOUS
 62
    7
 10
128.99999999999977
 20
1478.2679491924309
 11
128.99999999999977
 21
1481.732050807569
  0
LINE
  8
_f-7_
  6
CONTINUOUS
 62
    7
 10
128.99999999999977
 20
1481.732050807569
 11
132.00000000000045
 21
1480
  0
LINE
  8
_f-7_
  6
CONTINUOUS
 62
    7
 10
132.00000000000045
 20
1480
 11
128.99999999999977
 21
1478.2679491924309
  0
LINE
  8
_f-7_
  6
CONTINUOUS
 62
    7
 10
4160
 20
1462.6794919243113
 11
4160
 21
1497.3205080756886
  0
LINE
  8
_f-7_
  6
CONTINUOUS
 62
    7
 10
4160
 20
1497.3205080756886
 11
4130
 21
1480
  0
LINE
  8
_f-7_
  6
CONTINUOUS
 62
    7
 10
4130
 20
1480
 11
4160
 21
1462.6794919243113
  0
LINE
  8
_f-7_
  6
CONTINUOUS
 62
    7
 10
4155
 20
1471.3397459621555
 11
4155
 21
1488.6602540378444
  0
LINE
  8
_f-7_
  6
CONTINUOUS
 62
    7
 10
4155
 20
1488.6602540378444
 11
4140
 21
1480
  0
LINE
  8
_f-7_
  6
CONTINUOUS
 62
    7
 10
4140
 20
1480
 11
4155
 21
1471.3397459621555
  0
LINE
  8
_f-7_
  6
CONTINUOUS
 62
    7
 10
4151
 20
1478.2679491924309
 11
4151
 21
1481.732050807569
  0
LINE
  8
_f-7_
  6
CONTINUOUS
 62
    7
 10
4151
 20
1481.732050807569
 11
4148
 21
1480
  0
LINE
  8
_f-7_
  6
CONTINUOUS
 62
    7
 10
4148
 20
1480
 11
4151
 21
1478.2679491924309
  0
TEXT
  8
_f-d_固定文字
 62
    7
 10
149.98500000000007
 20
65
 40
20
 41
1
 50
0
  1
%f
  0
TEXT
  8
_f-d_固定文字
 62
    7
 10
3990
 20
65.00000323002979
 40
20
 41
1
 50
0
  1
%y
  0
TEXT
  8
_f-d_固定文字
 62
    7
 10
4020
 20
65.00000323002979
 40
20
 41
1
 50
0
  1
．
  0
TEXT
  8
_f-d_固定文字
 62
    7
 10
4050
 20
65.00000323002979
 40
20
 41
1
 50
0
  1
%m
  0
TEXT
  8
_f-d_固定文字
 62
    7
 10
4080
 20
65.00000323002979
 40
20
 41
1
 50
0
  1
．
  0
TEXT
  8
_f-d_固定文字
 62
    7
 10
4110
 20
65.00000323002979
 40
20
 41
1
 50
0
  1
%d
  0
LINE
  8
_0-8_
  6
CONTINUOUS
 62
    4
 10
950
 20
1962.0000000000002
 11
1200
 21
1962.0000000000002
  0
LINE
  8
_0-8_
  6
CONTINUOUS
 62
    4
 10
1200
 20
1962.0000000000002
 11
1200
 21
1892.0000000000002
  0
LINE
  8
_0-8_
  6
CONTINUOUS
 62
    4
 10
950
 20
1892.0000000000002
 11
1200
 21
1892.0000000000002
  0
LINE
  8
_0-8_
  6
CONTINUOUS
 62
    4
 10
950
 20
1962.0000000000002
 11
950
 21
1892.0000000000002
  0
TEXT
  8
_0-8_
 62
    7
 10
1029.8999999999978
 20
1909.5000000000002
 40
35
 41
0.8571428571428568
 50
0
  1
平面図
  0
LINE
  8
_0-9_
  6
CONTINUOUS
 62
    4
 10
925
 20
2610
 11
925
 21
2440
  0
POINT
  8
_0-9_
 62
    3
 10
925
 20
2610
  0
LINE
  8
_0-3_
  6
CONTINUOUS
 62
    5
 10
925
 20
2068
 11
925
 21
2410
  0
LINE
  8
_0-3_
  6
CONTINUOUS
 62
    5
 10
925
 20
2068
 11
937
 21
2068
  0
LINE
  8
_0-3_
  6
CONTINUOUS
 62
    2
 10
937
 20
2068
 11
937
 21
2410
  0
LINE
  8
_0-9_
  6
CONTINUOUS
 62
    4
 10
1225
 20
2610
 11
1225
 21
2440
  0
POINT
  8
_0-9_
 62
    3
 10
1225
 20
2610
  0
LINE
  8
_0-3_
  6
CONTINUOUS
 62
    5
 10
1225
 20
2068
 11
1225
 21
2410
  0
LINE
  8
_0-3_
  6
CONTINUOUS
 62
    5
 10
1213
 20
2068
 11
1225
 21
2068
  0
LINE
  8
_0-9_
  6
CONTINUOUS
 62
    4
 10
1498.3796675245298
 20
2410
 11
1255
 21
2410
  0
POINT
  8
_0-9_
 62
    3
 10
1498.3796675245298
 20
2410
  0
LINE
  8
_0-3_
  6
CONTINUOUS
 62
    2
 10
1213
 20
2068
 11
1213
 21
2410
  0
LINE
  8
_0-3_
  6
CONTINUOUS
 62
    5
 10
925
 20
2410
 11
1225
 21
2410
  0
LINE
  8
_0-9_
  6
CONTINUOUS
 62
    4
 10
925
 20
2610
 11
1225
 21
2610
  0
TEXT
  8
_0-9_
 62
    7
 10
1041.9
 20
2612.0000000000004
 40
35
 41
0.6285714285714286
 50
0
  1
３００
  0
LINE
  8
_0-3_
  6
DASHED1
 62
    2
 10
937
 20
2392.5
 11
1213
 21
2392.5
  0
LINE
  8
_0-3_
  6
CONTINUOUS
 62
    4
 10
937
 20
2068
 11
1213
 21
2068
  0
LINE
  8
_0-9_
  6
CONTINUOUS
 62
    4
 10
1498.3796675245298
 20
2052
 11
1255
 21
2052
  0
POINT
  8
_0-9_
 62
    3
 10
1498.3796675245298
 20
2052
  0
POINT
  8
_0-9_
 62
    3
 10
1498.3796675245298
 20
2410
  0
POINT
  8
_0-9_
 62
    3
 10
1498.3796675245298
 20
2052
  0
LINE
  8
_0-9_
  6
CONTINUOUS
 62
    4
 10
1498.3796675245298
 20
2410
 11
1498.3796675245298
 21
2052
  0
TEXT
  8
_0-9_
 62
    7
 10
1498.3796675245298
 20
2197.9
 40
35
 41
0.6285714285714286
 50
90
  1
３５８
  0
LINE
  8
_0-3_
  6
CONTINUOUS
 62
    2
 10
937
 20
2395
 11
1213
 21
2395
  0
LINE
  8
_0-4_
  6
CONTINUOUS
 62
    3
 10
928.00000000000045
 20
2052
 11
928.00000000000045
 21
2064
  0
LINE
  8
_0-4_
  6
CONTINUOUS
 62
    3
 10
1222.0000000000002
 20
2052
 11
1222.0000000000002
 21
2064
  0
LINE
  8
_0-4_
  6
CONTINUOUS
 62
    3
 10
928.00000000000045
 20
2064
 11
1222.0000000000002
 21
2064
  0
LINE
  8
_0-4_
  6
CONTINUOUS
 62
    3
 10
928.00000000000045
 20
2052
 11
1222.0000000000002
 21
2052
  0
LINE
  8
_1-4_
  6
DASHED1
 62
    7
 10
1183.5000000000002
 20
2086.5
 11
1183.0000000000002
 21
2086.5
  0
LINE
  8
_1-4_
  6
DASHED1
 62
    7
 10
1160.5000000000002
 20
2086.5
 11
1161.0000000000002
 21
2086.5
  0
LINE
  8
_1-4_
  6
DASHED1
 62
    7
 10
1163.5000000000002
 20
2146.5
 11
1180.5000000000002
 21
2146.5
  0
LINE
  8
_1-4_
  6
DASHED1
 62
    7
 10
1164.0000000000002
 20
2111.5
 11
1180.0000000000002
 21
2111.5
  0
LINE
  8
_1-4_
  6
DASHED1
 62
    7
 10
1183.5000000000002
 20
2086.5
 11
1183.0000000000002
 21
2086.5
  0
LINE
  8
_1-4_
  6
DASHED1
 62
    7
 10
1189.5000000000002
 20
2113.5
 11
1190.5000000000002
 21
2113.5
  0
LINE
  8
_1-4_
  6
DASHED1
 62
    7
 10
1189.5000000000002
 20
2137.5
 11
1189.5000000000002
 21
2113.5
  0
LINE
  8
_1-4_
  6
DASHED1
 62
    7
 10
1154.5000000000002
 20
2113.5
 11
1153.5000000000002
 21
2113.5
  0
LINE
  8
_1-4_
  6
DASHED1
 62
    7
 10
1154.5000000000002
 20
2137.5
 11
1154.5000000000002
 21
2113.5
  0
LINE
  8
_1-4_
  6
DASHED1
 62
    7
 10
1153.1100000000001
 20
2116.5
 11
1160.5000000000002
 21
2116.5
  0
LINE
  8
_1-4_
  6
DASHED1
 62
    7
 10
1183.5000000000002
 20
2116.5
 11
1191.6000000000003
 21
2116.5
  0
LINE
  8
_1-4_
  6
DASHED1
 62
    7
 10
1162.0000000000002
 20
2111.5
 11
1162.0000000000002
 21
2108.6999999999998
  0
LINE
  8
_1-4_
  6
DASHED1
 62
    7
 10
1163.5000000000002
 20
2110.0999999999999
 11
1162.5000000000002
 21
2110.0999999999999
  0
LINE
  8
_1-4_
  6
DASHED1
 62
    7
 10
1180.5000000000002
 20
2110.0999999999999
 11
1181.5000000000004
 21
2110.0999999999999
  0
LINE
  8
_1-4_
  6
DASHED1
 62
    7
 10
1182.0000000000002
 20
2111.5
 11
1182.0000000000002
 21
2108.6999999999998
  0
LINE
  8
_1-4_
  6
DASHED1
 62
    7
 10
1180.0000000000002
 20
2111.5
 11
1180.0000000000002
 21
2089.5
  0
LINE
  8
_1-4_
  6
DASHED1
 62
    7
 10
1164.0000000000004
 20
2111.5
 11
1164.0000000000004
 21
2089.5
  0
LINE
  8
_1-4_
  6
DASHED1
 62
    7
 10
1169.7639500000002
 20
2084.5000500000001
 11
1174.2360500000002
 21
2084.5000500000001
  0
LINE
  8
_1-4_
  6
DASHED1
 62
    7
 10
1175.5000000000002
 20
2082.5000499999996
 11
1175.5000000000002
 21
2080.5000500000001
  0
LINE
  8
_1-4_
  6
DASHED1
 62
    7
 10
1168.5000000000002
 20
2082.5000499999996
 11
1168.5000000000002
 21
2080.5000500000001
  0
LINE
  8
_1-4_
  6
DASHED1
 62
    7
 10
1168.5000000000002
 20
2080.5000500000001
 11
1169.0000000000004
 21
2080.5000500000001
  0
LINE
  8
_1-4_
  6
DASHED1
 62
    7
 10
1175.0000000000002
 20
2080.5000500000001
 11
1175.5000000000002
 21
2080.5000500000001
  0
LINE
  8
_1-4_
  6
DASHED1
 62
    7
 10
1175.5000000000002
 20
2075.5000500000001
 11
1168.5000000000002
 21
2075.5000500000001
  0
LINE
  8
_1-4_
  6
DASHED1
 62
    7
 10
1175.5459500000001
 20
2075.5459999999998
 11
1175.5000000000002
 21
2075.5000500000001
  0
LINE
  8
_1-4_
  6
DASHED1
 62
    7
 10
1168.4540500000002
 20
2075.5459999999998
 11
1168.5000000000002
 21
2075.5000500000001
  0
LINE
  8
_1-4_
  6
DASHED1
 62
    7
 10
1175.0000000000002
 20
2082.5000499999996
 11
1175.0000000000002
 21
2076.5000500000001
  0
LINE
  8
_1-4_
  6
DASHED1
 62
    7
 10
1169.0000000000004
 20
2082.5000499999996
 11
1169.0000000000004
 21
2076.5000500000001
  0
LINE
  8
_1-4_
  6
DASHED1
 62
    7
 10
1169.0000000000004
 20
2080.5000500000001
 11
1175.0000000000002
 21
2080.5000500000001
  0
LINE
  8
_1-4_
  6
DASHED1
 62
    7
 10
1167.4289500000004
 20
2076.5711000000001
 11
1168.4540500000002
 21
2075.5459999999998
  0
LINE
  8
_1-4_
  6
DASHED1
 62
    7
 10
1176.5710500000002
 20
2076.5711000000001
 11
1175.5459500000001
 21
2075.5459999999998
  0
LINE
  8
_1-4_
  6
DASHED1
 62
    7
 10
1179.5000000000002
 20
2083.6421500000001
 11
1179.5000000000002
 21
2111.5
  0
LINE
  8
_1-4_
  6
DASHED1
 62
    7
 10
1164.5000000000002
 20
2083.6421500000001
 11
1164.5000000000002
 21
2111.5
  0
LINE
  8
_1-4_
  6
DASHED1
 62
    7
 10
1158.8245500000002
 20
2103.2626
 11
1158.6130500000003
 21
2103.5381000000002
  0
LINE
  8
_1-4_
  6
DASHED1
 62
    7
 10
1158.8245500000002
 20
2103.2626
 11
1159.5000000000002
 21
2104
  0
LINE
  8
_1-4_
  6
DASHED1
 62
    7
 10
1158.6130500000003
 20
2103.5381000000002
 11
1159.5000000000002
 21
2104
  0
LINE
  8
_1-4_
  6
DASHED1
 62
    7
 10
1180.0000000000002
 20
2111.5
 11
1189.2000000000002
 21
2111.5
  0
LINE
  8
_1-4_
  6
DASHED1
 62
    7
 10
1164.0000000000002
 20
2111.5
 11
1154.8000000000004
 21
2111.5
  0
LINE
  8
_1-4_
  6
DASHED1
 62
    7
 10
1173.0000000000002
 20
2111.5
 11
1173.0000000000002
 21
2102.0003999999998
  0
LINE
  8
_1-4_
  6
DASHED1
 62
    7
 10
1171.0000000000002
 20
2111.5
 11
1171.0000000000002
 21
2102.0003999999998
  0
LINE
  8
_1-4_
  6
DASHED1
 62
    7
 10
1171.5000000000004
 20
2101.5003999999998
 11
1172.5000000000002
 21
2101.5003999999998
  0
LINE
  8
_1-4_
  6
DASHED1
 62
    7
 10
1171.0000000000002
 20
2105.7200000000002
 11
1164.5000000000002
 21
2105.7200000000002
  0
LINE
  8
_1-4_
  6
DASHED1
 62
    7
 10
1179.5000000000002
 20
2105.7200000000002
 11
1173.0000000000002
 21
2105.7200000000002
  0
LINE
  8
_1-4_
  6
DASHED1
 62
    7
 10
1171.0000000000002
 20
2106.0900000000001
 11
1169.9392500000001
 21
2106.0900000000001
  0
LINE
  8
_1-4_
  6
DASHED1
 62
    7
 10
1167.5607500000003
 20
2106.0900000000001
 11
1164.5000000000002
 21
2106.0900000000001
  0
LINE
  8
_1-4_
  6
DASHED1
 62
    7
 10
1179.5000000000002
 20
2106.0900000000001
 11
1176.4392500000003
 21
2106.0900000000001
  0
LINE
  8
_1-4_
  6
DASHED1
 62
    7
 10
1174.06075
 20
2106.0900000000001
 11
1173.0000000000002
 21
2106.0900000000001
  0
LINE
  8
_1-4_
  6
DASHED1
 62
    7
 10
1191.5000000000004
 20
2101.5
 11
1191.5000000000004
 21
2112.5
  0
LINE
  8
_1-4_
  6
DASHED1
 62
    7
 10
1189.5000000000002
 20
2100.5
 11
1190.5000000000002
 21
2100.5
  0
LINE
  8
_1-4_
  6
DASHED1
 62
    7
 10
1189.5000000000002
 20
2111.1999999999998
 11
1189.5000000000002
 21
2092.5
  0
LINE
  8
_1-4_
  6
DASHED1
 62
    7
 10
1152.5000000000002
 20
2101.5
 11
1152.5000000000002
 21
2112.5
  0
LINE
  8
_1-4_
  6
DASHED1
 62
    7
 10
1154.5000000000002
 20
2100.5
 11
1153.5000000000002
 21
2100.5
  0
LINE
  8
_1-4_
  6
DASHED1
 62
    7
 10
1154.5000000000002
 20
2111.1999999999998
 11
1154.5000000000002
 21
2092.5
  0
LINE
  8
_1-4_
  6
DASHED1
 62
    7
 10
1172.0000000000002
 20
2148.1999999999998
 11
1172.0000000000002
 21
2072.9
  0
LINE
  8
_1-4_
  6
DASHED1
 62
    7
 10
1153.3700000000001
 20
2129
 11
1192.4000000000003
 21
2129
  0
LINE
  8
_1-4_
  6
DASHED1
 62
    7
 10
1159.5000000000002
 20
2108.15
 11
1159.5000000000002
 21
2099.9
  0
LINE
  8
_1-4_
  6
DASHED1
 62
    7
 10
1162.7500000000002
 20
2104
 11
1156.2000000000002
 21
2104
  0
LINE
  8
_1-4_
  6
DASHED1
 62
    7
 10
1184.5000000000002
 20
2107.8200000000001
 11
1184.5000000000002
 21
2100.0999999999999
  0
LINE
  8
_1-4_
  6
DASHED1
 62
    7
 10
1181.2300000000002
 20
2104
 11
1188.2400000000002
 21
2104
  0
LINE
  8
_1-4_
  6
DASHED1
 62
    7
 10
1175.5600000000001
 20
2078.0000500000001
 11
1168.2900000000001
 21
2078.0000500000001
  0
ARC
  8
_1-4_
  6
DASHED1
 62
    7
 10
1180.5000000000002
 20
2137.5
 40
9
 50
0.0000000000000254
 51
90.000000000000056
  0
ARC
  8
_1-4_
  6
DASHED1
 62
    7
 10
1183.5000000000002
 20
2092.5
 40
6.0000000000000008
 50
270
 51
0
  0
ARC
  8
_1-4_
  6
DASHED1
 62
    7
 10
1183.0000000000002
 20
2089.5
 40
3.0000000000000004
 50
180.00000000000005
 51
270.00000000000005
  0
ARC
  8
_1-4_
  6
DASHED1
 62
    7
 10
1163.5000000000002
 20
2137.5
 40
9
 50
90.000000000000056
 51
180.00000000000011
  0
ARC
  8
_1-4_
  6
DASHED1
 62
    7
 10
1160.5000000000002
 20
2092.5
 40
6.0000000000000008
 50
180.00000000000005
 51
270.00000000000005
  0
ARC
  8
_1-4_
  6
DASHED1
 62
    7
 10
1161.0000000000002
 20
2089.5
 40
3.0000000000000004
 50
270
 51
0
  0
CIRCLE
  8
_1-4_
  6
DASHED1
 62
    7
 10
1159.5000000000002
 20
2104
 40
1.8999999999999999
  0
CIRCLE
  8
_1-4_
  6
DASHED1
 62
    7
 10
1184.5000000000002
 20
2104
 40
1.8999999999999999
  0
ARC
  8
_1-4_
  6
DASHED1
 62
    7
 10
1190.5000000000002
 20
2112.5
 40
1
 50
0.0000000000000254
 51
90.000000000000056
  0
ARC
  8
_1-4_
  6
DASHED1
 62
    7
 10
1153.5000000000002
 20
2112.5
 40
1
 50
90.000000000000056
 51
180.00000000000011
  0
ARC
  8
_1-4_
  6
DASHED1
 62
    7
 10
1156.5000000000002
 20
2113.5
 40
2
 50
180.00000000000005
 51
270.00000000000005
  0
ARC
  8
_1-4_
  6
DASHED1
 62
    7
 10
1163.5000000000002
 20
2110.5999999999999
 40
0.5
 50
270
 51
0
  0
ARC
  8
_1-4_
  6
DASHED1
 62
    7
 10
1162.5000000000002
 20
2110.5999999999999
 40
0.5
 50
180.00000000000005
 51
270.00000000000005
  0
ARC
  8
_1-4_
  6
DASHED1
 62
    7
 10
1180.5000000000002
 20
2110.5999999999999
 40
0.5
 50
180.00000000000005
 51
270.00000000000005
  0
ARC
  8
_1-4_
  6
DASHED1
 62
    7
 10
1181.5000000000004
 20
2110.5999999999999
 40
0.5
 50
270
 51
0
  0
ARC
  8
_1-4_
  6
DASHED1
 62
    7
 10
1187.5000000000002
 20
2113.5
 40
2
 50
270
 51
0
  0
ARC
  8
_1-4_
  6
DASHED1
 62
    7
 10
1172.0000000000002
 20
2082.5000499999996
 40
3.5000000000000008
 50
90.000000000000056
 51
180.00000000000011
  0
ARC
  8
_1-4_
  6
DASHED1
 62
    7
 10
1172.0000000000002
 20
2082.5000499999996
 40
3.5000000000000008
 50
0.0000000000000254
 51
90.000000000000056
  0
ARC
  8
_1-4_
  6
DASHED1
 62
    7
 10
1172.0000000000002
 20
2082.5000499999996
 40
3.0000000000000004
 50
138.19000000000005
 51
180.00000000000011
  0
ARC
  8
_1-4_
  6
DASHED1
 62
    7
 10
1172.0000000000002
 20
2082.5000499999996
 40
3.0000000000000004
 50
0.0000000000000254
 51
41.810000000000023
  0
ARC
  8
_1-4_
  6
DASHED1
 62
    7
 10
1170.0000000000002
 20
2076.5000500000001
 40
1
 50
180.00000000000005
 51
270.00000000000005
  0
ARC
  8
_1-4_
  6
DASHED1
 62
    7
 10
1174.0000000000004
 20
2076.5000500000001
 40
1
 50
270
 51
0
  0
ARC
  8
_1-4_
  6
DASHED1
 62
    7
 10
1174.5000000000002
 20
2083.6421500000001
 40
10
 50
180.00000000000005
 51
225.00000000000005
  0
ARC
  8
_1-4_
  6
DASHED1
 62
    7
 10
1169.5000000000002
 20
2083.6421500000001
 40
10
 50
315
 51
0
  0
ARC
  8
_1-4_
  6
DASHED1
 62
    7
 10
1189.2000000000002
 20
2111.1999999999998
 40
0.2999999999999998
 50
0.0000000000000254
 51
90.000000000000056
  0
ARC
  8
_1-4_
  6
DASHED1
 62
    7
 10
1154.8000000000004
 20
2111.1999999999998
 40
0.2999999999999998
 50
90.000000000000056
 51
180.00000000000011
  0
ARC
  8
_1-4_
  6
DASHED1
 62
    7
 10
1172.5000000000002
 20
2102.0003999999998
 40
0.5
 50
270
 51
0
  0
ARC
  8
_1-4_
  6
DASHED1
 62
    7
 10
1171.5000000000004
 20
2102.0003999999998
 40
0.5
 50
180.00000000000005
 51
270.00000000000005
  0
ARC
  8
_1-4_
  6
DASHED1
 62
    7
 10
1190.5000000000002
 20
2101.5
 40
1
 50
270
 51
0
  0
ARC
  8
_1-4_
  6
DASHED1
 62
    7
 10
1153.5000000000002
 20
2101.5
 40
1
 50
180.00000000000005
 51
270.00000000000005
  0
CIRCLE
  8
_1-4_
  6
DASHED1
 62
    7
 10
1175.2500000000004
 20
2101.5000500000001
 40
2.3250000000000001
  0
CIRCLE
  8
_1-4_
  6
DASHED1
 62
    7
 10
1168.7500000000002
 20
2101.5000500000001
 40
2.3250000000000001
  0
CIRCLE
  8
_1-4_
  6
DASHED1
 62
    7
 10
1168.7500000000002
 20
2108.0000500000001
 40
2.3250000000000001
  0
CIRCLE
  8
_1-4_
  6
DASHED1
 62
    7
 10
1175.2500000000004
 20
2108.0000500000001
 40
2.3250000000000001
  0
CIRCLE
  8
_1-4_
  6
DASHED1
 62
    7
 10
1172.0000000000002
 20
2078.0000500000001
 40
1.25
  0
LINE
  8
_0-d_
  6
CONTINUOUS
 62
    7
 10
4118.9530228981957
 20
2289.1179330348768
 11
2838.6958258237882
 21
2289.1179330348768
  0
TEXT
  8
_0-d_
 62
    7
 10
3284.1963258237901
 20
2799.1179330348777
 40
35
 41
0.8571428571428568
 50
0
  1
仕　様
  0
LINE
  8
_0-d_
  6
CONTINUOUS
 62
    3
 10
4118.9530228981957
 20
2849.1179330348777
 11
2838.6958258237882
 21
2849.1179330348777
  0
TEXT
  8
_0-d_
 62
    7
 10
2918.5485968672937
 20
2728.7979362045371
 40
35
 41
0.8571428571428568
 50
0
  1
天　板
  0
TEXT
  8
_0-d_
 62
    7
 10
3178.6958258237887
 20
2726.6179330348768
 40
35
 41
0.8571428571428568
 50
0
  1
片面化粧パーティクルボード　１５ｔ
  0
LINE
  8
_0-d_
  6
CONTINUOUS
 62
    3
 10
2838.6958258237882
 20
2219.1179330348768
 11
4118.9530228981957
 21
2219.1179330348768
  0
LINE
  8
_0-d_
  6
CONTINUOUS
 62
    7
 10
4118.9530228981957
 20
2569.1179330348768
 11
2838.6958258237882
 21
2569.1179330348768
  0
LINE
  8
_0-d_
  6
CONTINUOUS
 62
    7
 10
4118.9530228981957
 20
2499.1179330348768
 11
2838.6958258237882
 21
2499.1179330348768
  0
LINE
  8
_0-d_
  6
CONTINUOUS
 62
    7
 10
4118.9530228981957
 20
2429.1179330348768
 11
2838.6958258237882
 21
2429.1179330348768
  0
LINE
  8
_0-d_
  6
CONTINUOUS
 62
    7
 10
4118.9530228981957
 20
2359.1179330348768
 11
2838.6958258237882
 21
2359.1179330348768
  0
LINE
  8
_0-d_
  6
CONTINUOUS
 62
    7
 10
4118.9530228981957
 20
2639.1179330348768
 11
2838.6958258237882
 21
2639.1179330348768
  0
LINE
  8
_0-d_
  6
CONTINUOUS
 62
    7
 10
4118.9530228981957
 20
2709.1179330348768
 11
2838.6958258237882
 21
2709.1179330348768
  0
LINE
  8
_0-d_
  6
CONTINUOUS
 62
    7
 10
4118.9530228981957
 20
2779.1179330348777
 11
2838.6958258237882
 21
2779.1179330348777
  0
LINE
  8
_0-d_
  6
CONTINUOUS
 62
    7
 10
4118.9530228981957
 20
2784.1179330348777
 11
2838.6958258237882
 21
2784.1179330348777
  0
TEXT
  8
_0-d_
 62
    7
 10
2918.6958258237905
 20
2656.6179330348768
 40
35
 41
0.8571428571428568
 50
0
  1
左　側　板
  0
TEXT
  8
_0-d_
 62
    7
 10
2918.6958258237877
 20
2586.6179330348768
 40
35
 41
0.8571428571428568
 50
0
  1
右　側　板
  0
TEXT
  8
_0-d_
 62
    7
 10
2918.6958258237877
 20
2516.6179330348768
 40
35
 41
0.8571428571428568
 50
0
  1
見　上　板
  0
TEXT
  8
_0-d_
 62
    7
 10
3178.6958258237887
 20
2516.6179330348768
 40
35
 41
0.8571428571428568
 50
0
  1
低圧メラミン化粧パーティクルボード　１５ｔ
  0
TEXT
  8
_0-d_
 62
    7
 10
2918.6958258237905
 20
2446.6179330348768
 40
35
 41
0.8571428571428568
 50
0
  1
背　板
  0
TEXT
  8
_0-d_
 62
    7
 10
3178.6958258237882
 20
2446.6179330348768
 40
35
 41
0.8571428571428568
 50
0
  1
カラーＭＤＦ・落とし込み
  0
LINE
  8
_0-d_
  6
CONTINUOUS
 62
    7
 10
4118.9530228981957
 20
2219.1179330348768
 11
2838.6958258237882
 21
2219.1179330348768
  0
LINE
  8
_0-d_
  6
CONTINUOUS
 62
    3
 10
2838.6958258237882
 20
2149.1179330348768
 11
4118.9530228981957
 21
2149.1179330348768
  0
LINE
  8
_0-d_
  6
CONTINUOUS
 62
    3
 10
2838.6958258237882
 20
2849.1179330348777
 11
2838.6958258237882
 21
2149.1179330348768
  0
LINE
  8
_0-d_
  6
CONTINUOUS
 62
    3
 10
4118.9530228981957
 20
2849.1179330348777
 11
4118.9530228981957
 21
2149.1179330348768
  0
LINE
  8
_0-d_
  6
CONTINUOUS
 62
    7
 10
3138.6958258237887
 20
2779.1179330348777
 11
3138.6958258237887
 21
2149.1179330348768
  0
TEXT
  8
_0-d_
 62
    7
 10
2918.6958258237891
 20
2376.6179330348768
 40
35
 41
0.8571428571428568
 50
0
  1
　扉
  0
TEXT
  8
_0-d_
 62
    7
 10
2918.6958258237905
 20
2306.6179330348768
 40
35
 41
0.8571428571428568
 50
0
  1
丁　番
  0
TEXT
  8
_0-d_
 62
    7
 10
3178.6958258237882
 20
2306.6179330348768
 40
35
 41
0.8571428571428568
 50
0
  1
ワンタッチスライド式丁番
  0
TEXT
  8
_0-d_
 62
    7
 10
2918.6958258237905
 20
2236.6179330348768
 40
35
 41
0.8571428571428568
 50
0
  1
棚　板
  0
TEXT
  8
_0-d_
 62
    7
 10
3178.6958258237887
 20
2236.6179330348768
 40
35
 41
0.8571428571428568
 50
0
  1
可動式　棚板　１５ｔ
  0
TEXT
  8
_0-d_
 62
    7
 10
3178.6958258237882
 20
2586.6179330348768
 40
35
 41
0.8571428571428568
 50
0
  1
両面化粧パ－ティクルボ－ド　１２ｔ
  0
TEXT
  8
_0-d_
 62
    7
 10
3178.6958258237882
 20
2656.6179330348768
 40
35
 41
0.8571428571428568
 50
0
  1
両面化粧パ－ティクルボ－ド　１２ｔ
  0
TEXT
  8
_0-d_
 62
    7
 10
3864.5740831113562
 20
2084.1179330348768
 40
35
 41
0.8571428571428568
 50
0
  1
扉　色
  0
TEXT
  8
_0-d_
 62
    7
 10
3719.6652429170922
 20
2016.6179330348768
 40
35
 41
0.8571428571428568
 50
0
  1
ＳＷ
  0
TEXT
  8
_0-d_
 62
    7
 10
3834.1951433245162
 20
2016.6179330348768
 40
35
 41
0.8571428571428568
 50
0
  1
ホワイト
  0
TEXT
  8
_0-d_
 62
    7
 10
3724.6566983267803
 20
1957.207259850657
 40
35
 41
0.8571428571428568
 50
0
  1
ＬＧ
  0
TEXT
  8
_0-d_
 62
    7
 10
3834.2941372295513
 20
1957.207259850657
 40
35
 41
0.8571428571428568
 50
0
  1
木　　目
  0
TEXT
  8
_0-d_
 62
    7
 10
3719.6652429170922
 20
1891.6179330348768
 40
35
 41
0.8571428571428568
 50
0
  1
ＵＷ
  0
TEXT
  8
_0-d_
 62
    7
 10
3834.1951433245158
 20
1891.6179330348768
 40
35
 41
0.8571428571428568
 50
0
  1
ｳﾙﾄﾗﾎﾜｲﾄ（艶有）
  0
TEXT
  8
_0-d_
 62
    7
 10
3724.6566983267803
 20
1832.207259850657
 40
35
 41
0.8571428571428568
 50
0
  1
ＷＮ
  0
TEXT
  8
_0-d_
 62
    7
 10
3834.1951433245162
 20
1831.6179330348766
 40
35
 41
0.8571428571428568
 50
0
  1
ｳｨﾝｻﾞｰﾅｯﾄ（艶有）
  0
LINE
  8
_0-d_
  6
CONTINUOUS
 62
    3
 10
4118.9530228981957
 20
2134.1179330348768
 11
4118.9530228981957
 21
1639.1179330348763
  0
LINE
  8
_0-d_
  6
CONTINUOUS
 62
    7
 10
3804.1951433245162
 20
2064.1179330348768
 11
3804.1951433245162
 21
1944.1179330348768
  0
TEXT
  8
_0-d_
 62
    7
 10
3724.6566983267803
 20
1772.2072598506565
 40
35
 41
0.8571428571428568
 50
0
  1
ＢＳ
  0
TEXT
  8
_0-d_
 62
    7
 10
3834.2941372295513
 20
1772.2072598506565
 40
35
 41
0.8571428571428568
 50
0
  1
ブラックストーン
  0
LINE
  8
_0-d_
  6
CONTINUOUS
 62
    3
 10
3704.1951433245162
 20
2134.1179330348768
 11
3704.1951433245162
 21
1639.1179330348763
  0
LINE
  8
_0-d_
  6
CONTINUOUS
 62
    7
 10
3804.1951433245162
 20
1939.1179330348768
 11
3804.1951433245162
 21
1639.1179330348763
  0
TEXT
  8
_0-d_
 62
    7
 10
3724.6566983267803
 20
1712.2072598506565
 40
35
 41
0.8571428571428568
 50
0
  1
ＰＭ
  0
TEXT
  8
_0-d_
 62
    7
 10
3834.2941372295526
 20
1712.2072598506565
 40
35
 41
0.8571428571428568
 50
0
  1
ペールグレイン
  0
TEXT
  8
_0-d_
 62
    7
 10
3724.6566983267803
 20
1652.2072598506565
 40
35
 41
0.8571428571428568
 50
0
  1
ＭＤ
  0
TEXT
  8
_0-d_
 62
    7
 10
3834.2941372295526
 20
1652.2072598506565
 40
35
 41
0.8571428571428568
 50
0
  1
ダークグレイン
  0
LINE
  8
_0-d_
  6
CONTINUOUS
 62
    3
 10
4118.9530228981957
 20
2134.1179330348768
 11
3704.1951433245162
 21
2134.1179330348768
  0
LINE
  8
_0-d_
  6
CONTINUOUS
 62
    3
 10
4118.9530228981957
 20
1639.1179330348763
 11
3704.1951433245162
 21
1639.1179330348763
  0
LINE
  8
_0-d_
  6
CONTINUOUS
 62
    7
 10
3704.1951433245162
 20
2004.1179330348768
 11
4118.9530228981957
 21
2004.1179330348768
  0
LINE
  8
_0-d_
  6
CONTINUOUS
 62
    7
 10
4118.9530228981957
 20
2004.1179330348768
 11
3704.1951433245162
 21
2004.1179330348768
  0
LINE
  8
_0-d_
  6
CONTINUOUS
 62
    3
 10
4118.9530228981957
 20
2004.1179330348768
 11
3704.1951433245162
 21
2004.1179330348768
  0
LINE
  8
_0-d_
  6
CONTINUOUS
 62
    3
 10
4118.9530228981957
 20
1944.1179330348768
 11
3704.1951433245162
 21
1944.1179330348768
  0
LINE
  8
_0-d_
  6
CONTINUOUS
 62
    7
 10
4118.9530228981957
 20
1879.1179330348768
 11
3704.1951433245162
 21
1879.1179330348768
  0
LINE
  8
_0-d_
  6
CONTINUOUS
 62
    3
 10
4118.9530228981957
 20
1879.1179330348768
 11
3704.1951433245162
 21
1879.1179330348768
  0
LINE
  8
_0-d_
  6
CONTINUOUS
 62
    3
 10
4118.9530228981957
 20
1819.1179330348766
 11
3704.1951433245162
 21
1819.1179330348766
  0
LINE
  8
_0-d_
  6
CONTINUOUS
 62
    7
 10
3704.1951433245162
 20
1879.1179330348768
 11
4118.9530228981957
 21
1879.1179330348768
  0
LINE
  8
_0-d_
  6
CONTINUOUS
 62
    7
 10
4118.9530228981957
 20
1944.1179330348768
 11
3704.1951433245162
 21
1944.1179330348768
  0
LINE
  8
_0-d_
  6
CONTINUOUS
 62
    7
 10
4118.9530228981957
 20
1939.1179330348768
 11
3704.1951433245162
 21
1939.1179330348768
  0
LINE
  8
_0-d_
  6
CONTINUOUS
 62
    7
 10
4118.9530228981957
 20
1819.1179330348766
 11
3704.1951433245162
 21
1819.1179330348766
  0
LINE
  8
_0-d_
  6
CONTINUOUS
 62
    3
 10
4118.9530228981957
 20
1819.1179330348766
 11
3704.1951433245162
 21
1819.1179330348766
  0
LINE
  8
_0-d_
  6
CONTINUOUS
 62
    3
 10
4118.9530228981957
 20
1759.1179330348763
 11
3704.1951433245162
 21
1759.1179330348763
  0
LINE
  8
_0-d_
  6
CONTINUOUS
 62
    7
 10
3704.1951433245162
 20
1819.1179330348766
 11
4118.9530228981957
 21
1819.1179330348766
  0
LINE
  8
_0-d_
  6
CONTINUOUS
 62
    7
 10
4118.9530228981957
 20
1759.1179330348763
 11
3704.1951433245162
 21
1759.1179330348763
  0
LINE
  8
_0-d_
  6
CONTINUOUS
 62
    3
 10
4118.9530228981957
 20
1759.1179330348763
 11
3704.1951433245162
 21
1759.1179330348763
  0
LINE
  8
_0-d_
  6
CONTINUOUS
 62
    3
 10
4118.9530228981957
 20
1699.1179330348763
 11
3704.1951433245162
 21
1699.1179330348763
  0
LINE
  8
_0-d_
  6
CONTINUOUS
 62
    7
 10
3704.1951433245162
 20
1759.1179330348763
 11
4118.9530228981957
 21
1759.1179330348763
  0
LINE
  8
_0-d_
  6
CONTINUOUS
 62
    7
 10
4118.9530228981957
 20
1699.1179330348763
 11
3704.1951433245162
 21
1699.1179330348763
  0
LINE
  8
_0-d_
  6
CONTINUOUS
 62
    3
 10
4118.9530228981957
 20
1699.1179330348763
 11
3704.1951433245162
 21
1699.1179330348763
  0
LINE
  8
_0-d_
  6
CONTINUOUS
 62
    7
 10
3704.1951433245162
 20
1699.1179330348763
 11
4118.9530228981957
 21
1699.1179330348763
  0
LINE
  8
_0-d_
  6
CONTINUOUS
 62
    7
 10
4118.9530228981957
 20
2064.1179330348768
 11
3704.1951433245162
 21
2064.1179330348768
  0
LINE
  8
_0-d_
  6
CONTINUOUS
 62
    7
 10
4118.9530228981957
 20
2069.1179330348768
 11
3704.1951433245162
 21
2069.1179330348768
  0
TEXT
  8
_0-d_
 62
    7
 10
3178.6958258237882
 20
2376.6179330348768
 40
35
 41
0.8571428571428568
 50
0
  1
両面化粧パ－ティクルボ－ド　１２ｔ　耐震ラッチ付
  0
LINE
  8
_e-0_
  6
CONTINUOUS
 62
    7
 10
2243.7859302690862
 20
199.51965480360598
 11
2272.9339284698526
 21
210.12865853712995
  0
LINE
  8
_e-0_
  6
CONTINUOUS
 62
    7
 10
2237.6336615052869
 20
191.95952323799758
 11
2287.5529504706664
 21
210.12865853712895
  0
LINE
  8
_e-0_
  6
CONTINUOUS
 62
    7
 10
2234.2067375789874
 20
185.39133607135255
 11
2263.8643430051365
 21
196.18582166608263
  0
LINE
  8
_e-0_
  6
CONTINUOUS
 62
    7
 10
2232.2119570371696
 20
179.34440646785787
 11
2253.9586582709303
 21
187.25955841042662
  0
LINE
  8
_e-0_
  6
CONTINUOUS
 62
    7
 10
2231.2024514117433
 20
173.65608760649877
 11
2249.4574587956462
 21
180.3003669205492
  0
LINE
  8
_e-0_
  6
CONTINUOUS
 62
    7
 10
2230.9649088875535
 20
168.248740335938
 11
2249.3748102388385
 21
174.94939644358311
  0
LINE
  8
_e-0_
  6
CONTINUOUS
 62
    7
 10
2231.3837497438626
 20
163.08029707814966
 11
2249.8286640768283
 21
169.79369686893903
  0
LINE
  8
_e-0_
  6
CONTINUOUS
 62
    7
 10
2232.3950068941753
 20
158.12747571767488
 11
2251.269568818267
 21
164.99725444285843
  0
LINE
  8
_e-0_
  6
CONTINUOUS
 62
    7
 10
2233.9675550564961
 20
153.37894757832998
 11
2253.6625167678698
 21
160.54732740628253
  0
LINE
  8
_e-0_
  6
CONTINUOUS
 62
    7
 10
2236.0955302019183
 20
148.83257832814223
 11
2257.099910488102
 21
156.47754754152117
  0
LINE
  8
_e-0_
  6
CONTINUOUS
 62
    7
 10
2238.7970089264299
 20
144.49494730998821
 11
2261.880116002736
 21
152.89651120014326
  0
LINE
  8
_e-0_
  6
CONTINUOUS
 62
    7
 10
2242.1181877425701
 20
140.38286867935909
 11
2268.9468388985251
 21
150.14769912563821
  0
LINE
  8
_e-0_
  6
CONTINUOUS
 62
    7
 10
2246.1455691824353
 20
136.52782678312661
 11
2284.5651405528205
 21
150.51140717521263
  0
LINE
  8
_e-0_
  6
CONTINUOUS
 62
    7
 10
2251.0351047702797
 20
132.98658333410969
 11
2279.1844822576495
 21
143.2321188526356
  0
LINE
  8
_e-0_
  6
CONTINUOUS
 62
    7
 10
2279.5849322183671
 20
201.90764820482513
 11
2302.1719724714803
 21
210.12865853713066
  0
LINE
  8
_e-0_
  6
CONTINUOUS
 62
    7
 10
2260.5624543087296
 20
189.663143601351
 11
2313.0511299164636
 21
208.76745915862059
  0
LINE
  8
_e-0_
  6
CONTINUOUS
 62
    7
 10
2273.0696188494734
 20
188.89449034687174
 11
2313.0511299164636
 21
203.44657029624102
  0
LINE
  8
_e-0_
  6
CONTINUOUS
 62
    7
 10
2287.6886408502887
 20
188.89449034687174
 11
2313.0511299164636
 21
198.12568143386158
  0
LINE
  8
_e-0_
  6
CONTINUOUS
 62
    7
 10
2291.8751463425487
 20
185.09736486926669
 11
2313.0511299164636
 21
192.80479257148215
  0
LINE
  8
_e-0_
  6
CONTINUOUS
 62
    7
 10
2291.8751463425487
 20
179.77647600688726
 11
2313.0511299164636
 21
187.48390370910215
  0
LINE
  8
_e-0_
  6
CONTINUOUS
 62
    7
 10
2291.8751463425487
 20
174.45558714450783
 11
2313.0511299164636
 21
182.16301484672271
  0
LINE
  8
_e-0_
  6
CONTINUOUS
 62
    7
 10
2291.8751463425487
 20
169.13469828212839
 11
2313.0511299164636
 21
176.84212598434328
  0
LINE
  8
_e-0_
  6
CONTINUOUS
 62
    7
 10
2291.8008475696451
 20
163.78676687796939
 11
2313.0511299164636
 21
171.52123712196384
  0
LINE
  8
_e-0_
  6
CONTINUOUS
 62
    7
 10
2290.6539909363364
 20
158.04845633809463
 11
2313.0511299164636
 21
166.20034825958413
  0
LINE
  8
_e-0_
  6
CONTINUOUS
 62
    7
 10
2288.3949962857823
 20
151.90536066354695
 11
2313.0511299164636
 21
160.87945939720469
  0
LINE
  8
_e-0_
  6
CONTINUOUS
 62
    7
 10
2284.4003861827632
 20
145.13055262616916
 11
2311.8608666367176
 21
155.12535013005759
  0
LINE
  8
_e-0_
  6
CONTINUOUS
 62
    7
 10
2275.7463468865153
 20
136.65985105378524
 11
2309.0387712913652
 21
148.77730256370853
  0
LINE
  8
_e-0_
  6
CONTINUOUS
 62
    7
 10
2266.9791201478205
 20
128.14795262145821
 11
2304.1703780821812
 21
141.68446348448242
  0
LINE
  8
_e-0_
  6
CONTINUOUS
 62
    7
 10
2282.1376414569663
 20
128.34431431109749
 11
2292.7244583873175
 21
132.19760054937069
  0
LINE
  8
_e-0_
  6
CONTINUOUS
 62
    3
 10
2266.4464672734898
 20
197.56612819678281
 11
2262.3244734593249
 21
194.75680664380121
  0
LINE
  8
_e-0_
  6
CONTINUOUS
 62
    3
 10
2282.3868421919432
 20
128.14795262145651
 11
2266.9204010401704
 21
128.14795262145651
  0
ARC
  8
_e-0_
  6
CONTINUOUS
 62
    3
 10
2282.3868421919432
 20
133.14795262145651
 40
5
 50
270
 51
286.20399351045659
  0
LINE
  8
_e-0_
  6
CONTINUOUS
 62
    3
 10
2313.2288608412613
 20
210.12865853712895
 11
2313.2288608412613
 21
159.77346730566921
  0
ARC
  8
_e-0_
  6
CONTINUOUS
 62
    3
 10
2271.9221657766447
 20
169.15823653484835
 40
42.5
 50
286.20399351045648
 51
345.50707147989851
  0
ARC
  8
_e-0_
  6
CONTINUOUS
 62
    3
 10
2308.2288608412613
 20
159.77346730566921
 40
5
 50
345.50707147989879
 51
0.0000000000000159
  0
ARC
  8
_e-0_
  6
CONTINUOUS
 62
    3
 10
2250.0927387377205
 20
170.4956084628958
 40
40
 50
279.71265316664215
 51
332.69093929010892
  0
ARC
  8
_e-0_
  6
CONTINUOUS
 62
    3
 10
2255.9974857549714
 20
135.99729020443191
 40
5
 50
241.9452628118
 51
279.71265316664221
  0
ARC
  8
_e-0_
  6
CONTINUOUS
 62
    3
 10
2263.2643122966178
 20
205.12865853712895
 40
5
 50
90
 51
106.05338143786268
  0
LINE
  8
_e-0_
  6
CONTINUOUS
 62
    3
 10
2288.4334989152221
 20
210.12865853712881
 11
2278.2181989551913
 21
205.24067691222057
  0
LINE
  8
_e-0_
  6
CONTINUOUS
 62
    3
 10
2278.2181989551913
 20
205.24067691222057
 11
2272.2994583375816
 21
201.4444897898403
  0
LINE
  8
_e-0_
  6
CONTINUOUS
 62
    3
 10
2266.4464672734898
 20
197.56612819678252
 11
2272.2994583375816
 21
201.4444897898403
  0
ARC
  8
_e-0_
  6
CONTINUOUS
 62
    3
 10
2263.2643122966178
 20
205.12865853712895
 40
5
 50
90
 51
106.05338143786268
  0
ARC
  8
_e-0_
  6
CONTINUOUS
 62
    3
 10
2263.2643122966178
 20
205.12865853712895
 40
5
 50
90
 51
106.05338143786268
  0
LINE
  8
_e-0_
  6
CONTINUOUS
 62
    3
 10
2288.4334989152221
 20
210.12865853712895
 11
2263.2643122966178
 21
210.12865853712895
  0
ARC
  8
_e-0_
  6
CONTINUOUS
 62
    3
 10
2273.6342932765642
 20
169.09099082020304
 40
42.5
 50
106.05338143786271
 51
241.94526281180051
  0
ARC
  8
_e-0_
  6
CONTINUOUS
 62
    3
 10
2263.2643122966178
 20
205.12865853712895
 40
5
 50
90
 51
106.05338143786268
  0
LINE
  8
_e-0_
  6
CONTINUOUS
 62
    3
 10
2299.1719829458552
 20
210.12865853712895
 11
2313.2288608412613
 21
210.12865853712895
  0
ARC
  8
_e-0_
  6
CONTINUOUS
 62
    3
 10
2299.1719829458552
 20
205.12865853712895
 40
5
 50
90
 51
112.84552721528325
  0
LINE
  8
_e-0_
  6
CONTINUOUS
 62
    3
 10
2292.0528772673465
 20
188.89449034687004
 11
2269.0173546029673
 21
188.89449034687004
  0
ARC
  8
_e-0_
  6
CONTINUOUS
 62
    3
 10
2269.0173546029673
 20
183.89449034687004
 40
5
 50
90
 51
110.93110431809542
  0
ARC
  8
_e-0_
  6
CONTINUOUS
 62
    3
 10
2254.2292662802574
 20
177.70386452217394
 40
0.5
 50
165.368776721252
 51
224.67319701305797
  0
LINE
  8
_e-0_
  6
CONTINUOUS
 62
    3
 10
2253.8737020580624
 20
177.3523334653737
 11
2253.6837582739271
 21
177.54445650133447
  0
ARC
  8
_e-0_
  6
CONTINUOUS
 62
    3
 10
2276.1622566207875
 20
165.2142768803236
 40
25
 50
110.93110431809527
 51
150.17701829297226
  0
ARC
  8
_e-0_
  6
CONTINUOUS
 62
    3
 10
2254.0393224961217
 20
177.89598755813472
 40
0.5
 50
224.67319701305652
 51
330.17701829297561
  0
LINE
  8
_e-0_
  6
CONTINUOUS
 62
    3
 10
2297.2307430642558
 20
209.73643324104926
 11
2283.5233941157548
 21
203.96157353985984
  0
LINE
  8
_e-0_
  6
CONTINUOUS
 62
    3
 10
2283.5233941157548
 20
203.96157353985984
 11
2277.114528385443
 21
200.4613679180602
  0
ARC
  8
_e-0_
  6
CONTINUOUS
 62
    3
 10
2277.9347719955744
 20
171.51524603489747
 40
25
 50
126.05682261028302
 51
165.36877672125814
  0
ARC
  8
_e-0_
  6
CONTINUOUS
 62
    3
 10
2322.0287923520791
 20
111.11536133502738
 40
100
 50
116.68868989749238
 51
126.03335467187628
  0
LINE
  8
_e-0_
  6
CONTINUOUS
 62
    3
 10
2262.3244734593245
 20
194.75680664380149
 11
2254.3560414411385
 21
187.50185893935451
  0
LINE
  8
_e-0_
  6
CONTINUOUS
 62
    3
 10
2254.3560414411385
 20
187.50185893935451
 11
2252.5108960046536
 21
185.36863764275494
  0
ARC
  8
_e-0_
  6
CONTINUOUS
 62
    3
 10
2274.5493829743445
 20
174.5520307550089
 40
25
 50
169.07329675873063
 51
296.32138326661799
  0
LINE
  8
_e-0_
  6
CONTINUOUS
 62
    3
 10
2252.5108960046541
 20
185.36863764275494
 11
2250.002621066113
 21
179.29085759512361
  0
LINE
  8
_e-0_
  6
CONTINUOUS
 62
    3
 10
2292.0528772673465
 20
188.89449034687004
 11
2292.0528772673465
 21
164.42425885831653
  0
ARC
  8
_e-0_
  6
CONTINUOUS
 62
    3
 10
2277.2840925230507
 20
144.13090983307199
 40
5
 50
311.4163090429962
 51
326.13300916724881
  0
ARC
  8
_e-0_
  6
CONTINUOUS
 62
    3
 10
2252.285941088533
 20
168.73596234419835
 40
40
 50
316.78132524618342
 51
353.81191653224226
  0
ARC
  8
_e-0_
  6
CONTINUOUS
 62
    3
 10
2240.9001979970053
 20
185.376663785662
 40
60
 50
294.69555798319504
 51
311.41630904299643
  0
ARC
  8
_e-0_
  6
CONTINUOUS
 62
    3
 10
2271.9268153318698
 20
202.98067150791609
 40
75
 50
264.68313230529076
 51
266.17253517307824
  0
ARC
  8
_e-0_
  6
CONTINUOUS
 62
    3
 10
2265.0233680716155
 20
128.80121063143832
 40
0.5
 50
174.02086603460466
 51
264.68313230528985
  0
ARC
  8
_e-0_
  6
CONTINUOUS
 62
    3
 10
2267.0124878650103
 20
128.59287809071872
 40
2.5
 50
114.69555798319522
 51
174.02086603461154
  0
LINE
  8
_e-0_
  6
CONTINUOUS
 62
    7
 10
2376.8899919095943
 20
169.43032024062034
 11
2388.2618909747961
 21
173.56935300743344
  0
LINE
  8
_e-0_
  6
CONTINUOUS
 62
    3
 10
2436.2585234464268
 20
162.63312492519389
 11
2436.2585234464268
 21
136.49018622829544
  0
CIRCLE
  8
_e-0_
  6
CONTINUOUS
 62
    3
 10
2365.5167430510387
 20
162.46293449130519
 40
13.33773795583065
  0
CIRCLE
  8
_e-0_
  6
CONTINUOUS
 62
    3
 10
2365.2330256036634
 20
162.17921704393006
 40
25.691707563897665
  0
LINE
  8
_e-0_
  6
CONTINUOUS
 62
    3
 10
2399.4939617252575
 20
188.26250382114977
 11
2399.4939617252575
 21
136.49018622829544
  0
LINE
  8
_e-0_
  6
CONTINUOUS
 62
    3
 10
2399.4939617252575
 20
136.49018622829544
 11
2414.856930753669
 21
136.49018622829544
  0
LINE
  8
_e-0_
  6
CONTINUOUS
 62
    3
 10
2414.856930753669
 20
136.49018622829544
 11
2414.856930753669
 21
172.63312492519389
  0
LINE
  8
_e-0_
  6
CONTINUOUS
 62
    3
 10
2451.1774760289304
 20
136.49018622829544
 11
2436.2585234464268
 21
136.49018622829544
  0
LINE
  8
_e-0_
  6
CONTINUOUS
 62
    3
 10
2426.2585234464268
 20
172.63312492519389
 11
2414.856930753669
 21
172.63312492519389
  0
ARC
  8
_e-0_
  6
CONTINUOUS
 62
    3
 10
2426.2585234464268
 20
162.63312492519389
 40
10
 50
0
 51
90
  0
LINE
  8
_e-0_
  6
CONTINUOUS
 62
    3
 10
2426.1774760289299
 20
188.26250382114977
 11
2399.4939617252575
 21
188.26250382114977
  0
LINE
  8
_e-0_
  6
CONTINUOUS
 62
    3
 10
2451.1774760289304
 20
163.26250382114977
 11
2451.1774760289304
 21
136.49018622829544
  0
ARC
  8
_e-0_
  6
CONTINUOUS
 62
    3
 10
2426.1774760289299
 20
163.26250382114977
 40
25
 50
0
 51
90
  0
ARC
  8
_e-0_
  6
CONTINUOUS
 62
    3
 10
2486.2452606175233
 20
162.17653762406428
 40
13.33773795583065
 50
23.422555400004949
 51
97.191484740792631
  0
LINE
  8
_e-0_
  6
CONTINUOUS
 62
    3
 10
2474.0065761310629
 20
167.47841048365671
 11
2498.4839451039833
 21
167.47841048365671
  0
ARC
  8
_e-0_
  6
CONTINUOUS
 62
    3
 10
2486.2452606175233
 20
162.17653762406428
 40
13.33773795583065
 50
92.530763017635237
 51
156.57744459999506
  0
ARC
  8
_e-0_
  6
CONTINUOUS
 62
    3
 10
2486.2452606175233
 20
162.17653762406428
 40
13.33773795583065
 50
204.21097500392608
 51
316.0067678116265
  0
LINE
  8
_e-0_
  6
CONTINUOUS
 62
    3
 10
2474.0806890359867
 20
156.70676139316753
 11
2511.5200753562385
 21
156.70676139316753
  0
LINE
  8
_e-0_
  6
CONTINUOUS
 62
    3
 10
2495.8407207162626
 20
152.91249966689292
 11
2508.7092412098891
 21
149.78943472664496
  0
ARC
  8
_e-0_
  6
CONTINUOUS
 62
    3
 10
2486.5655867677851
 20
162.8171899245882
 40
25.691707563897665
 50
346.24110979921471
 51
329.53046432565093
  0
ARC
  8
_e-0_
  6
CONTINUOUS
 62
    3
 10
2546.5135590423406
 20
162.14309845353909
 40
11.089756641867943
 50
94.502189492040685
 51
357.22978420280037
  0
LINE
  8
_e-0_
  6
CONTINUOUS
 62
    3
 10
2556.5903561511468
 20
173.19863581905565
 11
2545.6430442891501
 21
173.19863581905565
  0
LINE
  8
_e-0_
  6
CONTINUOUS
 62
    3
 10
2557.5903561511468
 20
172.19863581905599
 11
2557.5903561511468
 21
161.60712439988742
  0
ARC
  8
_e-0_
  6
CONTINUOUS
 62
    3
 10
2556.5903561511468
 20
172.19863581905599
 40
1
 50
0
 51
90
  0
LINE
  8
_e-0_
  6
CONTINUOUS
 62
    3
 10
2548.9703457355517
 20
188.29058742736094
 11
2557.3930775458175
 21
188.29058742736094
  0
ARC
  8
_e-0_
  6
CONTINUOUS
 62
    3
 10
2546.9662856612039
 20
162.67716163604518
 40
25.691707563897665
 50
85.526146014136969
 51
347.40557840019874
  0
LINE
  8
_e-0_
  6
CONTINUOUS
 62
    3
 10
2557.3930775458175
 20
209.12865853712901
 11
2557.3930775458175
 21
188.29058742736094
  0
ARC
  8
_e-0_
  6
CONTINUOUS
 62
    3
 10
2558.3930775458175
 20
209.12865853712901
 40
1
 50
90
 51
180
  0
LINE
  8
_e-0_
  6
CONTINUOUS
 62
    3
 10
2572.0397992563612
 20
209.12865853712901
 11
2572.0397992563612
 21
157.07513043814088
  0
LINE
  8
_e-0_
  6
CONTINUOUS
 62
    3
 10
2571.0397992563616
 20
210.12865853712895
 11
2558.3930775458175
 21
210.12865853712895
  0
ARC
  8
_e-0_
  6
CONTINUOUS
 62
    3
 10
2571.0397992563616
 20
209.12865853712901
 40
1
 50
0
 51
90
  0
CIRCLE
  8
_e-0_
  6
CONTINUOUS
 62
    3
 10
2607.4932845795829
 20
162.61858771142584
 40
13.33773795583065
  0
CIRCLE
  8
_e-0_
  6
CONTINUOUS
 62
    3
 10
2607.2095671322085
 20
162.334870264051
 40
25.691707563897665
  0
ARC
  8
_e-0_
  6
CONTINUOUS
 62
    3
 10
2361.3056445788688
 20
183.56108960512415
 40
5
 50
90
 51
106.05338143786268
  0
ARC
  8
_e-0_
  6
CONTINUOUS
 62
    3
 10
2361.3056445788688
 20
183.56108960512415
 40
5
 50
90
 51
106.05338143786268
  0
ARC
  8
_e-0_
  6
CONTINUOUS
 62
    3
 10
2361.3056445788688
 20
183.56108960512415
 40
5
 50
90
 51
106.05338143786268
  0
ARC
  8
_e-0_
  6
CONTINUOUS
 62
    3
 10
2361.3056445788688
 20
183.56108960512415
 40
5
 50
90
 51
106.05338143786268
  0
LINE
  8
_e-0_
  6
CONTINUOUS
 62
    7
 10
2346.3470804331013
 20
179.59716504486777
 11
2368.5044577934554
 21
187.66179087344028
  0
LINE
  8
_e-0_
  6
CONTINUOUS
 62
    7
 10
2361.2415063076145
 20
179.69740385729494
 11
2376.5205845613304
 21
185.25853354867166
  0
LINE
  8
_e-0_
  6
CONTINUOUS
 62
    7
 10
2341.7511550984831
 20
172.60349616177705
 11
2361.2415063076145
 21
179.69740385729494
  0
LINE
  8
_e-0_
  6
CONTINUOUS
 62
    7
 10
2339.9278406436087
 20
166.61897511011602
 11
2357.2356669233163
 21
172.91850869577984
  0
LINE
  8
_e-0_
  6
CONTINUOUS
 62
    7
 10
2339.5613566552269
 20
161.16469698463049
 11
2352.6357267551816
 21
165.92337853279389
  0
LINE
  8
_e-0_
  6
CONTINUOUS
 62
    7
 10
2340.2704529847874
 20
156.10189807943811
 11
2352.3257797311662
 21
160.489678179473
  0
LINE
  8
_e-0_
  6
CONTINUOUS
 62
    7
 10
2341.9204823498939
 20
151.38157079162255
 11
2353.9794571535694
 21
155.77067867592631
  0
LINE
  8
_e-0_
  6
CONTINUOUS
 62
    7
 10
2344.504128974107
 20
147.00105239631881
 11
2357.564943671171
 21
151.75480018131679
  0
LINE
  8
_e-0_
  6
CONTINUOUS
 62
    7
 10
2348.1361647674011
 20
143.00211645248765
 11
2364.9879954656798
 21
149.13568121955449
  0
LINE
  8
_e-0_
  6
CONTINUOUS
 62
    7
 10
2353.1501292054063
 20
139.50616140121155
 11
2375.2534753949121
 21
147.55112149187283
  0
LINE
  8
_e-0_
  6
CONTINUOUS
 62
    7
 10
2360.6217579801264
 20
136.90472301431668
 11
2375.3071030149835
 21
142.24975148693374
  0
LINE
  8
_e-0_
  6
CONTINUOUS
 62
    7
 10
2375.3071030149835
 20
142.24975148693374
 11
2385.0115931457403
 21
145.78189703325932
  0
LINE
  8
_e-0_
  6
CONTINUOUS
 62
    7
 10
2374.4001538198344
 20
147.24053783828736
 11
2389.063020487204
 21
152.57738485422379
  0
LINE
  8
_e-0_
  6
CONTINUOUS
 62
    7
 10
2374.4883804748506
 20
152.59353857696169
 11
2390.6567834919524
 21
158.47835601080646
  0
LINE
  8
_e-0_
  6
CONTINUOUS
 62
    7
 10
2378.4912308361026
 20
159.37134582305873
 11
2390.8686178519897
 21
163.87634627483464
  0
LINE
  8
_e-0_
  6
CONTINUOUS
 62
    7
 10
2378.6565159204478
 20
164.75239353630797
 11
2390.0320630429459
 21
168.89275408738967
  0
LINE
  8
_e-0_
  6
CONTINUOUS
 62
    7
 10
2365.1397018509305
 20
175.7953421400316
 11
2381.7641004494612
 21
181.84612839247364
  0
LINE
  8
_e-0_
  6
CONTINUOUS
 62
    7
 10
2373.159843452322
 20
173.39354609515908
 11
2385.5507858710998
 21
177.90348031010012
  0
LINE
  8
_e-0_
  6
CONTINUOUS
 62
    7
 10
2399.4939617252575
 20
182.97838129215278
 11
2414.0119690553087
 21
188.26250382114977
  0
LINE
  8
_e-0_
  6
CONTINUOUS
 62
    7
 10
2399.4939617252575
 20
177.65749242977335
 11
2428.3670442872125
 21
188.16643505383524
  0
LINE
  8
_e-0_
  6
CONTINUOUS
 62
    7
 10
2399.4939617252575
 20
172.33660356739392
 11
2436.7743097980664
 21
185.90554058897964
  0
LINE
  8
_e-0_
  6
CONTINUOUS
 62
    7
 10
2399.4939617252575
 20
167.01571470501448
 11
2442.1110032081055
 21
182.52704927725858
  0
LINE
  8
_e-0_
  6
CONTINUOUS
 62
    7
 10
2399.4939617252575
 20
161.69482584263505
 11
2414.856930753669
 21
167.28648927893004
  0
LINE
  8
_e-0_
  6
CONTINUOUS
 62
    7
 10
2428.7090082786239
 20
172.32823318076128
 11
2445.9244086202584
 21
178.5941264760919
  0
LINE
  8
_e-0_
  6
CONTINUOUS
 62
    7
 10
2399.4939617252575
 20
156.37393698025562
 11
2414.856930753669
 21
161.96560041655061
  0
LINE
  8
_e-0_
  6
CONTINUOUS
 62
    7
 10
2403.3398935234458
 20
136.49018622829544
 11
2414.856930753669
 21
140.68204496703231
  0
LINE
  8
_e-0_
  6
CONTINUOUS
 62
    7
 10
2399.4939617252575
 20
140.41127039311675
 11
2414.856930753669
 21
146.00293382941202
  0
LINE
  8
_e-0_
  6
CONTINUOUS
 62
    7
 10
2399.4939617252575
 20
145.73215925549646
 11
2414.856930753669
 21
151.32382269179146
  0
LINE
  8
_e-0_
  6
CONTINUOUS
 62
    7
 10
2399.4939617252575
 20
151.0530481178759
 11
2414.856930753669
 21
156.64471155417118
  0
LINE
  8
_e-0_
  6
CONTINUOUS
 62
    7
 10
2436.2585234464268
 20
159.113365397844
 11
2451.1774760289304
 21
164.5434200643038
  0
LINE
  8
_e-0_
  6
CONTINUOUS
 62
    7
 10
2436.2585234464268
 20
153.79247653546485
 11
2451.1774760289304
 21
159.22253120192465
  0
LINE
  8
_e-0_
  6
CONTINUOUS
 62
    7
 10
2436.105047565391
 20
164.37839360784892
 11
2450.3687179376247
 21
169.56994505472636
  0
LINE
  8
_e-0_
  6
CONTINUOUS
 62
    7
 10
2436.2585234464268
 20
148.47158767308542
 11
2451.1774760289304
 21
153.90164233954521
  0
LINE
  8
_e-0_
  6
CONTINUOUS
 62
    7
 10
2436.2585234464268
 20
143.1506988107057
 11
2451.1774760289304
 21
148.5807534771655
  0
LINE
  8
_e-0_
  6
CONTINUOUS
 62
    7
 10
2436.2585234464268
 20
137.82980994832598
 11
2451.1774760289304
 21
143.25986461478606
  0
LINE
  8
_e-0_
  6
CONTINUOUS
 62
    7
 10
2447.1969595258929
 20
136.49018622829544
 11
2451.1774760289304
 21
137.93897575240634
  0
LINE
  8
_e-0_
  6
CONTINUOUS
 62
    7
 10
2434.0189024056153
 20
168.93998772771169
 11
2448.6296862431445
 21
174.25787814386978
  0
LINE
  8
_e-0_
  6
CONTINUOUS
 62
    7
 10
2469.1883842563338
 20
181.74063227593791
 11
2487.7135419125711
 21
188.48323824789645
  0
LINE
  8
_e-0_
  6
CONTINUOUS
 62
    7
 10
2463.6316388937825
 20
174.39725350219305
 11
2496.6904887083792
 21
186.42969081378254
  0
LINE
  8
_e-0_
  6
CONTINUOUS
 62
    7
 10
2461.4628990865917
 20
168.28700790412767
 11
2502.2794299488264
 21
183.14301020398858
  0
LINE
  8
_e-0_
  6
CONTINUOUS
 62
    7
 10
2461.4992419870632
 20
162.97934677574687
 11
2473.9894671720021
 21
167.52541696234658
  0
LINE
  8
_e-0_
  6
CONTINUOUS
 62
    7
 10
2492.1508316310541
 20
174.13561303910114
 11
2506.2885679576884
 21
179.28132824190015
  0
LINE
  8
_e-0_
  6
CONTINUOUS
 62
    7
 10
2496.6927278595248
 20
170.46783921101109
 11
2509.1784918759253
 21
175.01228566505261
  0
LINE
  8
_e-0_
  6
CONTINUOUS
 62
    7
 10
2463.2093427036916
 20
158.28088367181749
 11
2488.4793399340492
 21
167.47841048365671
  0
LINE
  8
_e-0_
  6
CONTINUOUS
 62
    7
 10
2462.8888794596255
 20
152.84335572742151
 11
2511.1140538755621
 21
170.39588375711787
  0
LINE
  8
_e-0_
  6
CONTINUOUS
 62
    7
 10
2465.300291731432
 20
148.400149154524
 11
2476.9283430630944
 21
152.63241372176821
  0
LINE
  8
_e-0_
  6
CONTINUOUS
 62
    7
 10
2488.1225212892722
 20
156.70676139316753
 11
2512.1228430370119
 21
165.44216412215632
  0
LINE
  8
_e-0_
  6
CONTINUOUS
 62
    7
 10
2502.7415432900879
 20
156.70676139316753
 11
2512.1151621126959
 21
160.11847963195407
  0
LINE
  8
_e-0_
  6
CONTINUOUS
 62
    7
 10
2468.7281740890052
 20
144.32690743686691
 11
2482.5550140975401
 21
149.35946563393486
  0
LINE
  8
_e-0_
  6
CONTINUOUS
 62
    7
 10
2473.4508580764295
 20
140.72493497175571
 11
2502.4973614552445
 21
151.29699761115659
  0
LINE
  8
_e-0_
  6
CONTINUOUS
 62
    7
 10
2480.3069495598269
 20
137.89945933273884
 11
2507.3767895083869
 21
147.75207532036432
  0
LINE
  8
_e-0_
  6
CONTINUOUS
 62
    7
 10
2552.6231690921717
 20
137.61596638527407
 11
2558.7418873346696
 21
139.84299769740459
  0
LINE
  8
_e-0_
  6
CONTINUOUS
 62
    7
 10
2539.4012676014826
 20
138.12447666464265
 11
2568.5435873921023
 21
148.73141362589478
  0
LINE
  8
_e-0_
  6
CONTINUOUS
 62
    7
 10
2532.9976800904732
 20
141.11465028049622
 11
2571.5269734698549
 21
155.13816621790056
  0
LINE
  8
_e-0_
  6
CONTINUOUS
 62
    7
 10
2522.081864354775
 20
169.06695144424446
 11
2572.0397992563612
 21
187.25015271383
  0
LINE
  8
_e-0_
  6
CONTINUOUS
 62
    7
 10
2524.5896829795606
 20
175.30061163898437
 11
2572.0397992563612
 21
192.57104157620943
  0
LINE
  8
_e-0_
  6
CONTINUOUS
 62
    7
 10
2557.3930775458175
 20
208.52362629350906
 11
2561.8028673926596
 21
210.12865853712895
  0
LINE
  8
_e-0_
  6
CONTINUOUS
 62
    7
 10
2557.3930775458175
 20
203.20273743112977
 11
2572.0397992563612
 21
208.53370816334788
  0
LINE
  8
_e-0_
  6
CONTINUOUS
 62
    7
 10
2557.3930775458175
 20
197.88184856875005
 11
2572.0397992563612
 21
203.21281930096859
  0
LINE
  8
_e-0_
  6
CONTINUOUS
 62
    7
 10
2557.3930775458175
 20
192.56095970637034
 11
2572.0397992563612
 21
197.89193043858915
  0
LINE
  8
_e-0_
  6
CONTINUOUS
 62
    7
 10
2531.3600319802562
 20
183.08570601321093
 11
2545.8030101140193
 21
188.34252014805827
  0
LINE
  8
_e-0_
  6
CONTINUOUS
 62
    7
 10
2548.0525958796984
 20
173.19863581905565
 11
2572.0397992563612
 21
181.92926385145057
  0
LINE
  8
_e-0_
  6
CONTINUOUS
 62
    7
 10
2521.2864022906337
 20
163.45653806802943
 11
2538.3752084417083
 21
169.67635484616607
  0
LINE
  8
_e-0_
  6
CONTINUOUS
 62
    7
 10
2521.6554107736333
 20
158.26995730965364
 11
2535.4846691325356
 21
163.30339571427089
  0
LINE
  8
_e-0_
  6
CONTINUOUS
 62
    7
 10
2522.9940114609526
 20
153.43627925302655
 11
2536.1404517985765
 21
158.22119222247806
  0
LINE
  8
_e-0_
  6
CONTINUOUS
 62
    7
 10
2525.2563435788042
 20
148.93881194156961
 11
2539.0354883761397
 21
153.95401050144357
  0
LINE
  8
_e-0_
  6
CONTINUOUS
 62
    7
 10
2528.5117312327797
 20
144.80278728623488
 11
2545.7561370732087
 21
151.07923771975691
  0
LINE
  8
_e-0_
  6
CONTINUOUS
 62
    7
 10
2554.2054905278623
 20
154.15455087604527
 11
2572.0397992563612
 21
160.64570840193255
  0
LINE
  8
_e-0_
  6
CONTINUOUS
 62
    7
 10
2557.505937791675
 20
160.67670430221767
 11
2572.0397992563612
 21
165.96659726431198
  0
LINE
  8
_e-0_
  6
CONTINUOUS
 62
    7
 10
2557.5903561511468
 20
166.02831893467055
 11
2572.0397992563612
 21
171.28748612669141
  0
LINE
  8
_e-0_
  6
CONTINUOUS
 62
    7
 10
2557.5903561511468
 20
171.34920779704998
 11
2572.0397992563612
 21
176.60837498907085
  0
LINE
  8
_e-0_
  6
CONTINUOUS
 62
    7
 10
2595.1467628188602
 20
185.01862193009401
 11
2601.869376832742
 21
187.46545332760774
  0
LINE
  8
_e-0_
  6
CONTINUOUS
 62
    7
 10
2585.5936460434281
 20
176.22068291698809
 11
2614.8426950414304
 21
186.86646613285404
  0
LINE
  8
_e-0_
  6
CONTINUOUS
 62
    7
 10
2608.5181174973608
 20
136.67650840108905
 11
2622.7000364868072
 21
141.83830477802189
  0
LINE
  8
_e-0_
  6
CONTINUOUS
 62
    7
 10
2598.2444761483161
 20
138.25809761488983
 11
2629.5534764025951
 21
149.65364177207987
  0
LINE
  8
_e-0_
  6
CONTINUOUS
 62
    7
 10
2582.6330921261528
 20
169.82224055178022
 11
2621.2234503919626
 21
183.86798229020314
  0
LINE
  8
_e-0_
  6
CONTINUOUS
 62
    7
 10
2592.2968185805402
 20
141.41421615899105
 11
2632.0809325371146
 21
155.89444943583799
  0
LINE
  8
_e-0_
  6
CONTINUOUS
 62
    7
 10
2588.0695495912832
 20
145.19650493704432
 11
2602.246111940276
 21
150.35635165629656
  0
LINE
  8
_e-0_
  6
CONTINUOUS
 62
    7
 10
2585.0094293819529
 20
149.40360112995108
 11
2597.3909335115822
 21
153.91010008858017
  0
LINE
  8
_e-0_
  6
CONTINUOUS
 62
    7
 10
2582.919829983693
 20
153.96393800982366
 11
2594.8695180063709
 21
158.31326875884542
  0
LINE
  8
_e-0_
  6
CONTINUOUS
 62
    7
 10
2581.7538748691904
 20
158.86045391603374
 11
2594.1774270088017
 21
163.38225709870641
  0
LINE
  8
_e-0_
  6
CONTINUOUS
 62
    7
 10
2581.5798124660104
 20
164.11798924475078
 11
2595.9853391150813
 21
169.36117215394091
  0
LINE
  8
_e-0_
  6
CONTINUOUS
 62
    7
 10
2611.9748325174678
 20
175.18087181340547
 11
2625.6969314853622
 21
180.17530738937352
  0
LINE
  8
_e-0_
  6
CONTINUOUS
 62
    7
 10
2617.2029460570038
 20
171.76286066078091
 11
2628.9430705154381
 21
176.03591651023151
  0
LINE
  8
_e-0_
  6
CONTINUOUS
 62
    7
 10
2619.9310564926913
 20
167.43492279278257
 11
2631.1973168341919
 21
171.53550620858254
  0
LINE
  8
_e-0_
  6
CONTINUOUS
 62
    7
 10
2620.8298424207368
 20
162.44116525518904
 11
2632.5279188691888
 21
166.69891688059578
  0
LINE
  8
_e-0_
  6
CONTINUOUS
 62
    7
 10
2619.394865425299
 20
156.5979874796136
 11
2632.8880000931144
 21
161.50908686564349
  0
TEXT
  8
_e-0_
 62
    7
 10
2642.8586825750176
 20
180.56247057449553
 40
35
 41
0.5714285714285711
 50
0
  1
ワンド
  0
TEXT
  8
_e-0_
 62
    7
 10
2649.7045100149039
 20
147.0179161190498
 40
30
 41
0.6666666666666666
 50
0
  1
株式
  0
TEXT
  8
_e-0_
 62
    7
 10
2649.0199272709155
 20
118.95002361551377
 40
30
 41
0.6666666666666666
 50
0
  1
会社
  0
LINE
  8
_0-a_
  6
CONTINUOUS
 62
    4
 10
3166.9999999999981
 20
1179.3448788540647
 11
3194.6551211459341
 21
1207.0000000000006
  0
LINE
  8
_0-a_
  6
CONTINUOUS
 62
    4
 10
3167.0000000000004
 20
1151.0606076065998
 11
3222.9393923933994
 21
1206.9999999999988
  0
LINE
  8
_0-a_
  6
CONTINUOUS
 62
    4
 10
3166.9999999999972
 20
1122.7763363591295
 11
3251.2236636408674
 21
1207.0000000000004
  0
LINE
  8
_0-a_
  6
CONTINUOUS
 62
    4
 10
3194.507934888315
 20
1121.9999999999993
 11
3279.5079348883173
 21
1207.0000000000015
  0
LINE
  8
_0-a_
  6
CONTINUOUS
 62
    4
 10
3222.7922061357844
 20
1122.0000000000018
 11
3307.7922061357812
 21
1206.9999999999986
  0
LINE
  8
_0-a_
  6
CONTINUOUS
 62
    4
 10
3251.0764773832493
 20
1122.0000000000006
 11
3336.0764773832484
 21
1206.9999999999993
  0
LINE
  8
_0-a_
  6
CONTINUOUS
 62
    4
 10
3279.3607486307173
 20
1122.0000000000018
 11
3364.3607486307146
 21
1206.9999999999986
  0
LINE
  8
_0-a_
  6
CONTINUOUS
 62
    4
 10
3307.6450198781617
 20
1121.9999999999977
 11
3392.645019878164
 21
1207
  0
LINE
  8
_0-a_
  6
CONTINUOUS
 62
    4
 10
3335.9292911256306
 20
1122.0000000000002
 11
3420.9292911256279
 21
1206.999999999997
  0
LINE
  8
_0-a_
  6
CONTINUOUS
 62
    4
 10
3364.2135623730982
 20
1122.0000000000013
 11
3443
 21
1200.7864376269026
  0
LINE
  8
_0-a_
  6
CONTINUOUS
 62
    4
 10
3392.497833620564
 20
1122
 11
3443.0000000000018
 21
1172.5021663794377
  0
LINE
  8
_0-a_
  6
CONTINUOUS
 62
    4
 10
3420.7821048680084
 20
1121.9999999999959
 11
3443.0000000000036
 21
1144.217895131991
  0
LINE
  8
_0-9_
  6
CONTINUOUS
 62
    4
 10
3053
 20
763.99999999999988
 11
3125
 21
763.99999999999988
  0
LINE
  8
_0-3_
  6
CONTINUOUS
 62
    4
 10
2039.3796675245307
 20
1207
 11
2381.3796675245298
 21
1207
  0
TEXT
  8
_0-8_
 62
    7
 10
1029.8999999999978
 20
374.5
 40
35
 41
0.8571428571428568
 50
0
  1
立面図
  0
LINE
  8
_0-8_
  6
CONTINUOUS
 62
    4
 10
950
 20
427
 11
950
 21
357
  0
LINE
  8
_0-8_
  6
CONTINUOUS
 62
    4
 10
950
 20
357
 11
1200
 21
357
  0
LINE
  8
_0-8_
  6
CONTINUOUS
 62
    4
 10
1200
 20
427
 11
1200
 21
357
  0
LINE
  8
_0-8_
  6
CONTINUOUS
 62
    4
 10
950
 20
427
 11
1200
 21
427
  0
LINE
  8
_0-9_
  6
CONTINUOUS
 62
    4
 10
2381.3796675245298
 20
1437
 11
2381.3796675245298
 21
1237
  0
POINT
  8
_0-9_
 62
    3
 10
2381.3796675245298
 20
1437
  0
LINE
  8
_0-9_
  6
CONTINUOUS
 62
    4
 10
2561.3796675245293
 20
1207
 11
2411.3796675245298
 21
1207
  0
POINT
  8
_0-9_
 62
    3
 10
2551.3796675245298
 20
1207
  0
LINE
  8
_0-3_
  6
CONTINUOUS
 62
    4
 10
2381.3796675245298
 20
1189.0000000000002
 11
2381.3796675245298
 21
1193
  0
LINE
  8
_0-3_
  6
CONTINUOUS
 62
    4
 10
2381.3796675245298
 20
1207
 11
2381.3796675245298
 21
1193
  0
LINE
  8
_0-9_
  6
CONTINUOUS
 62
    4
 10
2561.3796675245293
 20
757
 11
2411.3796675245298
 21
757
  0
POINT
  8
_0-9_
 62
    3
 10
2471.3796675245298
 20
757
  0
POINT
  8
_0-9_
 62
    3
 10
2551.3796675245298
 20
757
  0
LINE
  8
_0-9_
  6
CONTINUOUS
 62
    4
 10
2551.3796675245298
 20
757
 11
2551.3796675245298
 21
1207
  0
TEXT
  8
_0-9_
 62
    7
 10
2551.3796675245298
 20
948.89999999999997
 40
35
 41
0.6285714285714286
 50
90
  1
４５０
  0
LINE
  8
_0-3_
  6
CONTINUOUS
 62
    5
 10
2381.3796675245298
 20
764.00000000000022
 11
2381.3796675245298
 21
757
  0
LINE
  8
_0-3_
  6
CONTINUOUS
 62
    5
 10
2363.8796675245298
 20
764.00000000000022
 11
2381.3796675245298
 21
764.00000000000022
  0
LINE
  8
_0-3_
  6
CONTINUOUS
 62
    5
 10
2039.3796675245307
 20
757
 11
2381.3796675245298
 21
757
  0
LINE
  8
_0-3_
  6
CONTINUOUS
 62
    4
 10
2381.3796675245298
 20
1189.0000000000002
 11
2381.3796675245298
 21
764.00000000000022
  0
LINE
  8
_0-8_
  6
CONTINUOUS
 62
    4
 10
2077.3796675245293
 20
427
 11
2327.3796675245293
 21
427
  0
LINE
  8
_0-8_
  6
CONTINUOUS
 62
    4
 10
2327.3796675245293
 20
427
 11
2327.3796675245293
 21
357
  0
LINE
  8
_0-8_
  6
CONTINUOUS
 62
    4
 10
2077.3796675245293
 20
357
 11
2327.3796675245293
 21
357
  0
LINE
  8
_0-8_
  6
CONTINUOUS
 62
    4
 10
2077.3796675245293
 20
427
 11
2077.3796675245293
 21
357
  0
TEXT
  8
_0-8_
 62
    7
 10
2157.2796675245299
 20
374.5
 40
35
 41
0.8571428571428568
 50
0
  1
断面図
  0
POINT
  8
_0-9_
 62
    3
 10
3155
 20
1437
  0
LINE
  8
_0-9_
  6
CONTINUOUS
 62
    4
 10
3155
 20
1447
 11
3155
 21
1237
  0
LINE
  8
_0-3_
  6
CONTINUOUS
 62
    5
 10
3155
 20
1207
 11
3155
 21
757
  0
POINT
  8
_0-9_
 62
    3
 10
3063
 20
763.99999999999988
  0
LINE
  8
_0-9_
  6
CONTINUOUS
 62
    4
 10
3167
 20
517
 11
3167
 21
727
  0
POINT
  8
_0-9_
 62
    3
 10
3167
 20
527
  0
LINE
  8
_0-9_
  6
CONTINUOUS
 62
    4
 10
925
 20
1447
 11
925
 21
1237
  0
POINT
  8
_0-9_
 62
    3
 10
925
 20
1437
  0
LINE
  8
_0-3_
  6
CONTINUOUS
 62
    5
 10
925
 20
1207
 11
925
 21
757
  0
LINE
  8
_0-3_
  6
CONTINUOUS
 62
    5
 10
925
 20
757
 11
928.00000000000068
 21
757
  0
LINE
  8
_0-9_
  6
CONTINUOUS
 62
    4
 10
1225
 20
1447
 11
1225
 21
1237
  0
POINT
  8
_0-9_
 62
    3
 10
1225
 20
1437
  0
POINT
  8
_0-9_
 62
    3
 10
1418.3796675245298
 20
1207
  0
LINE
  8
_0-9_
  6
CONTINUOUS
 62
    4
 10
1418.3796675245298
 20
1207
 11
1255
 21
1207
  0
LINE
  8
_0-3_
  6
CONTINUOUS
 62
    5
 10
1225
 20
1207
 11
1225
 21
757
  0
LINE
  8
_0-3_
  6
CONTINUOUS
 62
    5
 10
1220.5
 20
757
 11
1225
 21
757
  0
LINE
  8
_0-9_
  6
CONTINUOUS
 62
    4
 10
1428.3796675245298
 20
757
 11
1255
 21
757
  0
POINT
  8
_0-9_
 62
    3
 10
1418.3796675245298
 20
757
  0
LINE
  8
_0-9_
  6
CONTINUOUS
 62
    4
 10
1418.3796675245298
 20
757
 11
1418.3796675245298
 21
1207
  0
TEXT
  8
_0-9_
 62
    7
 10
1416.3796675245316
 20
948.89999999999997
 40
35
 41
0.6285714285714286
 50
90
  1
４５０
  0
LINE
  8
_0-9_
  6
CONTINUOUS
 62
    4
 10
925
 20
1437
 11
1225
 21
1437
  0
TEXT
  8
_0-9_
 62
    7
 10
1041.9
 20
1437
 40
35
 41
0.6285714285714286
 50
0
  1
３００
  0
LINE
  8
_0-3_
  6
CONTINUOUS
 62
    5
 10
925
 20
1207
 11
1225
 21
1207
  0
POINT
  8
_0-9_
 62
    3
 10
3455
 20
1437
  0
LINE
  8
_0-9_
  6
CONTINUOUS
 62
    4
 10
3455
 20
1447
 11
3455
 21
1237
  0
LINE
  8
_0-3_
  6
CONTINUOUS
 62
    5
 10
3455
 20
1207
 11
3455
 21
757
  0
LINE
  8
_0-9_
  6
CONTINUOUS
 62
    4
 10
3443
 20
517
 11
3443
 21
727
  0
POINT
  8
_0-9_
 62
    3
 10
3443
 20
527
  0
LINE
  8
_0-3_
  6
CONTINUOUS
 62
    5
 10
3155
 20
1207
 11
3455
 21
1207
  0
LINE
  8
_0-9_
  6
CONTINUOUS
 62
    4
 10
3155
 20
1437
 11
3455
 21
1437
  0
TEXT
  8
_0-9_
 62
    7
 10
3271.9
 20
1437
 40
35
 41
0.6285714285714286
 50
0
  1
３００
  0
LINE
  8
_0-3_
  6
CONTINUOUS
 62
    5
 10
3155
 20
757
 11
3455
 21
757
  0
LINE
  8
_0-3_
  6
CONTINUOUS
 62
    4
 10
3167
 20
763.99999999999988
 11
3443
 21
763.99999999999988
  0
LINE
  8
_0-9_
  6
CONTINUOUS
 62
    4
 10
3167
 20
527
 11
3443
 21
527
  0
TEXT
  8
_0-9_
 62
    7
 10
3271.9
 20
527
 40
35
 41
0.6285714285714286
 50
0
  1
２７６
  0
LINE
  8
_0-8_
  6
CONTINUOUS
 62
    4
 10
3180
 20
427
 11
3430
 21
427
  0
LINE
  8
_0-8_
  6
CONTINUOUS
 62
    4
 10
3430
 20
427
 11
3430
 21
357
  0
LINE
  8
_0-8_
  6
CONTINUOUS
 62
    4
 10
3180
 20
357
 11
3430
 21
357
  0
LINE
  8
_0-8_
  6
CONTINUOUS
 62
    4
 10
3180
 20
427
 11
3180
 21
357
  0
TEXT
  8
_0-8_
 62
    7
 10
3259.8999999999996
 20
374.5
 40
35
 41
0.8571428571428568
 50
0
  1
背面図
  0
LINE
  8
_0-3_
  6
CONTINUOUS
 62
    5
 10
2039.3796675245307
 20
772
 11
2363.8796675245298
 21
772
  0
LINE
  8
_0-3_
  6
CONTINUOUS
 62
    5
 10
2039.3796675245307
 20
772
 11
2039.3796675245307
 21
757
  0
LINE
  8
_0-3_
  6
CONTINUOUS
 62
    5
 10
2363.8796675245298
 20
772
 11
2363.8796675245298
 21
764.00000000000022
  0
LINE
  8
_0-3_
  6
CONTINUOUS
 62
    4
 10
2363.8796675245298
 20
772
 11
2363.8796675245298
 21
1207
  0
LINE
  8
_0-3_
  6
CONTINUOUS
 62
    4
 10
2366.3796675245298
 20
764.00000000000022
 11
2366.3796675245298
 21
1207
  0
LINE
  8
_0-3_
  6
CONTINUOUS
 62
    4
 10
2039.3796675245307
 20
1207
 11
2039.3796675245307
 21
772
  0
LINE
  8
_0-3_
  6
CONTINUOUS
 62
    5
 10
3167
 20
1207
 11
3167
 21
757
  0
LINE
  8
_0-3_
  6
CONTINUOUS
 62
    5
 10
3443
 20
1207
 11
3443
 21
757
  0
LINE
  8
_0-4_
  6
CONTINUOUS
 62
    3
 10
2023.3796675245296
 20
1202
 11
2035.37966752453
 21
1202
  0
LINE
  8
_0-9_
  6
CONTINUOUS
 62
    4
 10
1428.3796675245298
 20
741.99999999999988
 11
1255
 21
741.99999999999988
  0
POINT
  8
_0-9_
 62
    3
 10
1418.3796675245298
 20
741.99999999999988
  0
LINE
  8
_0-9_
  6
CONTINUOUS
 62
    4
 10
1418.3796675245298
 20
741.99999999999988
 11
1418.3796675245298
 21
695.65019346039457
  0
POINT
  8
_0-9_
 62
    3
 10
1418.3796675245298
 20
757
  0
POINT
  8
_0-9_
 62
    3
 10
1418.3796675245298
 20
741.99999999999988
  0
LINE
  8
_0-9_
  6
CONTINUOUS
 62
    4
 10
1418.3796675245298
 20
757
 11
1418.3796675245298
 21
741.99999999999988
  0
TEXT
  8
_0-9_
 62
    7
 10
1418.0672187311365
 20
697.96350653722242
 40
35
 41
0.6285714285714286
 50
90
  1
１５
  0
LINE
  8
_0-9_
  6
CONTINUOUS
 62
    4
 10
2023.3796675245296
 20
1437
 11
2023.3796675245296
 21
1237
  0
POINT
  8
_0-9_
 62
    3
 10
2023.3796675245296
 20
1437
  0
POINT
  8
_0-9_
 62
    3
 10
2023.3796675245296
 20
1437
  0
POINT
  8
_0-9_
 62
    3
 10
2381.3796675245298
 20
1437
  0
LINE
  8
_0-9_
  6
CONTINUOUS
 62
    4
 10
2023.3796675245296
 20
1437
 11
2381.3796675245298
 21
1437
  0
TEXT
  8
_0-9_
 62
    7
 10
2169.2796675245294
 20
1437
 40
35
 41
0.6285714285714286
 50
0
  1
３５８
  0
POINT
  8
_0-9_
 62
    3
 10
2471.3796675245298
 20
757
  0
POINT
  8
_0-9_
 62
    3
 10
3063
 20
763.99999999999988
  0
LINE
  8
_0-3_
  6
CONTINUOUS
 62
    4
 10
2039.3796675245307
 20
1192
 11
2363.8796675245298
 21
1192
  0
LINE
  8
_0-9_
  6
CONTINUOUS
 62
    4
 10
3053
 20
1207
 11
3125
 21
1207
  0
POINT
  8
_0-9_
 62
    3
 10
3063
 20
1207
  0
POINT
  8
_0-9_
 62
    3
 10
3063
 20
1207
  0
POINT
  8
_0-9_
 62
    3
 10
3063
 20
1207
  0
POINT
  8
_0-9_
 62
    3
 10
2471.3796675245298
 20
757
  0
POINT
  8
_0-9_
 62
    3
 10
2471.3796675245298
 20
922
  0
LINE
  8
_0-9_
  6
CONTINUOUS
 62
    4
 10
2481.3796675245298
 20
757
 11
2411.3796675245298
 21
757
  0
LINE
  8
_0-9_
  6
CONTINUOUS
 62
    4
 10
2481.3796675245298
 20
922
 11
2411.3796675245298
 21
922
  0
LINE
  8
_0-9_
  6
CONTINUOUS
 62
    4
 10
2471.3796675245298
 20
757
 11
2471.3796675245298
 21
922
  0
TEXT
  8
_0-9_
 62
    7
 10
2471.3796675245298
 20
806.39999999999997
 40
35
 41
0.6285714285714286
 50
90
  1
１６５
  0
POINT
  8
_0-9_
 62
    3
 10
2471.3796675245298
 20
922
  0
POINT
  8
_0-9_
 62
    3
 10
2471.3796675245298
 20
982
  0
LINE
  8
_0-9_
  6
CONTINUOUS
 62
    4
 10
2481.3796675245298
 20
922
 11
2411.3796675245298
 21
922
  0
LINE
  8
_0-9_
  6
CONTINUOUS
 62
    4
 10
2481.3796675245298
 20
982
 11
2411.3796675245298
 21
982
  0
LINE
  8
_0-9_
  6
CONTINUOUS
 62
    4
 10
2471.3796675245298
 20
922
 11
2471.3796675245298
 21
982
  0
TEXT
  8
_0-9_
 62
    7
 10
2471.3796675245298
 20
929.95000000000004
 40
35
 41
0.6285714285714286
 50
90
  1
６０
  0
POINT
  8
_0-9_
 62
    3
 10
2471.3796675245298
 20
1042
  0
LINE
  8
_0-9_
  6
CONTINUOUS
 62
    4
 10
2481.3796675245298
 20
1042
 11
2411.3796675245298
 21
1042
  0
LINE
  8
_0-9_
  6
CONTINUOUS
 62
    4
 10
2471.3796675245298
 20
982
 11
2471.3796675245298
 21
1042
  0
TEXT
  8
_0-9_
 62
    7
 10
2471.3796675245298
 20
989.95000000000004
 40
35
 41
0.6285714285714286
 50
90
  1
６０
  0
LINE
  8
_0-4_
  6
CONTINUOUS
 62
    3
 10
928
 20
1202
 11
928
 21
742
  0
LINE
  8
_0-4_
  6
CONTINUOUS
 62
    3
 10
1222
 20
1202
 11
928
 21
1202
  0
LINE
  8
_0-4_
  6
CONTINUOUS
 62
    3
 10
1222
 20
1202
 11
1222
 21
742
  0
LINE
  8
_0-4_
  6
CENTER2
 62
    4
 10
1222
 20
742
 11
928
 21
975.99999999999977
  0
LINE
  8
_0-4_
  6
CENTER2
 62
    4
 10
928
 20
975.99999999999977
 11
1222
 21
1202
  0
POINT
  8
_0-9_
 62
    3
 10
928
 20
527
  0
POINT
  8
_0-9_
 62
    3
 10
1222
 20
527
  0
LINE
  8
_0-9_
  6
CONTINUOUS
 62
    4
 10
928
 20
517
 11
928
 21
727
  0
LINE
  8
_0-9_
  6
CONTINUOUS
 62
    4
 10
1222
 20
517
 11
1222
 21
727
  0
LINE
  8
_0-9_
  6
CONTINUOUS
 62
    4
 10
928
 20
527
 11
1222
 21
527
  0
TEXT
  8
_0-9_
 62
    7
 10
1041.9
 20
532
 40
35
 41
0.6285714285714286
 50
0
  1
２９４
  0
LINE
  8
_0-3_
  6
CONTINUOUS
 62
    4
 10
2366.3796675245298
 20
1122
 11
2381.3796675245298
 21
1122
  0
LINE
  8
_0-3_
  6
CONTINUOUS
 62
    2
 10
3167
 20
1122
 11
3443
 21
1122
  0
LINE
  8
_0-3_
  6
CONTINUOUS
 62
    4
 10
2381.3796675245298
 20
809.00000000000022
 11
2366.3796675245298
 21
764.00000000000022
  0
LINE
  8
_0-3_
  6
CONTINUOUS
 62
    4
 10
2366.3796675245298
 20
809.00000000000022
 11
2381.3796675245298
 21
809.00000000000022
  0
LINE
  8
_0-a_
  6
CONTINUOUS
 62
    4
 10
3430.4776310850274
 20
764.00000000000261
 11
3442.9999999999981
 21
776.52236891497364
  0
LINE
  8
_0-a_
  6
CONTINUOUS
 62
    4
 10
3402.1933598375526
 20
763.99999999999499
 11
3443.000000000004
 21
804.80664016244588
  0
LINE
  8
_0-3_
  6
CONTINUOUS
 62
    2
 10
3167
 20
809.00000000000022
 11
3443
 21
809.00000000000022
  0
LINE
  8
_0-a_
  6
CONTINUOUS
 62
    4
 10
3166.9999999999972
 20
783.36508138958436
 11
3192.634918610413
 21
809.00000000000022
  0
LINE
  8
_0-a_
  6
CONTINUOUS
 62
    4
 10
3175.9191898578592
 20
763.9999999999984
 11
3220.9191898578615
 21
809.00000000000022
  0
LINE
  8
_0-a_
  6
CONTINUOUS
 62
    4
 10
3204.2034611053286
 20
764.0000000000009
 11
3249.2034611053281
 21
809.00000000000022
  0
LINE
  8
_0-a_
  6
CONTINUOUS
 62
    4
 10
3232.4877323527935
 20
763.99999999999954
 11
3277.4877323527948
 21
809.00000000000022
  0
LINE
  8
_0-a_
  6
CONTINUOUS
 62
    4
 10
3260.7720036002524
 20
764
 11
3305.7720036002524
 21
809.00000000000022
  0
LINE
  8
_0-a_
  6
CONTINUOUS
 62
    4
 10
3289.0562748477059
 20
763.99999999999658
 11
3334.05627484771
 21
809.00000000000022
  0
LINE
  8
_0-a_
  6
CONTINUOUS
 62
    4
 10
3317.3405460951785
 20
764.00000000000204
 11
3362.3405460951767
 21
809.00000000000022
  0
LINE
  8
_0-a_
  6
CONTINUOUS
 62
    4
 10
3345.6248173426447
 20
764.00000000000181
 11
3390.6248173426433
 21
809.00000000000034
  0
LINE
  8
_0-a_
  6
CONTINUOUS
 62
    4
 10
3373.9090885900891
 20
763.99999999999772
 11
3418.9090885900918
 21
809
  0
LINE
  8
_0-9_
  6
CONTINUOUS
 62
    4
 10
3053
 20
809.00000000000022
 11
3125
 21
809.00000000000022
  0
POINT
  8
_0-9_
 62
    3
 10
3063
 20
809.00000000000022
  0
POINT
  8
_0-9_
 62
    3
 10
3063
 20
809.00000000000022
  0
POINT
  8
_0-9_
 62
    3
 10
3063
 20
1207
  0
POINT
  8
_0-9_
 62
    3
 10
3063
 20
1122
  0
LINE
  8
_0-9_
  6
CONTINUOUS
 62
    4
 10
3053
 20
1207
 11
3125
 21
1207
  0
LINE
  8
_0-9_
  6
CONTINUOUS
 62
    4
 10
3053
 20
1122
 11
3125
 21
1122
  0
LINE
  8
_0-9_
  6
CONTINUOUS
 62
    4
 10
3063
 20
1207
 11
3063
 21
1122
  0
TEXT
  8
_0-9_
 62
    7
 10
3058
 20
1142.45
 40
35
 41
0.6285714285714286
 50
90
  1
８５
  0
POINT
  8
_0-9_
 62
    3
 10
3063
 20
809.00000000000022
  0
POINT
  8
_0-9_
 62
    3
 10
3063
 20
763.99999999999988
  0
LINE
  8
_0-9_
  6
CONTINUOUS
 62
    4
 10
3063
 20
809.00000000000022
 11
3063
 21
763.99999999999988
  0
TEXT
  8
_0-9_
 62
    7
 10
3058
 20
713.10854962441919
 40
35
 41
0.6285714285714286
 50
90
  1
４５
  0
LINE
  8
_0-9_
  6
CONTINUOUS
 62
    4
 10
3063
 20
763.99999999999988
 11
3063
 21
711.30420252630926
  0
LINE
  8
_0-3_
  6
CONTINUOUS
 62
    4
 10
2381.3796675245298
 20
1207
 11
2366.3796675245298
 21
1122
  0
LINE
  8
_0-4_
  6
CONTINUOUS
 62
    3
 10
1222
 20
742
 11
928
 21
742
  0
LINE
  8
_0-4_
  6
CONTINUOUS
 62
    3
 10
2023.3796675245296
 20
1202
 11
2023.3796675245296
 21
742
  0
LINE
  8
_0-4_
  6
CONTINUOUS
 62
    3
 10
2035.37966752453
 20
1202
 11
2035.37966752453
 21
742
  0
LINE
  8
_0-4_
  6
CONTINUOUS
 62
    3
 10
2023.3796675245296
 20
742
 11
2035.37966752453
 21
742
  0
LINE
  8
_0-6_
  6
CONTINUOUS
 62
    7
 10
2069.8796675245307
 20
987
 11
2358.8796675245307
 21
987
  0
LINE
  8
_0-6_
  6
CONTINUOUS
 62
    7
 10
2358.8796675245307
 20
987
 11
2358.8796675245307
 21
1002
  0
LINE
  8
_0-6_
  6
CONTINUOUS
 62
    7
 10
2358.8796675245307
 20
1002
 11
2069.8796675245307
 21
1002
  0
LINE
  8
_0-6_
  6
CONTINUOUS
 62
    7
 10
2069.8796675245307
 20
1002
 11
2069.8796675245307
 21
987
  0
LINE
  8
_0-6_
  6
DASHED1
 62
    7
 10
939
 20
1002
 11
939
 21
987
  0
LINE
  8
_0-6_
  6
DASHED1
 62
    7
 10
1211
 20
1002
 11
939
 21
1002
  0
LINE
  8
_0-6_
  6
DASHED1
 62
    7
 10
1211
 20
987
 11
939
 21
987
  0
LINE
  8
_0-6_
  6
DASHED1
 62
    7
 10
1211
 20
987
 11
1211
 21
1002
  0
LINE
  8
_0-0_
  6
DASHED1
 62
    7
 10
937.99999999999977
 20
987
 11
947
 21
987
  0
LINE
  8
_0-0_
  6
DASHED1
 62
    7
 10
937
 20
987
 11
947
 21
987
  0
LINE
  8
_0-0_
  6
DASHED1
 62
    7
 10
927.0052999999998
 20
982
 11
949.28622499999983
 21
982
  0
LINE
  8
_0-0_
  6
DASHED1
 62
    7
 10
937
 20
978.40000000000009
 11
937
 21
985.60000000000002
  0
LINE
  8
_0-0_
  6
DASHED1
 62
    7
 10
937.79999999999995
 20
984.5
 11
937.79999999999995
 21
979.5
  0
LINE
  8
_0-0_
  6
DASHED1
 62
    7
 10
945.79999999999972
 20
980
 11
938.29999999999972
 21
980
  0
LINE
  8
_0-0_
  6
DASHED1
 62
    7
 10
937.79999999999995
 20
979.5
 11
937.79999999999995
 21
978.40000000000009
  0
LINE
  8
_0-0_
  6
DASHED1
 62
    7
 10
936.5
 20
979.5999999999999
 11
928.5
 21
979.5999999999999
  0
LINE
  8
_0-0_
  6
DASHED1
 62
    7
 10
927.99999999999977
 20
980.10000000000002
 11
927.99999999999977
 21
983.89999999999997
  0
LINE
  8
_0-0_
  6
DASHED1
 62
    7
 10
928.5
 20
984.39999999999997
 11
936.5
 21
984.39999999999997
  0
LINE
  8
_0-0_
  6
DASHED1
 62
    7
 10
937.79999999999995
 20
985.60000000000002
 11
937.79999999999995
 21
984.5
  0
LINE
  8
_0-0_
  6
DASHED1
 62
    7
 10
938.29999999999972
 20
984
 11
945.79999999999972
 21
984
  0
LINE
  8
_0-0_
  6
DASHED1
 62
    7
 10
945.79999999999972
 20
984
 11
945.79999999999972
 21
980
  0
LINE
  8
_0-0_
  6
DASHED1
 62
    7
 10
946.19999999999981
 20
983.5
 11
946.19999999999981
 21
984
  0
LINE
  8
_0-0_
  6
DASHED1
 62
    7
 10
947
 20
986.10000000000002
 11
947
 21
977.5
  0
LINE
  8
_0-0_
  6
DASHED1
 62
    7
 10
946.19999999999981
 20
983.5
 11
947
 21
983.5
  0
LINE
  8
_0-0_
  6
DASHED1
 62
    7
 10
946.19999999999981
 20
980.5
 11
947
 21
980.5
  0
LINE
  8
_0-0_
  6
DASHED1
 62
    7
 10
937
 20
980
 11
945.79999999999972
 21
980
  0
LINE
  8
_0-0_
  6
DASHED1
 62
    7
 10
937
 20
977.5
 11
937
 21
980
  0
LINE
  8
_0-0_
  6
DASHED1
 62
    7
 10
945.79999999999972
 20
980
 11
946.19999999999981
 21
980
  0
LINE
  8
_0-0_
  6
DASHED1
 62
    7
 10
937
 20
984
 11
946.19999999999981
 21
984
  0
LINE
  8
_0-0_
  6
DASHED1
 62
    7
 10
946.19999999999981
 20
980
 11
946.19999999999981
 21
980.5
  0
LINE
  8
_0-0_
  6
DASHED1
 62
    7
 10
937
 20
984.93364999999994
 11
947
 21
984.93364999999994
  0
LINE
  8
_0-0_
  6
DASHED1
 62
    7
 10
946.19999999999981
 20
984
 11
947
 21
984
  0
LINE
  8
_0-0_
  6
DASHED1
 62
    7
 10
947
 20
987
 11
947
 21
986.10000000000002
  0
LINE
  8
_0-0_
  6
DASHED1
 62
    7
 10
937
 20
980
 11
937
 21
987
  0
LINE
  8
_0-0_
  6
DASHED1
 62
    7
 10
937.49999999999977
 20
1007.5
 11
946.5
 21
1007.5
  0
LINE
  8
_0-0_
  6
DASHED1
 62
    7
 10
946.5
 20
977
 11
937.49999999999977
 21
977
  0
LINE
  8
_0-0_
  6
DASHED1
 62
    7
 10
935.52259999999978
 20
982
 11
948.59642499999972
 21
982
  0
LINE
  8
_0-0_
  6
DASHED1
 62
    7
 10
947
 20
1007
 11
947
 21
987
  0
ARC
  8
_0-0_
  6
DASHED1
 62
    7
 10
936.5
 20
984.89999999999997
 40
0.5
 50
270.00000000000005
 51
0.0000000000000508
  0
ARC
  8
_0-0_
  6
DASHED1
 62
    7
 10
936.5
 20
979.0999999999999
 40
0.5
 50
0
 51
90.000000000000028
  0
ARC
  8
_0-0_
  6
DASHED1
 62
    7
 10
938.29999999999972
 20
979.5
 40
0.5
 50
90.000000000000028
 51
180.00000000000005
  0
ARC
  8
_0-0_
  6
DASHED1
 62
    7
 10
938.29999999999972
 20
984.5
 40
0.5
 50
180.00000000000005
 51
270.00000000000005
  0
ARC
  8
_0-0_
  6
DASHED1
 62
    7
 10
928.5
 20
983.89999999999997
 40
0.5
 50
90.000000000000028
 51
180.00000000000005
  0
ARC
  8
_0-0_
  6
DASHED1
 62
    7
 10
928.5
 20
980.10000000000002
 40
0.5
 50
180.00000000000005
 51
270.00000000000005
  0
ARC
  8
_0-0_
  6
DASHED1
 62
    7
 10
937.39999999999986
 20
978.40000000000009
 40
0.4
 50
270.00000000000005
 51
0.0000000000000508
  0
ARC
  8
_0-0_
  6
DASHED1
 62
    7
 10
937.39999999999986
 20
978.40000000000009
 40
0.4
 50
180.00000000000005
 51
270.00000000000005
  0
ARC
  8
_0-0_
  6
DASHED1
 62
    7
 10
937.39999999999986
 20
985.60000000000002
 40
0.4
 50
90.000000000000028
 51
180.00000000000005
  0
ARC
  8
_0-0_
  6
DASHED1
 62
    7
 10
937.39999999999986
 20
985.60000000000002
 40
0.4
 50
0
 51
90.000000000000028
  0
ARC
  8
_0-0_
  6
DASHED1
 62
    7
 10
937.49999999999977
 20
1007
 40
0.5
 50
90.000000000000028
 51
180.00000000000005
  0
ARC
  8
_0-0_
  6
DASHED1
 62
    7
 10
946.5
 20
1007
 40
0.5
 50
0
 51
90.000000000000028
  0
ARC
  8
_0-0_
  6
DASHED1
 62
    7
 10
946.5
 20
977.5
 40
0.5
 50
270.00000000000005
 51
0.0000000000000508
  0
ARC
  8
_0-0_
  6
DASHED1
 62
    7
 10
937.49999999999977
 20
977.5
 40
0.5
 50
180.00000000000005
 51
270.00000000000005
  0
LINE
  8
_0-0_
  6
DASHED1
 62
    7
 10
937
 20
987
 11
937
 21
1007
  0
LINE
  8
_0-0_
  6
DASHED1
 62
    7
 10
1212.0000000000002
 20
987
 11
1203
 21
987
  0
LINE
  8
_0-0_
  6
DASHED1
 62
    7
 10
1213
 20
987
 11
1203
 21
987
  0
LINE
  8
_0-0_
  6
DASHED1
 62
    7
 10
1222.9947000000001
 20
982
 11
1200.7137750000001
 21
982
  0
LINE
  8
_0-0_
  6
DASHED1
 62
    7
 10
1213
 20
978.40000000000009
 11
1213
 21
985.60000000000002
  0
LINE
  8
_0-0_
  6
DASHED1
 62
    7
 10
1212.2
 20
984.5
 11
1212.2
 21
979.5
  0
LINE
  8
_0-0_
  6
DASHED1
 62
    7
 10
1204.2000000000002
 20
980
 11
1211.7000000000002
 21
980
  0
LINE
  8
_0-0_
  6
DASHED1
 62
    7
 10
1212.2
 20
979.5
 11
1212.2
 21
978.40000000000009
  0
LINE
  8
_0-0_
  6
DASHED1
 62
    7
 10
1213.5
 20
979.5999999999999
 11
1221.5
 21
979.5999999999999
  0
LINE
  8
_0-0_
  6
DASHED1
 62
    7
 10
1222.0000000000002
 20
980.10000000000002
 11
1222.0000000000002
 21
983.89999999999997
  0
LINE
  8
_0-0_
  6
DASHED1
 62
    7
 10
1221.5
 20
984.39999999999997
 11
1213.5
 21
984.39999999999997
  0
LINE
  8
_0-0_
  6
DASHED1
 62
    7
 10
1212.2
 20
985.60000000000002
 11
1212.2
 21
984.5
  0
LINE
  8
_0-0_
  6
DASHED1
 62
    7
 10
1211.7000000000002
 20
984
 11
1204.2000000000002
 21
984
  0
LINE
  8
_0-0_
  6
DASHED1
 62
    7
 10
1204.2000000000002
 20
984
 11
1204.2000000000002
 21
980
  0
LINE
  8
_0-0_
  6
DASHED1
 62
    7
 10
1203.8000000000001
 20
983.5
 11
1203.8000000000001
 21
984
  0
LINE
  8
_0-0_
  6
DASHED1
 62
    7
 10
1203
 20
986.10000000000002
 11
1203
 21
977.5
  0
LINE
  8
_0-0_
  6
DASHED1
 62
    7
 10
1203.8000000000001
 20
983.5
 11
1203
 21
983.5
  0
LINE
  8
_0-0_
  6
DASHED1
 62
    7
 10
1203.8000000000001
 20
980.5
 11
1203
 21
980.5
  0
LINE
  8
_0-0_
  6
DASHED1
 62
    7
 10
1213
 20
980
 11
1204.2000000000002
 21
980
  0
LINE
  8
_0-0_
  6
DASHED1
 62
    7
 10
1213
 20
977.5
 11
1213
 21
980
  0
LINE
  8
_0-0_
  6
DASHED1
 62
    7
 10
1204.2000000000002
 20
980
 11
1203.8000000000001
 21
980
  0
LINE
  8
_0-0_
  6
DASHED1
 62
    7
 10
1213
 20
984
 11
1203.8000000000001
 21
984
  0
LINE
  8
_0-0_
  6
DASHED1
 62
    7
 10
1203.8000000000001
 20
980
 11
1203.8000000000001
 21
980.5
  0
LINE
  8
_0-0_
  6
DASHED1
 62
    7
 10
1213
 20
984.93364999999994
 11
1203
 21
984.93364999999994
  0
LINE
  8
_0-0_
  6
DASHED1
 62
    7
 10
1203.8000000000001
 20
984
 11
1203
 21
984
  0
LINE
  8
_0-0_
  6
DASHED1
 62
    7
 10
1203
 20
987
 11
1203
 21
986.10000000000002
  0
LINE
  8
_0-0_
  6
DASHED1
 62
    7
 10
1213
 20
980
 11
1213
 21
987
  0
LINE
  8
_0-0_
  6
DASHED1
 62
    7
 10
1212.5000000000002
 20
1007.5
 11
1203.5
 21
1007.5
  0
LINE
  8
_0-0_
  6
DASHED1
 62
    7
 10
1203.5
 20
977
 11
1212.5000000000002
 21
977
  0
LINE
  8
_0-0_
  6
DASHED1
 62
    7
 10
1214.4774000000002
 20
982
 11
1201.4035750000002
 21
982
  0
LINE
  8
_0-0_
  6
DASHED1
 62
    7
 10
1203
 20
1007
 11
1203
 21
987
  0
ARC
  8
_0-0_
  6
DASHED1
 62
    7
 10
1213.5
 20
984.89999999999997
 40
0.5
 50
179.99999999999991
 51
269.99999999999994
  0
ARC
  8
_0-0_
  6
DASHED1
 62
    7
 10
1213.5
 20
979.0999999999999
 40
0.5
 50
89.999999999999971
 51
180
  0
ARC
  8
_0-0_
  6
DASHED1
 62
    7
 10
1211.7000000000002
 20
979.5
 40
0.5
 50
359.99999999999994
 51
89.999999999999943
  0
ARC
  8
_0-0_
  6
DASHED1
 62
    7
 10
1211.7000000000002
 20
984.5
 40
0.5
 50
269.99999999999988
 51
359.99999999999988
  0
ARC
  8
_0-0_
  6
DASHED1
 62
    7
 10
1221.5
 20
983.89999999999997
 40
0.5
 50
359.99999999999994
 51
89.999999999999943
  0
ARC
  8
_0-0_
  6
DASHED1
 62
    7
 10
1221.5
 20
980.10000000000002
 40
0.5
 50
269.99999999999988
 51
359.99999999999988
  0
ARC
  8
_0-0_
  6
DASHED1
 62
    7
 10
1212.6000000000001
 20
978.40000000000009
 40
0.4
 50
179.99999999999991
 51
269.99999999999994
  0
ARC
  8
_0-0_
  6
DASHED1
 62
    7
 10
1212.6000000000001
 20
978.40000000000009
 40
0.4
 50
269.99999999999988
 51
359.99999999999988
  0
ARC
  8
_0-0_
  6
DASHED1
 62
    7
 10
1212.6000000000001
 20
985.60000000000002
 40
0.4
 50
359.99999999999994
 51
89.999999999999943
  0
ARC
  8
_0-0_
  6
DASHED1
 62
    7
 10
1212.6000000000001
 20
985.60000000000002
 40
0.4
 50
89.999999999999971
 51
180
  0
ARC
  8
_0-0_
  6
DASHED1
 62
    7
 10
1212.5000000000002
 20
1007
 40
0.5
 50
359.99999999999994
 51
89.999999999999943
  0
ARC
  8
_0-0_
  6
DASHED1
 62
    7
 10
1203.5
 20
1007
 40
0.5
 50
89.999999999999971
 51
180
  0
ARC
  8
_0-0_
  6
DASHED1
 62
    7
 10
1203.5
 20
977.5
 40
0.5
 50
179.99999999999991
 51
269.99999999999994
  0
ARC
  8
_0-0_
  6
DASHED1
 62
    7
 10
1212.5000000000002
 20
977.5
 40
0.5
 50
269.99999999999988
 51
359.99999999999988
  0
LINE
  8
_0-0_
  6
DASHED1
 62
    7
 10
1213
 20
987
 11
1213
 21
1007
  0
CIRCLE
  8
_0-3_
  6
CONTINUOUS
 62
    4
 10
2088.3796675245307
 20
1042
 40
2.5
  0
CIRCLE
  8
_0-3_
  6
CONTINUOUS
 62
    4
 10
2088.3796675245307
 20
982
 40
2.5
  0
CIRCLE
  8
_0-3_
  6
CONTINUOUS
 62
    4
 10
2088.3796675245307
 20
922
 40
2.5
  0
CIRCLE
  8
_0-3_
  6
CONTINUOUS
 62
    7
 10
2088.3796675245307
 20
1042
 40
2.5
  0
CIRCLE
  8
_0-3_
  6
CONTINUOUS
 62
    7
 10
2088.3796675245307
 20
922
 40
2.5
  0
CIRCLE
  8
_0-3_
  6
CONTINUOUS
 62
    7
 10
2088.3796675245307
 20
982
 40
2.5
  0
LINE
  8
_0-3_
  6
CENTER2
 62
    4
 10
2088.3796675245307
 20
1052
 11
2088.3796675245307
 21
1032
  0
LINE
  8
_0-3_
  6
CENTER2
 62
    4
 10
2078.3796675245307
 20
1042
 11
2100.8796675245307
 21
1042
  0
LINE
  8
_0-3_
  6
CENTER2
 62
    4
 10
2088.3796675245307
 20
992
 11
2088.3796675245307
 21
971.99999999999988
  0
LINE
  8
_0-3_
  6
CENTER2
 62
    4
 10
2078.3796675245307
 20
982
 11
2100.8796675245307
 21
982
  0
LINE
  8
_0-3_
  6
CENTER2
 62
    4
 10
2088.3796675245307
 20
932
 11
2088.3796675245307
 21
912
  0
LINE
  8
_0-3_
  6
CENTER2
 62
    4
 10
2078.3796675245307
 20
922
 11
2100.8796675245307
 21
922
  0
CIRCLE
  8
_0-3_
  6
CONTINUOUS
 62
    4
 10
2340.3796675245307
 20
982
 40
2.5
  0
CIRCLE
  8
_0-3_
  6
CONTINUOUS
 62
    4
 10
2340.3796675245307
 20
922
 40
2.5
  0
CIRCLE
  8
_0-3_
  6
CONTINUOUS
 62
    7
 10
2340.3796675245307
 20
922
 40
2.5
  0
CIRCLE
  8
_0-3_
  6
CONTINUOUS
 62
    7
 10
2340.3796675245307
 20
982
 40
2.5
  0
LINE
  8
_0-3_
  6
CENTER2
 62
    4
 10
2340.3796675245307
 20
992
 11
2340.3796675245307
 21
971.99999999999988
  0
LINE
  8
_0-3_
  6
CENTER2
 62
    4
 10
2330.3796675245307
 20
982
 11
2352.8796675245307
 21
982
  0
LINE
  8
_0-3_
  6
CENTER2
 62
    4
 10
2340.3796675245307
 20
932
 11
2340.3796675245307
 21
912
  0
LINE
  8
_0-3_
  6
CENTER2
 62
    4
 10
2330.3796675245307
 20
922
 11
2352.8796675245307
 21
922
  0
CIRCLE
  8
_0-3_
  6
CONTINUOUS
 62
    4
 10
2340.3796675245307
 20
1042
 40
2.5
  0
CIRCLE
  8
_0-3_
  6
CONTINUOUS
 62
    7
 10
2340.3796675245307
 20
1042
 40
2.5
  0
LINE
  8
_0-3_
  6
CENTER2
 62
    4
 10
2340.3796675245307
 20
1052
 11
2340.3796675245307
 21
1032
  0
LINE
  8
_0-3_
  6
CENTER2
 62
    4
 10
2330.3796675245307
 20
1042
 11
2352.8796675245307
 21
1042
  0
CIRCLE
  8
_0-0_
  6
CONTINUOUS
 62
    7
 10
2088.3796675245307
 20
982
 40
1.5000000000000002
  0
LINE
  8
_0-0_
  6
CONTINUOUS
 62
    7
 10
2093.3796675245307
 20
983.06887500000004
 11
2093.3796675245307
 21
984
  0
LINE
  8
_0-0_
  6
CONTINUOUS
 62
    7
 10
2093.3796675245307
 20
984
 11
2094.3084425245306
 21
984.066325
  0
LINE
  8
_0-0_
  6
CONTINUOUS
 62
    7
 10
2083.3796675245307
 20
982
 11
2083.3796675245307
 21
983
  0
LINE
  8
_0-0_
  6
CONTINUOUS
 62
    7
 10
2082.3796675245303
 20
984
 11
2069.8796675245303
 21
984
  0
LINE
  8
_0-0_
  6
CONTINUOUS
 62
    7
 10
2093.3796675245307
 20
982
 11
2093.3796675245307
 21
983.06887500000004
  0
LINE
  8
_0-0_
  6
CONTINUOUS
 62
    7
 10
2094.3084425245306
 20
984.066325
 11
2106.4509175245307
 21
984.93364999999994
  0
LINE
  8
_0-0_
  6
CONTINUOUS
 62
    7
 10
2107.3796675245303
 20
985.93110000000001
 11
2107.3796675245303
 21
986
  0
LINE
  8
_0-0_
  6
CONTINUOUS
 62
    7
 10
2075.0136425245304
 20
1004
 11
2073.1372675245306
 21
1007.25
  0
LINE
  8
_0-0_
  6
CONTINUOUS
 62
    7
 10
2106.3796675245303
 20
987
 11
2070.8796675245307
 21
987
  0
LINE
  8
_0-0_
  6
CONTINUOUS
 62
    7
 10
2074.1476175245306
 20
1002.5
 11
2070.8796675245307
 21
1002.5
  0
LINE
  8
_0-0_
  6
CONTINUOUS
 62
    7
 10
2069.8796675245303
 20
1001.5
 11
2069.8796675245303
 21
988
  0
ARC
  8
_0-0_
  6
CONTINUOUS
 62
    7
 10
2069.8796675245303
 20
987.79999999999995
 40
3.7999999999999998
 50
177.46800000000004
 51
270.00000000000005
  0
ARC
  8
_0-0_
  6
CONTINUOUS
 62
    7
 10
2088.3796675245307
 20
982
 40
5
 50
180.00000000000005
 51
0.0000000000001017
  0
CIRCLE
  8
_0-0_
  6
PHANTOM2
 62
    7
 10
2088.3796675245307
 20
982
 40
4.0999999999999996
  0
CIRCLE
  8
_0-0_
  6
PHANTOM2
 62
    7
 10
2088.3796675245307
 20
982
 40
1.925
  0
ARC
  8
_0-0_
  6
CONTINUOUS
 62
    7
 10
2068.0364425245306
 20
1006.5
 40
1
 50
90.000000000000028
 51
177.46800000000004
  0
ARC
  8
_0-0_
  6
CONTINUOUS
 62
    7
 10
2072.7042425245308
 20
1007
 40
0.5
 50
30.000000000000003
 51
90.000000000000028
  0
ARC
  8
_0-0_
  6
CONTINUOUS
 62
    7
 10
2082.3796675245303
 20
983
 40
1
 50
0
 51
90.000000000000028
  0
ARC
  8
_0-0_
  6
CONTINUOUS
 62
    7
 10
2094.3796675245307
 20
983.06887500000004
 40
1
 50
94.086000000000041
 51
180.00000000000005
  0
ARC
  8
_0-0_
  6
CONTINUOUS
 62
    7
 10
2106.3796675245303
 20
985.93110000000001
 40
1
 50
274.08600000000006
 51
0.0000000000000508
  0
ARC
  8
_0-0_
  6
CONTINUOUS
 62
    7
 10
2106.3796675245303
 20
986
 40
1
 50
0
 51
90.000000000000028
  0
ARC
  8
_0-0_
  6
CONTINUOUS
 62
    7
 10
2074.1476175245306
 20
1003.5
 40
1
 50
270.00000000000005
 51
30.000000000000042
  0
ARC
  8
_0-0_
  6
CONTINUOUS
 62
    7
 10
2070.8796675245307
 20
1001.5
 40
1
 50
90.000000000000028
 51
180.00000000000005
  0
ARC
  8
_0-0_
  6
CONTINUOUS
 62
    7
 10
2070.8796675245307
 20
988
 40
1
 50
180.00000000000005
 51
270.00000000000005
  0
LINE
  8
_0-0_
  6
CONTINUOUS
 62
    7
 10
2068.0364425245306
 20
1007.5
 11
2072.7042425245308
 21
1007.5
  0
LINE
  8
_0-0_
  6
CONTINUOUS
 62
    7
 10
2066.0833925245306
 20
987.96784999999999
 11
2067.0381394737796
 21
1006.5582324553936
  0
LINE
  8
_0-0_
  6
CENTER1
 62
    7
 10
2088.3796675245307
 20
982
 11
2088.3796675245307
 21
975.8852721223418
  0
LINE
  8
_0-0_
  6
CENTER1
 62
    7
 10
2088.3796675245307
 20
982
 11
2088.3796675245307
 21
988.09740295205278
  0
LINE
  8
_0-0_
  6
CENTER1
 62
    7
 10
2088.49252959565
 20
982
 11
2085.8128911737185
 21
982
  0
LINE
  8
_0-0_
  6
CENTER1
 62
    7
 10
2088.49252959565
 20
982
 11
2091.1578127002953
 21
982
  0
ARC
  8
_0-0_
  6
CONTINUOUS
 62
    7
 10
2354.6117175245308
 20
1003.5
 40
1
 50
149.99999999999994
 51
269.99999999999994
  0
CIRCLE
  8
_0-0_
  6
CONTINUOUS
 62
    7
 10
2340.3796675245307
 20
982
 40
1.5000000000000002
  0
LINE
  8
_0-0_
  6
CONTINUOUS
 62
    7
 10
2335.3796675245307
 20
983.06887500000004
 11
2335.3796675245307
 21
984
  0
LINE
  8
_0-0_
  6
CONTINUOUS
 62
    7
 10
2335.3796675245307
 20
984
 11
2334.4508925245309
 21
984.066325
  0
LINE
  8
_0-0_
  6
CONTINUOUS
 62
    7
 10
2345.3796675245307
 20
982
 11
2345.3796675245307
 21
983
  0
LINE
  8
_0-0_
  6
CONTINUOUS
 62
    7
 10
2346.3796675245307
 20
984
 11
2358.8796675245307
 21
984
  0
LINE
  8
_0-0_
  6
CONTINUOUS
 62
    7
 10
2335.3796675245307
 20
982
 11
2335.3796675245307
 21
983.06887500000004
  0
LINE
  8
_0-0_
  6
CONTINUOUS
 62
    7
 10
2334.4508925245309
 20
984.066325
 11
2322.3084175245307
 21
984.93364999999994
  0
LINE
  8
_0-0_
  6
CONTINUOUS
 62
    7
 10
2321.3796675245307
 20
985.93110000000001
 11
2321.3796675245307
 21
986
  0
LINE
  8
_0-0_
  6
CONTINUOUS
 62
    7
 10
2353.745692524531
 20
1004
 11
2355.6220675245308
 21
1007.25
  0
LINE
  8
_0-0_
  6
CONTINUOUS
 62
    7
 10
2322.3796675245307
 20
987
 11
2357.8796675245307
 21
987
  0
LINE
  8
_0-0_
  6
CONTINUOUS
 62
    7
 10
2354.6117175245308
 20
1002.5
 11
2357.8796675245307
 21
1002.5
  0
LINE
  8
_0-0_
  6
CONTINUOUS
 62
    7
 10
2358.8796675245307
 20
1001.5
 11
2358.8796675245307
 21
988
  0
ARC
  8
_0-0_
  6
CONTINUOUS
 62
    7
 10
2358.8796675245307
 20
987.79999999999995
 40
3.7999999999999998
 50
269.99999999999994
 51
2.5319999999999902
  0
ARC
  8
_0-0_
  6
CONTINUOUS
 62
    7
 10
2340.3796675245307
 20
982
 40
5
 50
179.99999999999985
 51
359.99999999999988
  0
CIRCLE
  8
_0-0_
  6
PHANTOM2
 62
    7
 10
2340.3796675245307
 20
982
 40
4.0999999999999996
  0
CIRCLE
  8
_0-0_
  6
PHANTOM2
 62
    7
 10
2340.3796675245307
 20
982
 40
1.925
  0
ARC
  8
_0-0_
  6
CONTINUOUS
 62
    7
 10
2360.7228925245308
 20
1006.5
 40
1
 50
2.531999999999964
 51
89.999999999999943
  0
ARC
  8
_0-0_
  6
CONTINUOUS
 62
    7
 10
2356.0550925245306
 20
1007
 40
0.5
 50
89.999999999999985
 51
149.99999999999997
  0
ARC
  8
_0-0_
  6
CONTINUOUS
 62
    7
 10
2346.3796675245307
 20
983
 40
1
 50
89.999999999999971
 51
180
  0
ARC
  8
_0-0_
  6
CONTINUOUS
 62
    7
 10
2334.3796675245307
 20
983.06887500000004
 40
1
 50
359.99999999999994
 51
85.913999999999987
  0
ARC
  8
_0-0_
  6
CONTINUOUS
 62
    7
 10
2322.3796675245307
 20
985.93110000000001
 40
1
 50
179.99999999999994
 51
265.91399999999993
  0
ARC
  8
_0-0_
  6
CONTINUOUS
 62
    7
 10
2322.3796675245307
 20
986
 40
1
 50
89.999999999999971
 51
180
  0
ARC
  8
_0-0_
  6
CONTINUOUS
 62
    7
 10
2357.8796675245307
 20
1001.5
 40
1
 50
359.99999999999994
 51
89.999999999999943
  0
ARC
  8
_0-0_
  6
CONTINUOUS
 62
    7
 10
2357.8796675245307
 20
988
 40
1
 50
269.99999999999988
 51
359.99999999999988
  0
LINE
  8
_0-0_
  6
CONTINUOUS
 62
    7
 10
2360.7228925245308
 20
1007.5
 11
2356.0550925245306
 21
1007.5
  0
LINE
  8
_0-0_
  6
CONTINUOUS
 62
    7
 10
2362.6759425245309
 20
987.96784999999999
 11
2361.7211955752818
 21
1006.5582324553936
  0
LINE
  8
_0-0_
  6
CENTER1
 62
    7
 10
2340.3796675245307
 20
982
 11
2340.3796675245307
 21
975.8852721223418
  0
LINE
  8
_0-0_
  6
CENTER1
 62
    7
 10
2340.3796675245307
 20
982
 11
2340.3796675245307
 21
988.09740295205278
  0
LINE
  8
_0-0_
  6
CENTER1
 62
    7
 10
2340.266805453411
 20
982
 11
2342.9464438753429
 21
982
  0
LINE
  8
_0-0_
  6
CENTER1
 62
    7
 10
2340.266805453411
 20
982
 11
2337.6015223487656
 21
982
  0
ARC
  8
_0-0_
  6
CONTINUOUS
 62
    7
 10
2088.3796675245307
 20
982
 40
7.0000000000000017
 50
45.585000000000007
 51
134.41500000000002
  0
ARC
  8
_0-0_
  6
CONTINUOUS
 62
    7
 10
2088.3796675245307
 20
982
 40
11
 50
27.036000000000012
 51
152.96400000000005
  0
ARC
  8
_0-0_
  6
CONTINUOUS
 62
    7
 10
2340.3796675245307
 20
982
 40
7.0000000000000017
 50
45.585000000000007
 51
134.41500000000002
  0
ARC
  8
_0-0_
  6
CONTINUOUS
 62
    7
 10
2340.3796675245307
 20
982
 40
11
 50
27.036000000000012
 51
152.96400000000005
  0
TEXT
  8
_f-8_
 62
    7
 10
655.71694649176492
 20
136.74121278237493
 40
45
 41
0.6666666666666666
 50
0
  1
玄関収納用吊戸棚　高さ４５ｃｎタイプ
  0
TEXT
  8
_f-8_
 62
    7
 10
1629.2234042553191
 20
137.34131113423529
 40
45
 41
0.6666666666666666
 50
0
  1
ＳＨＯ－３０Ｕ（左）
  0
TEXT
  8
_f-8_
 62
    7
 10
3056
 20
142.5
 40
35
 41
0.5714285714285711
 50
0
  1
２０２３.０５.０１
  0
TEXT
  8
_f-8_
 62
    7
 10
3582
 20
145
 40
30
 41
0.7333333333333329
 50
0
  1
Ｔ．Ｋ
  0
LINE
  8
_0-3_
  6
DASHED1
 62
    2
 10
937
 20
1207
 11
937
 21
757
  0
LINE
  8
_0-3_
  6
DASHED1
 62
    2
 10
1213
 20
1207
 11
1213
 21
757
  0
LINE
  8
_0-3_
  6
DASHED1
 62
    2
 10
937
 20
1192
 11
1213
 21
1192
  0
LINE
  8
_0-3_
  6
DASHED1
 62
    2
 10
937
 20
772
 11
1213
 21
772
  0
LINE
  8
_0-3_
  6
DASHED1
 62
    2
 10
928.00000000000068
 20
757
 11
1220.5
 21
757
  0
LINE
  8
_1-4_
  6
DASHED1
 62
    7
 10
1184.5000000000002
 20
1193.8999999999998
 11
1184.5000000000002
 21
1185.4999999999997
  0
LINE
  8
_1-4_
  6
DASHED1
 62
    7
 10
1183.5000000000002
 20
1162.2999999999999
 11
1160.5000000000002
 21
1162.2999999999999
  0
LINE
  8
_1-4_
  6
DASHED1
 62
    7
 10
1172.0000000000002
 20
1179.2999999999999
 11
1164.5000000000002
 21
1179.2999999999999
  0
LINE
  8
_1-4_
  6
DASHED1
 62
    7
 10
1162.0000000000002
 20
1186.7999999999999
 11
1162.0000000000002
 21
1181.2999999999999
  0
LINE
  8
_1-4_
  6
DASHED1
 62
    7
 10
1163.5000000000002
 20
1180.7999999999997
 11
1162.5000000000002
 21
1180.7999999999997
  0
LINE
  8
_1-4_
  6
DASHED1
 62
    7
 10
1191.5800000000003
 20
1190.25
 11
1191.6000000000003
 21
1190.25
  0
LINE
  8
_1-4_
  6
DASHED1
 62
    7
 10
1154.5000000000002
 20
1172.5999999999999
 11
1153.5000000000002
 21
1172.5999999999999
  0
LINE
  8
_1-4_
  6
DASHED1
 62
    7
 10
1155.5000000000002
 20
1186.7999999999999
 11
1163.0000000000002
 21
1186.7999999999999
  0
LINE
  8
_1-4_
  6
DASHED1
 62
    7
 10
1154.5000000000002
 20
1185.7999999999997
 11
1154.5000000000002
 21
1168.2999999999997
  0
LINE
  8
_1-4_
  6
DASHED1
 62
    7
 10
1152.5000000000002
 20
1192
 11
1152.5000000000002
 21
1173.5999999999999
  0
LINE
  8
_1-4_
  6
DASHED1
 62
    7
 10
1164.0000000000002
 20
1192
 11
1152.5000000000002
 21
1192
  0
LINE
  8
_1-4_
  6
DASHED1
 62
    7
 10
1154.5000000000002
 20
1192
 11
1154.5000000000002
 21
1187.7999999999999
  0
LINE
  8
_1-4_
  6
DASHED1
 62
    7
 10
1164.0000000000002
 20
1192
 11
1164.0000000000002
 21
1179.7999999999999
  0
LINE
  8
_1-4_
  6
DASHED1
 62
    7
 10
1189.5000000000002
 20
1192
 11
1189.5000000000002
 21
1168.2999999999997
  0
LINE
  8
_1-4_
  6
DASHED1
 62
    7
 10
1180.0000000000002
 20
1192
 11
1191.5000000000002
 21
1192
  0
LINE
  8
_1-4_
  6
DASHED1
 62
    7
 10
1191.5000000000002
 20
1192
 11
1191.5000000000002
 21
1173.5999999999999
  0
LINE
  8
_1-4_
  6
DASHED1
 62
    7
 10
1189.5000000000002
 20
1172.5999999999999
 11
1190.5000000000002
 21
1172.5999999999999
  0
LINE
  8
_1-4_
  6
DASHED1
 62
    7
 10
1164.0000000000002
 20
1191.0999999999999
 11
1180.0000000000002
 21
1191.0999999999999
  0
LINE
  8
_1-4_
  6
DASHED1
 62
    7
 10
1180.0000000000002
 20
1192
 11
1180.0000000000002
 21
1179.7999999999999
  0
LINE
  8
_1-4_
  6
DASHED1
 62
    7
 10
1172.0000000000002
 20
1179.2999999999999
 11
1179.5000000000002
 21
1179.2999999999999
  0
LINE
  8
_1-4_
  6
DASHED1
 62
    7
 10
1188.5000000000002
 20
1186.7999999999999
 11
1181.0000000000002
 21
1186.7999999999999
  0
LINE
  8
_1-4_
  6
DASHED1
 62
    7
 10
1178.5000000000002
 20
1190.7999999999997
 11
1165.5000000000002
 21
1190.7999999999997
  0
LINE
  8
_1-4_
  6
DASHED1
 62
    7
 10
1169.0000000000002
 20
1186.7999999999999
 11
1169.0000000000002
 21
1181.7999999999999
  0
LINE
  8
_1-4_
  6
DASHED1
 62
    7
 10
1174.0000000000002
 20
1180.7999999999997
 11
1170.0000000000002
 21
1180.7999999999997
  0
LINE
  8
_1-4_
  6
DASHED1
 62
    7
 10
1175.0000000000002
 20
1186.7999999999999
 11
1175.0000000000002
 21
1181.7999999999999
  0
LINE
  8
_1-4_
  6
DASHED1
 62
    7
 10
1178.5000000000002
 20
1186.7999999999999
 11
1175.0000000000002
 21
1186.7999999999999
  0
LINE
  8
_1-4_
  6
DASHED1
 62
    7
 10
1169.0000000000002
 20
1186.7999999999999
 11
1165.5000000000002
 21
1186.7999999999999
  0
LINE
  8
_1-4_
  6
DASHED1
 62
    7
 10
1166.5000000000002
 20
1180.4038499999999
 11
1166.3034000000002
 21
1180.8635999999999
  0
LINE
  8
_1-4_
  6
DASHED1
 62
    7
 10
1177.5000000000002
 20
1180.4038499999999
 11
1177.6966000000002
 21
1180.8635999999999
  0
LINE
  8
_1-4_
  6
DASHED1
 62
    7
 10
1179.5000000000002
 20
1179.2999999999999
 11
1179.5000000000002
 21
1189.7999999999999
  0
LINE
  8
_1-4_
  6
DASHED1
 62
    7
 10
1164.5000000000002
 20
1179.2999999999999
 11
1164.5000000000002
 21
1189.7999999999999
  0
LINE
  8
_1-4_
  6
DASHED1
 62
    7
 10
1180.5000000000002
 20
1180.7999999999997
 11
1181.5000000000002
 21
1180.7999999999997
  0
LINE
  8
_1-4_
  6
DASHED1
 62
    7
 10
1182.0000000000002
 20
1186.7999999999999
 11
1182.0000000000002
 21
1181.2999999999999
  0
LINE
  8
_1-4_
  6
DASHED1
 62
    7
 10
1164.0000000000002
 20
1184.7999999999999
 11
1164.5000000000002
 21
1184.7999999999999
  0
LINE
  8
_1-4_
  6
DASHED1
 62
    7
 10
1164.0000000000002
 20
1183.7999999999999
 11
1164.5000000000002
 21
1183.7999999999999
  0
LINE
  8
_1-4_
  6
DASHED1
 62
    7
 10
1179.5000000000002
 20
1183.7999999999999
 11
1180.0000000000002
 21
1183.7999999999999
  0
LINE
  8
_1-4_
  6
DASHED1
 62
    7
 10
1179.5000000000002
 20
1184.7999999999999
 11
1180.0000000000002
 21
1184.7999999999999
  0
LINE
  8
_1-4_
  6
DASHED1
 62
    7
 10
1164.0000000000002
 20
1191.5
 11
1180.0000000000002
 21
1191.5
  0
LINE
  8
_1-4_
  6
DASHED1
 62
    7
 10
1172.0000000000002
 20
1162.2999999999999
 11
1171.3000000000001
 21
1162.2999999999999
  0
LINE
  8
_1-4_
  6
DASHED1
 62
    7
 10
1172.0000000000002
 20
1162.2999999999999
 11
1172.7000000000002
 21
1162.2999999999999
  0
LINE
  8
_1-4_
  6
DASHED1
 62
    7
 10
1171.5000000000002
 20
1176.2999999999999
 11
1172.0000000000002
 21
1176.2999999999999
  0
LINE
  8
_1-4_
  6
DASHED1
 62
    7
 10
1171.0000000000002
 20
1162.5999999999999
 11
1171.0000000000002
 21
1175.7999999999997
  0
LINE
  8
_1-4_
  6
DASHED1
 62
    7
 10
1173.0000000000002
 20
1162.5999999999999
 11
1173.0000000000002
 21
1175.7999999999997
  0
LINE
  8
_1-4_
  6
DASHED1
 62
    7
 10
1172.0000000000002
 20
1176.2999999999999
 11
1172.5000000000002
 21
1176.2999999999999
  0
LINE
  8
_1-4_
  6
DASHED1
 62
    7
 10
1172.0000000000002
 20
1192.5999999999999
 11
1172.0000000000002
 21
1159.5999999999999
  0
ARC
  8
_1-4_
  6
DASHED1
 62
    7
 10
1160.5000000000002
 20
1168.2999999999997
 40
6.0000000000000008
 50
180.00000000000005
 51
270.00000000000005
  0
ARC
  8
_1-4_
  6
DASHED1
 62
    7
 10
1183.5000000000002
 20
1168.2999999999997
 40
6.0000000000000008
 50
270.00000000000005
 51
0.0000000000000508
  0
ARC
  8
_1-4_
  6
DASHED1
 62
    7
 10
1163.0000000000002
 20
1187.7999999999999
 40
1
 50
270.00000000000005
 51
0.0000000000000508
  0
ARC
  8
_1-4_
  6
DASHED1
 62
    7
 10
1155.5000000000002
 20
1187.7999999999999
 40
1
 50
180.00000000000005
 51
270.00000000000005
  0
ARC
  8
_1-4_
  6
DASHED1
 62
    7
 10
1164.5000000000002
 20
1179.7999999999999
 40
0.5
 50
180.00000000000005
 51
270.00000000000005
  0
ARC
  8
_1-4_
  6
DASHED1
 62
    7
 10
1163.5000000000002
 20
1181.2999999999999
 40
0.5
 50
270.00000000000005
 51
0.0000000000000508
  0
ARC
  8
_1-4_
  6
DASHED1
 62
    7
 10
1162.5000000000002
 20
1181.2999999999999
 40
0.5
 50
180.00000000000005
 51
270.00000000000005
  0
ARC
  8
_1-4_
  6
DASHED1
 62
    7
 10
1153.5000000000002
 20
1173.5999999999999
 40
1
 50
180.00000000000005
 51
270.00000000000005
  0
ARC
  8
_1-4_
  6
DASHED1
 62
    7
 10
1155.5000000000002
 20
1185.7999999999997
 40
1
 50
90.000000000000028
 51
180.00000000000005
  0
ARC
  8
_1-4_
  6
DASHED1
 62
    7
 10
1190.5000000000002
 20
1173.5999999999999
 40
1
 50
270.00000000000005
 51
0.0000000000000508
  0
ARC
  8
_1-4_
  6
DASHED1
 62
    7
 10
1179.5000000000002
 20
1179.7999999999999
 40
0.5
 50
270.00000000000005
 51
0.0000000000000508
  0
ARC
  8
_1-4_
  6
DASHED1
 62
    7
 10
1181.0000000000002
 20
1187.7999999999999
 40
1
 50
180.00000000000005
 51
270.00000000000005
  0
ARC
  8
_1-4_
  6
DASHED1
 62
    7
 10
1188.5000000000002
 20
1187.7999999999999
 40
1
 50
270.00000000000005
 51
0.0000000000000508
  0
ARC
  8
_1-4_
  6
DASHED1
 62
    7
 10
1165.5000000000002
 20
1189.7999999999999
 40
1
 50
90.000000000000028
 51
180.00000000000005
  0
ARC
  8
_1-4_
  6
DASHED1
 62
    7
 10
1178.5000000000002
 20
1189.7999999999999
 40
1
 50
0
 51
90.000000000000028
  0
ARC
  8
_1-4_
  6
DASHED1
 62
    7
 10
1165.5000000000002
 20
1187.7999999999999
 40
1
 50
180.00000000000005
 51
270.00000000000005
  0
ARC
  8
_1-4_
  6
DASHED1
 62
    7
 10
1178.5000000000002
 20
1187.7999999999999
 40
1
 50
270.00000000000005
 51
0.0000000000000508
  0
ARC
  8
_1-4_
  6
DASHED1
 62
    7
 10
1170.0000000000002
 20
1181.7999999999999
 40
1
 50
180.00000000000005
 51
270.00000000000005
  0
ARC
  8
_1-4_
  6
DASHED1
 62
    7
 10
1174.0000000000002
 20
1181.7999999999999
 40
1
 50
270.00000000000005
 51
0.0000000000000508
  0
ARC
  8
_1-4_
  6
DASHED1
 62
    7
 10
1180.5000000000002
 20
1181.2999999999999
 40
0.5
 50
180.00000000000005
 51
270.00000000000005
  0
ARC
  8
_1-4_
  6
DASHED1
 62
    7
 10
1181.5000000000002
 20
1181.2999999999999
 40
0.5
 50
270.00000000000005
 51
0.0000000000000508
  0
ARC
  8
_1-4_
  6
DASHED1
 62
    7
 10
1171.3000000000001
 20
1162.5999999999999
 40
0.2999999999999998
 50
180.00000000000005
 51
270.00000000000005
  0
ARC
  8
_1-4_
  6
DASHED1
 62
    7
 10
1172.7000000000002
 20
1162.5999999999999
 40
0.2999999999999998
 50
270.00000000000005
 51
0.0000000000000508
  0
ARC
  8
_1-4_
  6
DASHED1
 62
    7
 10
1171.5000000000002
 20
1175.7999999999997
 40
0.5
 50
90.000000000000028
 51
180.00000000000005
  0
ARC
  8
_1-4_
  6
DASHED1
 62
    7
 10
1172.5000000000002
 20
1175.7999999999997
 40
0.5
 50
0
 51
90.000000000000028
  0
LINE
  8
_1-4_
  6
DASHED1
 62
    7
 10
1159.5000000000002
 20
1193.8999999999998
 11
1159.5000000000002
 21
1185.4999999999997
  0
LINE
  8
_1-4_
  6
DASHED1
 62
    7
 10
2117.8796675245307
 20
1189.4235499999999
 11
2116.7730175245305
 21
1190.0625
  0
LINE
  8
_1-4_
  6
DASHED1
 62
    7
 10
2117.8796675245307
 20
1188.5575499999999
 11
2115.8796675245307
 21
1189.71225
  0
LINE
  8
_1-4_
  6
DASHED1
 62
    7
 10
2117.8796675245307
 20
1187.6914999999999
 11
2115.8796675245307
 21
1188.8462000000001
  0
LINE
  8
_1-4_
  6
DASHED1
 62
    7
 10
2117.8796675245307
 20
1186.8255000000001
 11
2115.8796675245307
 21
1187.9801999999999
  0
LINE
  8
_1-4_
  6
DASHED1
 62
    7
 10
2117.8796675245307
 20
1185.95945
 11
2115.8796675245307
 21
1187.1141500000001
  0
LINE
  8
_1-4_
  6
DASHED1
 62
    7
 10
2117.8796675245307
 20
1185.0934499999998
 11
2115.8796675245307
 21
1186.2481500000001
  0
LINE
  8
_1-4_
  6
DASHED1
 62
    7
 10
2117.8796675245307
 20
1184.2273999999999
 11
2115.8796675245307
 21
1185.3821
  0
LINE
  8
_1-4_
  6
DASHED1
 62
    7
 10
2117.8796675245307
 20
1183.3614
 11
2115.8796675245307
 21
1184.5161
  0
LINE
  8
_1-4_
  6
DASHED1
 62
    7
 10
2117.8796675245307
 20
1182.4953500000001
 11
2115.8796675245307
 21
1183.6500499999999
  0
LINE
  8
_1-4_
  6
DASHED1
 62
    7
 10
2117.8796675245307
 20
1181.6293500000001
 11
2115.8796675245307
 21
1182.7840499999999
  0
LINE
  8
_1-4_
  6
DASHED1
 62
    7
 10
2117.8796675245307
 20
1180.7633
 11
2115.8796675245307
 21
1181.9180000000001
  0
LINE
  8
_1-4_
  6
DASHED1
 62
    7
 10
2117.8796675245307
 20
1179.8973
 11
2115.8796675245307
 21
1181.0519999999999
  0
LINE
  8
_1-4_
  6
DASHED1
 62
    7
 10
2117.8796675245307
 20
1179.03125
 11
2115.8796675245307
 21
1180.18595
  0
LINE
  8
_1-4_
  6
DASHED1
 62
    7
 10
2117.8796675245307
 20
1178.16525
 11
2115.8796675245307
 21
1179.31995
  0
LINE
  8
_1-4_
  6
DASHED1
 62
    7
 10
2117.8796675245307
 20
1177.2992000000001
 11
2115.8796675245307
 21
1178.4538999999999
  0
LINE
  8
_1-4_
  6
DASHED1
 62
    7
 10
2117.8796675245307
 20
1176.4331999999999
 11
2115.8796675245307
 21
1177.5878999999999
  0
LINE
  8
_1-4_
  6
DASHED1
 62
    7
 10
2117.8796675245307
 20
1175.5671499999998
 11
2115.8796675245307
 21
1176.7218499999999
  0
LINE
  8
_1-4_
  6
DASHED1
 62
    7
 10
2117.8796675245307
 20
1174.70115
 11
2115.8796675245307
 21
1175.8558500000001
  0
LINE
  8
_1-4_
  6
DASHED1
 62
    7
 10
2117.8796675245307
 20
1173.8351
 11
2115.8796675245307
 21
1174.9898
  0
LINE
  8
_1-4_
  6
DASHED1
 62
    7
 10
2117.8796675245307
 20
1172.9691
 11
2115.8796675245307
 21
1174.1238
  0
LINE
  8
_1-4_
  6
DASHED1
 62
    7
 10
2117.8796675245307
 20
1172.1030500000001
 11
2115.8796675245307
 21
1173.2577499999999
  0
LINE
  8
_1-4_
  6
DASHED1
 62
    7
 10
2117.8796675245307
 20
1171.2370499999999
 11
2115.8796675245307
 21
1172.39175
  0
LINE
  8
_1-4_
  6
DASHED1
 62
    7
 10
2117.8796675245307
 20
1170.371
 11
2115.8796675245307
 21
1171.5256999999999
  0
LINE
  8
_1-4_
  6
DASHED1
 62
    7
 10
2117.8796675245307
 20
1169.5050000000001
 11
2115.8796675245307
 21
1170.6597000000001
  0
LINE
  8
_1-4_
  6
DASHED1
 62
    7
 10
2117.8796675245307
 20
1168.63895
 11
2115.8796675245307
 21
1169.79365
  0
LINE
  8
_1-4_
  6
DASHED1
 62
    7
 10
2117.7696175245309
 20
1167.8364999999998
 11
2115.8796675245307
 21
1168.92765
  0
LINE
  8
_1-4_
  6
DASHED1
 62
    7
 10
2117.6488675245304
 20
1167.04015
 11
2115.8075675245304
 21
1168.1032500000001
  0
LINE
  8
_1-4_
  6
DASHED1
 62
    7
 10
2117.3761175245308
 20
1166.3315999999999
 11
2115.6195675245307
 21
1167.3457499999999
  0
LINE
  8
_1-4_
  6
DASHED1
 62
    7
 10
2117.0312675245309
 20
1165.6647
 11
2115.3192675245309
 21
1166.6530999999999
  0
LINE
  8
_1-4_
  6
DASHED1
 62
    7
 10
2116.6864175245304
 20
1164.9977499999999
 11
2114.7712175245305
 21
1166.1035000000001
  0
LINE
  8
_1-4_
  6
DASHED1
 62
    7
 10
2116.1838675245307
 20
1164.4219
 11
2114.2762175245306
 21
1165.5232499999999
  0
LINE
  8
_1-4_
  6
DASHED1
 62
    7
 10
2115.6062675245307
 20
1163.8893
 11
2113.0546675245304
 21
1165.3624999999999
  0
LINE
  8
_1-4_
  6
DASHED1
 62
    7
 10
2114.9373175245309
 20
1163.4094999999999
 11
2111.5546675245304
 21
1165.3624999999999
  0
LINE
  8
_1-4_
  6
DASHED1
 62
    7
 10
2114.0489175245306
 20
1163.0564000000001
 11
2110.0546675245304
 21
1165.3624999999999
  0
LINE
  8
_1-4_
  6
DASHED1
 62
    7
 10
2113.1346175245307
 20
1162.7182500000001
 11
2108.5546675245304
 21
1165.3624999999999
  0
LINE
  8
_1-4_
  6
DASHED1
 62
    7
 10
2110.4044175245307
 20
1162.5625
 11
2106.0896175245306
 21
1165.05365
  0
LINE
  8
_1-4_
  6
DASHED1
 62
    7
 10
2111.8542675245307
 20
1162.5914500000001
 11
2107.1141675245307
 21
1165.32815
  0
LINE
  8
_1-4_
  6
DASHED1
 62
    7
 10
2108.9044175245307
 20
1162.5625
 11
2105.0651175245307
 21
1164.7791000000001
  0
LINE
  8
_1-4_
  6
DASHED1
 62
    7
 10
2105.9044175245307
 20
1162.5625
 11
2103.0160675245306
 21
1164.2300500000001
  0
LINE
  8
_1-4_
  6
DASHED1
 62
    7
 10
2107.4044175245303
 20
1162.5625
 11
2104.0406175245307
 21
1164.5045999999999
  0
LINE
  8
_1-4_
  6
DASHED1
 62
    7
 10
2104.4044175245307
 20
1162.5625
 11
2101.6280675245307
 21
1164.1653999999998
  0
LINE
  8
_1-4_
  6
DASHED1
 62
    7
 10
2102.9044175245307
 20
1162.5625
 11
2100.1842675245306
 21
1164.133
  0
LINE
  8
_1-4_
  6
DASHED1
 62
    7
 10
2101.4044175245307
 20
1162.5625
 11
2098.3285675245306
 21
1164.3382999999998
  0
LINE
  8
_1-4_
  6
DASHED1
 62
    7
 10
2099.9044175245303
 20
1162.5625
 11
2095.9545675245308
 21
1164.8429499999999
  0
LINE
  8
_1-4_
  6
DASHED1
 62
    7
 10
2098.4044175245307
 20
1162.5625
 11
2093.5805675245305
 21
1165.3475499999999
  0
LINE
  8
_1-4_
  6
DASHED1
 62
    7
 10
2096.9044175245307
 20
1162.5625
 11
2091.2065675245307
 21
1165.8521500000001
  0
LINE
  8
_1-4_
  6
DASHED1
 62
    7
 10
2095.4044175245307
 20
1162.5625
 11
2088.8325175245308
 21
1166.3567500000001
  0
LINE
  8
_1-4_
  6
DASHED1
 62
    7
 10
2093.9044175245307
 20
1162.5625
 11
2086.4585175245306
 21
1166.8614
  0
LINE
  8
_1-4_
  6
DASHED1
 62
    7
 10
2092.4044175245303
 20
1162.5625
 11
2074.5642675245308
 21
1172.8624999999999
  0
LINE
  8
_1-4_
  6
DASHED1
 62
    7
 10
2090.9044175245307
 20
1162.5625
 11
2071.8796675245307
 21
1173.54645
  0
LINE
  8
_1-4_
  6
DASHED1
 62
    7
 10
2089.4044175245307
 20
1162.5625
 11
2071.8796675245307
 21
1172.6803999999999
  0
LINE
  8
_1-4_
  6
DASHED1
 62
    7
 10
2087.9044175245307
 20
1162.5625
 11
2071.8796675245307
 21
1171.8144000000002
  0
LINE
  8
_1-4_
  6
DASHED1
 62
    7
 10
2084.8796675245307
 20
1178.16525
 11
2082.8796675245307
 21
1179.31995
  0
LINE
  8
_1-4_
  6
DASHED1
 62
    7
 10
2084.8796675245307
 20
1177.2992000000001
 11
2082.8796675245307
 21
1178.4538999999999
  0
LINE
  8
_1-4_
  6
DASHED1
 62
    7
 10
2084.8796675245307
 20
1176.4331999999999
 11
2082.8796675245307
 21
1177.5878999999999
  0
LINE
  8
_1-4_
  6
DASHED1
 62
    7
 10
2084.8796675245307
 20
1175.5671499999998
 11
2082.6088675245309
 21
1176.8782000000001
  0
LINE
  8
_1-4_
  6
DASHED1
 62
    7
 10
2084.8796675245307
 20
1174.70115
 11
2081.5712675245304
 21
1176.6112499999999
  0
LINE
  8
_1-4_
  6
DASHED1
 62
    7
 10
2084.8796675245307
 20
1173.8351
 11
2080.1556675245305
 21
1176.5625
  0
LINE
  8
_1-4_
  6
DASHED1
 62
    7
 10
2084.8796675245307
 20
1172.9691
 11
2078.6556675245305
 21
1176.5625
  0
LINE
  8
_1-4_
  6
DASHED1
 62
    7
 10
2084.8796675245307
 20
1172.1030500000001
 11
2077.1556675245305
 21
1176.5625
  0
LINE
  8
_1-4_
  6
DASHED1
 62
    7
 10
2084.8796675245307
 20
1171.2370499999999
 11
2082.0642675245308
 21
1172.8624999999999
  0
LINE
  8
_1-4_
  6
DASHED1
 62
    7
 10
2084.8796675245307
 20
1170.371
 11
2080.5642675245308
 21
1172.8624999999999
  0
LINE
  8
_1-4_
  6
DASHED1
 62
    7
 10
2084.8796675245307
 20
1169.5050000000001
 11
2079.0642675245308
 21
1172.8624999999999
  0
LINE
  8
_1-4_
  6
DASHED1
 62
    7
 10
2084.8830675245308
 20
1168.6369999999999
 11
2077.5642675245303
 21
1172.8624999999999
  0
LINE
  8
_1-4_
  6
DASHED1
 62
    7
 10
2085.0148175245303
 20
1167.6948999999999
 11
2076.0642675245308
 21
1172.8624999999999
  0
LINE
  8
_1-4_
  6
DASHED1
 62
    7
 10
2082.0642675245308
 20
1172.8624999999999
 11
2075.6556675245305
 21
1176.5625
  0
LINE
  8
_1-4_
  6
DASHED1
 62
    7
 10
2080.5642675245308
 20
1172.8624999999999
 11
2074.1556675245305
 21
1176.5625
  0
LINE
  8
_1-4_
  6
DASHED1
 62
    7
 10
2079.0642675245308
 20
1172.8624999999999
 11
2072.8796675245307
 21
1176.4331999999999
  0
LINE
  8
_1-4_
  6
DASHED1
 62
    7
 10
2077.5642675245303
 20
1172.8624999999999
 11
2071.8796675245307
 21
1176.1445000000001
  0
LINE
  8
_1-4_
  6
DASHED1
 62
    7
 10
2076.0642675245308
 20
1172.8624999999999
 11
2071.8796675245307
 21
1175.2784999999998
  0
LINE
  8
_1-4_
  6
DASHED1
 62
    7
 10
2074.5642675245308
 20
1172.8624999999999
 11
2071.8796675245307
 21
1174.41245
  0
LINE
  8
_1-4_
  6
DASHED1
 62
    7
 10
2117.8796675245307
 20
1190.1735499999999
 11
2116.8796675245307
 21
1190.7509
  0
LINE
  8
_1-4_
  6
DASHED1
 62
    7
 10
2117.8796675245307
 20
1190.1735499999999
 11
2116.7730175245305
 21
1190.8125
  0
LINE
  8
_1-4_
  6
DASHED1
 62
    7
 10
2117.8796675245307
 20
1190.9235499999999
 11
2117.1194175245309
 21
1191.3624999999999
  0
LINE
  8
_1-4_
  6
DASHED1
 62
    7
 10
2082.8796675245307
 20
1181.0625
 11
2082.8796675245307
 21
1183.0625
  0
LINE
  8
_1-4_
  6
DASHED1
 62
    7
 10
2102.8796675245307
 20
1164.1935
 11
2100.3796675245307
 21
1164.0625
  0
LINE
  8
_1-4_
  6
DASHED1
 62
    7
 10
2107.2423675245308
 20
1165.3624999999999
 11
2102.8796675245307
 21
1164.1935
  0
LINE
  8
_1-4_
  6
DASHED1
 62
    7
 10
2084.8796675245307
 20
1178.4077999999999
 11
2082.8796675245307
 21
1179.5625
  0
LINE
  8
_1-4_
  6
DASHED1
 62
    7
 10
2084.8796675245307
 20
1168.6707000000001
 11
2084.8796675245307
 21
1178.4077999999999
  0
LINE
  8
_1-4_
  6
DASHED1
 62
    7
 10
2107.9296675245304
 20
1190.0625
 11
2107.9296675245304
 21
1189.0625
  0
LINE
  8
_1-4_
  6
DASHED1
 62
    7
 10
2081.1476175245306
 20
1183.5625
 11
2082.8796675245307
 21
1180.5625
  0
LINE
  8
_1-4_
  6
DASHED1
 62
    7
 10
2099.3796675245307
 20
1164.1149
 11
2100.3796675245307
 21
1164.0625
  0
LINE
  8
_1-4_
  6
DASHED1
 62
    7
 10
2085.1876675245307
 20
1167.1314999999999
 11
2099.3796675245307
 21
1164.1149
  0
LINE
  8
_1-4_
  6
DASHED1
 62
    7
 10
2115.8796675245307
 20
1190.0625
 11
2115.8796675245307
 21
1168.6602
  0
LINE
  8
_1-4_
  6
DASHED1
 62
    7
 10
2107.2423675245308
 20
1165.3624999999999
 11
2114.1435675245306
 21
1165.3624999999999
  0
LINE
  8
_1-4_
  6
DASHED1
 62
    7
 10
2075.3796675245307
 20
1185.2625
 11
2075.3796675245307
 21
1192.8624999999999
  0
LINE
  8
_1-4_
  6
DASHED1
 62
    7
 10
2090.1796675245309
 20
1189.0625
 11
2107.9296675245304
 21
1189.0625
  0
LINE
  8
_1-4_
  6
DASHED1
 62
    7
 10
2117.8796675245307
 20
1168.5625
 11
2117.8796675245307
 21
1191.3624999999999
  0
LINE
  8
_1-4_
  6
DASHED1
 62
    7
 10
2116.8796675245307
 20
1190.0625
 11
2116.8796675245307
 21
1191.3791499999999
  0
LINE
  8
_1-4_
  6
DASHED1
 62
    7
 10
2117.8796675245307
 20
1191.3624999999999
 11
2057.8796675245307
 21
1192.2625
  0
LINE
  8
_1-4_
  6
DASHED1
 62
    7
 10
2058.8796675245303
 20
1192.2625
 11
2058.8796675245303
 21
1190.9625
  0
LINE
  8
_1-4_
  6
DASHED1
 62
    7
 10
2080.1392175245305
 20
1190.9625
 11
2084.3796675245307
 21
1190.9625
  0
LINE
  8
_1-4_
  6
DASHED1
 62
    7
 10
2068.0582175245303
 20
1190.9625
 11
2058.9796675245306
 21
1190.9625
  0
LINE
  8
_1-4_
  6
DASHED1
 62
    7
 10
2084.3796675245307
 20
1189.0625
 11
2085.5796675245305
 21
1189.0625
  0
LINE
  8
_1-4_
  6
DASHED1
 62
    7
 10
2048.8797175245308
 20
1181.0625
 11
2046.8797175245304
 21
1183.0625
  0
LINE
  8
_1-4_
  6
DASHED1
 62
    7
 10
2046.8797175245304
 20
1183.0625
 11
2046.8797175245304
 21
1190.0625
  0
LINE
  8
_1-4_
  6
DASHED1
 62
    7
 10
2051.8797175245304
 20
1187.0625
 11
2051.8797175245304
 21
1185.7625
  0
LINE
  8
_1-4_
  6
DASHED1
 62
    7
 10
2087.8796675245307
 20
1186.9625
 11
2087.8796675245307
 21
1175.7625
  0
LINE
  8
_1-4_
  6
DASHED1
 62
    7
 10
2046.8797175245304
 20
1187.0625
 11
2076.8080675245305
 21
1187.0625
  0
LINE
  8
_1-4_
  6
DASHED1
 62
    7
 10
2078.2223175245308
 20
1186.4767000000001
 11
2085.7580675245308
 21
1178.9409
  0
LINE
  8
_1-4_
  6
DASHED1
 62
    7
 10
2080.0507175245306
 20
1191.0625
 11
2047.8797175245308
 21
1191.0625
  0
LINE
  8
_1-4_
  6
DASHED1
 62
    7
 10
2083.5862675245307
 20
1189.59805
 11
2087.3644175245308
 21
1185.81985
  0
LINE
  8
_1-4_
  6
DASHED1
 62
    7
 10
2082.6796675245309
 20
1181.0625
 11
2091.9896675245304
 21
1181.0625
  0
LINE
  8
_1-4_
  6
DASHED1
 62
    7
 10
2101.3796675245303
 20
1170.1324999999999
 11
2101.3796675245303
 21
1190.8524999999999
  0
LINE
  8
_1-4_
  6
DASHED1
 62
    7
 10
2057.3797175245308
 20
1187.0625
 11
2057.3797175245308
 21
1191.0625
  0
LINE
  8
_1-4_
  6
DASHED1
 62
    7
 10
2051.8797175245304
 20
1191.0625
 11
2051.8797175245304
 21
1187.0625
  0
LINE
  8
_1-4_
  6
DASHED1
 62
    7
 10
2048.8797175245308
 20
1181.0625
 11
2055.8797175245304
 21
1181.0625
  0
LINE
  8
_1-4_
  6
DASHED1
 62
    7
 10
2055.8797175245304
 20
1182.2225
 11
2055.8797175245304
 21
1181.0625
  0
LINE
  8
_1-4_
  6
DASHED1
 62
    7
 10
2055.8797175245304
 20
1182.2225
 11
2051.8797175245304
 21
1185.7625
  0
LINE
  8
_1-4_
  6
DASHED1
 62
    7
 10
2114.3087675245305
 20
1175.34065
 11
2115.2690675245307
 21
1183.1619
  0
LINE
  8
_1-4_
  6
DASHED1
 62
    7
 10
2115.2738175245308
 20
1183.1603500000001
 11
2109.5888175245308
 21
1185.0625
  0
LINE
  8
_1-4_
  6
DASHED1
 62
    7
 10
2099.3796675245307
 20
1184.0625
 11
2087.8796675245307
 21
1184.0625
  0
LINE
  8
_1-4_
  6
DASHED1
 62
    7
 10
2099.3796675245307
 20
1184.0625
 11
2099.3796675245307
 21
1185.0625
  0
LINE
  8
_1-4_
  6
DASHED1
 62
    7
 10
2099.3796675245307
 20
1185.0625
 11
2109.5888175245308
 21
1185.0625
  0
LINE
  8
_1-4_
  6
DASHED1
 62
    7
 10
2096.2738175245303
 20
1178.1486999999999
 11
2096.2738175245303
 21
1177.44685
  0
LINE
  8
_1-4_
  6
DASHED1
 62
    7
 10
2096.2738175245303
 20
1178.1486999999999
 11
2099.7738175245303
 21
1181.0261
  0
LINE
  8
_1-4_
  6
DASHED1
 62
    7
 10
2106.7738175245308
 20
1180.1782
 11
2106.7738175245308
 21
1176.5588500000001
  0
LINE
  8
_1-4_
  6
DASHED1
 62
    7
 10
2096.2738175245303
 20
1177.44685
 11
2099.7738175245303
 21
1180.6078999999999
  0
LINE
  8
_1-4_
  6
DASHED1
 62
    7
 10
2106.7738175245308
 20
1176.5588500000001
 11
2106.7738175245308
 21
1177.0774000000001
  0
LINE
  8
_1-4_
  6
DASHED1
 62
    7
 10
2090.1796675245309
 20
1189.0625
 11
2090.1796675245309
 21
1184.23475
  0
LINE
  8
_1-4_
  6
DASHED1
 62
    7
 10
2085.5796675245305
 20
1189.0625
 11
2085.5796675245305
 21
1187.6045999999998
  0
LINE
  8
_1-4_
  6
DASHED1
 62
    7
 10
2085.5796675245305
 20
1187.6045999999998
 11
2085.5796675245305
 21
1180.3999499999999
  0
LINE
  8
_1-4_
  6
DASHED1
 62
    7
 10
2090.1796675245309
 20
1184.23475
 11
2090.1796675245309
 21
1181.0625
  0
LINE
  8
_1-4_
  6
DASHED1
 62
    7
 10
2084.3796675245307
 20
1188.8045999999999
 11
2084.3796675245307
 21
1191.865
  0
LINE
  8
_1-4_
  6
DASHED1
 62
    7
 10
2084.3796675245307
 20
1178.6965
 11
2084.3796675245307
 21
1180.3193499999999
  0
LINE
  8
_1-4_
  6
DASHED1
 62
    7
 10
2084.3796675245307
 20
1188.8045999999999
 11
2084.3796675245307
 21
1180.3193499999999
  0
LINE
  8
_1-4_
  6
DASHED1
 62
    7
 10
2080.8796675245307
 20
1185.0625
 11
2080.8796675245307
 21
1184.5625
  0
LINE
  8
_1-4_
  6
DASHED1
 62
    7
 10
2076.8080675245305
 20
1187.0625
 11
2058.8796675245303
 21
1187.0625
  0
LINE
  8
_1-4_
  6
DASHED1
 62
    7
 10
2078.8796675245303
 20
1187.0625
 11
2077.2796675245303
 21
1187.0625
  0
LINE
  8
_1-4_
  6
DASHED1
 62
    7
 10
2068.0582175245303
 20
1190.9625
 11
2072.4796675245306
 21
1190.9625
  0
LINE
  8
_1-4_
  6
DASHED1
 62
    7
 10
2072.4866675245307
 20
1192.0190500000001
 11
2072.4807675245306
 21
1190.9625
  0
LINE
  8
_1-4_
  6
DASHED1
 62
    7
 10
2078.2731675245308
 20
1191.9226000000001
 11
2078.2785675245308
 21
1190.9625
  0
LINE
  8
_1-4_
  6
DASHED1
 62
    7
 10
2078.2796675245303
 20
1190.9625
 11
2080.1392175245305
 21
1190.9625
  0
LINE
  8
_1-4_
  6
DASHED1
 62
    7
 10
2077.2796675245303
 20
1187.0625
 11
2077.2796675245303
 21
1191.9715000000001
  0
LINE
  8
_1-4_
  6
DASHED1
 62
    7
 10
2073.4796675245306
 20
1187.0625
 11
2073.4796675245306
 21
1192.00305
  0
LINE
  8
_1-4_
  6
DASHED1
 62
    7
 10
2100.3796675245307
 20
1187.5625
 11
2100.3796675245307
 21
1192.5625
  0
LINE
  8
_1-4_
  6
DASHED1
 62
    7
 10
2090.1796675245309
 20
1189.0625
 11
2090.1796675245309
 21
1184.2625
  0
LINE
  8
_1-4_
  6
DASHED1
 62
    7
 10
2103.6796675245304
 20
1189.0625
 11
2084.4796675245306
 21
1189.0625
  0
LINE
  8
_1-4_
  6
DASHED1
 62
    7
 10
2086.4796675245306
 20
1189.0625
 11
2086.4796675245306
 21
1184.0625
  0
LINE
  8
_1-4_
  6
DASHED1
 62
    7
 10
2086.4796675245306
 20
1184.0625
 11
2085.8796675245307
 21
1184.0625
  0
LINE
  8
_1-4_
  6
DASHED1
 62
    7
 10
2103.6796675245304
 20
1189.0625
 11
2105.8796675245307
 21
1190.0625
  0
LINE
  8
_1-4_
  6
DASHED1
 62
    7
 10
2115.1796675245309
 20
1190.0625
 11
2115.1796675245309
 21
1188.0625
  0
LINE
  8
_1-4_
  6
DASHED1
 62
    7
 10
2116.8796675245307
 20
1190.0625
 11
2105.8796675245307
 21
1190.0625
  0
LINE
  8
_1-4_
  6
DASHED1
 62
    7
 10
2116.8796675245307
 20
1191.2625
 11
2084.4796675245306
 21
1191.7625
  0
LINE
  8
_1-4_
  6
DASHED1
 62
    7
 10
2116.8796675245307
 20
1191.2625
 11
2116.8796675245307
 21
1190.0625
  0
LINE
  8
_1-4_
  6
DASHED1
 62
    7
 10
2115.8796675245307
 20
1188.0625
 11
2115.1796675245309
 21
1188.0625
  0
LINE
  8
_1-4_
  6
DASHED1
 62
    7
 10
2084.4796675245306
 20
1184.0625
 11
2085.8796675245307
 21
1184.0625
  0
LINE
  8
_1-4_
  6
DASHED1
 62
    7
 10
2084.4796675245306
 20
1191.7625
 11
2084.4796675245306
 21
1188.7046
  0
LINE
  8
_1-4_
  6
DASHED1
 62
    7
 10
2085.8796675245307
 20
1189.0625
 11
2085.8796675245307
 21
1187.3046000000001
  0
LINE
  8
_1-4_
  6
DASHED1
 62
    7
 10
2085.8796675245307
 20
1187.3046000000001
 11
2085.8796675245307
 21
1184.2625
  0
LINE
  8
_1-4_
  6
DASHED1
 62
    7
 10
2084.4796675245306
 20
1188.7046
 11
2084.4796675245306
 21
1184.0625
  0
LINE
  8
_1-4_
  6
DASHED1
 62
    7
 10
2089.1796675245304
 20
1183.2625
 11
2086.8796675245307
 21
1183.2625
  0
LINE
  8
_1-4_
  6
DASHED1
 62
    7
 10
2115.8796675245307
 20
1190.9625
 11
2085.4796675245306
 21
1190.9625
  0
LINE
  8
_1-4_
  6
DASHED1
 62
    7
 10
2085.4796675245306
 20
1190.9625
 11
2085.4796675245306
 21
1191.7440000000001
  0
LINE
  8
_1-4_
  6
DASHED1
 62
    7
 10
2107.9296675245304
 20
1190.0625
 11
2116.8796675245307
 21
1190.0625
  0
LINE
  8
_1-4_
  6
DASHED1
 62
    7
 10
2115.8796675245307
 20
1190.9625
 11
2115.8796675245307
 21
1191.2779500000001
  0
LINE
  8
_1-4_
  6
DASHED1
 62
    7
 10
2084.5399175245306
 20
1191.7614
 11
2084.4796675245306
 21
1191.7265999999999
  0
LINE
  8
_1-4_
  6
DASHED1
 62
    7
 10
2092.1562175245308
 20
1190.9625
 11
2088.8653175245308
 21
1189.0625
  0
LINE
  8
_1-4_
  6
DASHED1
 62
    7
 10
2090.6562175245308
 20
1190.9625
 11
2087.3653175245308
 21
1189.0625
  0
LINE
  8
_1-4_
  6
DASHED1
 62
    7
 10
2089.1562175245308
 20
1190.9625
 11
2085.8653175245303
 21
1189.0625
  0
LINE
  8
_1-4_
  6
DASHED1
 62
    7
 10
2087.6562175245308
 20
1190.9625
 11
2084.4796675245306
 21
1189.1285
  0
LINE
  8
_1-4_
  6
DASHED1
 62
    7
 10
2086.1562175245303
 20
1190.9625
 11
2084.4796675245306
 21
1189.9945500000001
  0
LINE
  8
_1-4_
  6
DASHED1
 62
    7
 10
2085.4796675245306
 20
1191.4378999999998
 11
2084.4796675245306
 21
1190.8605500000001
  0
LINE
  8
_1-4_
  6
DASHED1
 62
    7
 10
2105.6562175245308
 20
1190.9625
 11
2102.3653175245308
 21
1189.0625
  0
LINE
  8
_1-4_
  6
DASHED1
 62
    7
 10
2104.1562175245308
 20
1190.9625
 11
2100.8653175245303
 21
1189.0625
  0
LINE
  8
_1-4_
  6
DASHED1
 62
    7
 10
2102.6562175245308
 20
1190.9625
 11
2099.3653175245308
 21
1189.0625
  0
LINE
  8
_1-4_
  6
DASHED1
 62
    7
 10
2101.1562175245303
 20
1190.9625
 11
2097.8653175245308
 21
1189.0625
  0
LINE
  8
_1-4_
  6
DASHED1
 62
    7
 10
2099.6562175245308
 20
1190.9625
 11
2096.3653175245308
 21
1189.0625
  0
LINE
  8
_1-4_
  6
DASHED1
 62
    7
 10
2098.1562175245308
 20
1190.9625
 11
2094.8653175245308
 21
1189.0625
  0
LINE
  8
_1-4_
  6
DASHED1
 62
    7
 10
2096.6562175245308
 20
1190.9625
 11
2093.3653175245303
 21
1189.0625
  0
LINE
  8
_1-4_
  6
DASHED1
 62
    7
 10
2095.1562175245308
 20
1190.9625
 11
2091.8653175245308
 21
1189.0625
  0
LINE
  8
_1-4_
  6
DASHED1
 62
    7
 10
2093.6562175245303
 20
1190.9625
 11
2090.3653175245308
 21
1189.0625
  0
LINE
  8
_1-4_
  6
DASHED1
 62
    7
 10
2107.1562175245308
 20
1190.9625
 11
2104.5525175245306
 21
1189.4592500000001
  0
LINE
  8
_1-4_
  6
DASHED1
 62
    7
 10
2108.6562175245303
 20
1190.9625
 11
2107.0973675245304
 21
1190.0625
  0
LINE
  8
_1-4_
  6
DASHED1
 62
    7
 10
2110.1562175245308
 20
1190.9625
 11
2108.5973675245309
 21
1190.0625
  0
LINE
  8
_1-4_
  6
DASHED1
 62
    7
 10
2111.6562175245308
 20
1190.9625
 11
2110.0973675245304
 21
1190.0625
  0
LINE
  8
_1-4_
  6
DASHED1
 62
    7
 10
2113.1562175245308
 20
1190.9625
 11
2111.5973675245304
 21
1190.0625
  0
LINE
  8
_1-4_
  6
DASHED1
 62
    7
 10
2114.6562175245308
 20
1190.9625
 11
2113.0973675245304
 21
1190.0625
  0
LINE
  8
_1-4_
  6
DASHED1
 62
    7
 10
2116.6811175245306
 20
1191.26555
 11
2114.5973675245304
 21
1190.0625
  0
LINE
  8
_1-4_
  6
DASHED1
 62
    7
 10
2116.8796675245307
 20
1190.5141499999999
 11
2116.0973675245309
 21
1190.0625
  0
LINE
  8
_1-4_
  6
DASHED1
 62
    7
 10
2057.8796675245307
 20
1192.2625
 11
2057.8796675245307
 21
1191.0625
  0
LINE
  8
_1-4_
  6
DASHED1
 62
    7
 10
2057.8796675245307
 20
1191.0625
 11
2057.8796675245307
 21
1188.0625
  0
LINE
  8
_1-4_
  6
DASHED1
 62
    7
 10
2086.4044175245307
 20
1162.5625
 11
2071.8796675245307
 21
1170.9483500000001
  0
LINE
  8
_1-4_
  6
DASHED1
 62
    7
 10
2084.9044175245303
 20
1162.5625
 11
2071.8796675245307
 21
1170.0823499999999
  0
LINE
  8
_1-4_
  6
DASHED1
 62
    7
 10
2083.4044175245307
 20
1162.5625
 11
2071.8553175245306
 21
1169.2303999999999
  0
LINE
  8
_1-4_
  6
DASHED1
 62
    7
 10
2081.9044175245307
 20
1162.5625
 11
2071.8796675245307
 21
1168.3503
  0
LINE
  8
_1-4_
  6
DASHED1
 62
    7
 10
2080.4044175245307
 20
1162.5625
 11
2071.8796675245307
 21
1167.4842499999999
  0
LINE
  8
_1-4_
  6
DASHED1
 62
    7
 10
2078.9044175245307
 20
1162.5625
 11
2071.8796675245307
 21
1166.6182499999999
  0
LINE
  8
_1-4_
  6
DASHED1
 62
    7
 10
2077.4044175245303
 20
1162.5625
 11
2071.8796675245307
 21
1165.7521999999999
  0
LINE
  8
_1-4_
  6
DASHED1
 62
    7
 10
2075.9044175245307
 20
1162.5625
 11
2071.8796675245307
 21
1164.8861999999999
  0
LINE
  8
_1-4_
  6
DASHED1
 62
    7
 10
2074.4044175245307
 20
1162.5625
 11
2071.9700675245308
 21
1163.9679499999999
  0
LINE
  8
_1-4_
  6
DASHED1
 62
    7
 10
2082.8796675245307
 20
1181.0625
 11
2082.8796675245307
 21
1177.5625
  0
LINE
  8
_1-4_
  6
DASHED1
 62
    7
 10
2071.8796675245307
 20
1164.5625
 11
2071.8796675245307
 21
1187.0625
  0
LINE
  8
_1-4_
  6
DASHED1
 62
    7
 10
2073.8796675245303
 20
1162.5625
 11
2111.8796675245307
 21
1162.5625
  0
LINE
  8
_1-4_
  6
DASHED1
 62
    7
 10
2081.8796675245307
 20
1176.5625
 11
2071.8796675245307
 21
1176.5625
  0
LINE
  8
_1-4_
  6
DASHED1
 62
    7
 10
2112.0884675245306
 20
1164.67615
 11
2102.8796675245307
 21
1164.1935
  0
LINE
  8
_1-4_
  6
DASHED1
 62
    7
 10
2088.6703175245306
 20
1164.67615
 11
2099.3796675245307
 21
1164.1149
  0
LINE
  8
_1-4_
  6
DASHED1
 62
    7
 10
2099.7738175245303
 20
1181.0261
 11
2099.7738175245303
 21
1180.6078999999999
  0
LINE
  8
_1-4_
  6
DASHED1
 62
    7
 10
2113.7413675245306
 20
1176.4254499999999
 11
2101.3796675245303
 21
1183.5625
  0
LINE
  8
_1-4_
  6
DASHED1
 62
    7
 10
2114.7330675245307
 20
1178.7962999999999
 11
2103.8796675245303
 21
1185.0625
  0
LINE
  8
_1-4_
  6
DASHED1
 62
    7
 10
2085.9720675245307
 20
1179.43405
 11
2101.3796675245303
 21
1183.5625
  0
LINE
  8
_1-4_
  6
DASHED1
 62
    7
 10
2082.8796675245307
 20
1172.8624999999999
 11
2073.8796675245303
 21
1172.8624999999999
  0
LINE
  8
_1-4_
  6
DASHED1
 62
    7
 10
2082.8796675245307
 20
1172.8624999999999
 11
2082.8796675245307
 21
1168.5625
  0
LINE
  8
_1-4_
  6
DASHED1
 62
    7
 10
2082.8796675245307
 20
1172.8624999999999
 11
2082.8796675245307
 21
1177.5625
  0
LINE
  8
_1-4_
  6
DASHED1
 62
    7
 10
2050.6297175245304
 20
1183.5625
 11
2048.1297175245304
 21
1183.5625
  0
LINE
  8
_1-4_
  6
DASHED1
 62
    7
 10
2048.1297175245304
 20
1191.0625
 11
2048.1297175245304
 21
1183.5625
  0
LINE
  8
_1-4_
  6
DASHED1
 62
    7
 10
2050.6297175245304
 20
1191.0625
 11
2050.6297175245304
 21
1183.5625
  0
LINE
  8
_1-4_
  6
DASHED1
 62
    7
 10
2049.3797175245304
 20
1181.9724999999998
 11
2049.3797175245304
 21
1193.0625
  0
ARC
  8
_1-4_
  6
DASHED1
 62
    7
 10
2111.8796675245307
 20
1168.5625
 40
6.0000000000000008
 50
269.99999999999988
 51
359.99999999999988
  0
ARC
  8
_1-4_
  6
DASHED1
 62
    7
 10
2088.8796675245303
 20
1168.6707000000001
 40
4
 50
179.99999999999991
 51
202.63099999999988
  0
ARC
  8
_1-4_
  6
DASHED1
 62
    7
 10
2111.8796675245307
 20
1168.6602
 40
4
 50
304.46999999999991
 51
0.0000000000000826
  0
ARC
  8
_1-4_
  6
DASHED1
 62
    7
 10
2078.8796675245303
 20
1183.0625
 40
4
 50
84.812999999999973
 51
89.999999999999971
  0
ARC
  8
_1-4_
  6
DASHED1
 62
    7
 10
2078.8796675245303
 20
1183.0625
 40
4
 50
359.99999999999994
 51
84.813000000000002
  0
CIRCLE
  8
_1-4_
  6
DASHED1
 62
    7
 10
2087.8796675245307
 20
1181.0625
 40
2.1
  0
CIRCLE
  8
_1-4_
  6
DASHED1
 62
    7
 10
2087.8796675245307
 20
1181.0625
 40
3.0000000000000004
  0
ARC
  8
_1-4_
  6
DASHED1
 62
    7
 10
2047.8797175245308
 20
1190.0625
 40
1
 50
89.999999999999971
 51
180
  0
ARC
  8
_1-4_
  6
DASHED1
 62
    7
 10
2090.0473175245306
 20
1183.1364499999999
 40
6.0000000000000008
 50
223.73399999999995
 51
281.21399999999994
  0
CIRCLE
  8
_1-4_
  6
DASHED1
 62
    7
 10
2087.8796675245307
 20
1181.0625
 40
3.0000000000000004
  0
CIRCLE
  8
_1-4_
  6
DASHED1
 62
    7
 10
2087.8796675245307
 20
1181.0625
 40
2.1
  0
ARC
  8
_1-4_
  6
DASHED1
 62
    7
 10
2076.8080675245305
 20
1185.0625
 40
2
 50
44.999999999999964
 51
89.999999999999971
  0
ARC
  8
_1-4_
  6
DASHED1
 62
    7
 10
2080.0507175245306
 20
1186.0625
 40
5
 50
44.999999999999964
 51
89.999999999999971
  0
ARC
  8
_1-4_
  6
DASHED1
 62
    7
 10
2091.6070675245305
 20
1190.0625
 40
6.0000000000000008
 50
224.99999999999994
 51
269.99999999999994
  0
ARC
  8
_1-4_
  6
DASHED1
 62
    7
 10
2085.7132675245306
 20
1180.3999499999999
 40
1
 50
224.99999999999991
 51
284.99999999999994
  0
ARC
  8
_1-4_
  6
DASHED1
 62
    7
 10
2115.2456175245306
 20
1184.2532499999999
 40
10
 50
240.93599999999992
 51
257.62099999999992
  0
ARC
  8
_1-4_
  6
DASHED1
 62
    7
 10
2113.3162175245306
 20
1175.4625
 40
1
 50
257.62099999999986
 51
352.99999999999994
  0
ARC
  8
_1-4_
  6
DASHED1
 62
    7
 10
2099.4796675245306
 20
1135.5625
 40
42.00685
 50
86.96199999999996
 51
94.376999999999995
  0
ARC
  8
_1-4_
  6
DASHED1
 62
    7
 10
2100.6721175245306
 20
1158.0308999999999
 40
19.50685
 50
71.771999999999977
 51
86.961999999999974
  0
ARC
  8
_1-4_
  6
DASHED1
 62
    7
 10
2099.4796675245306
 20
1135.5625
 40
42.706699999999997
 50
86.96199999999996
 51
94.304999999999992
  0
ARC
  8
_1-4_
  6
DASHED1
 62
    7
 10
2100.6721175245306
 20
1158.0308999999999
 40
20.206700000000004
 50
72.423999999999978
 51
86.961999999999974
  0
ARC
  8
_1-4_
  6
DASHED1
 62
    7
 10
2099.4796675245306
 20
1135.5625
 40
42.5
 50
86.96199999999996
 51
101.21399999999999
  0
ARC
  8
_1-4_
  6
DASHED1
 62
    7
 10
2100.6721175245306
 20
1158.0308999999999
 40
20
 50
60.935999999999985
 51
87.972999999999984
  0
ARC
  8
_1-4_
  6
DASHED1
 62
    7
 10
2113.9913675245306
 20
1176.8585
 40
0.5
 50
239.99999999999994
 51
352.99999999999994
  0
ARC
  8
_1-4_
  6
DASHED1
 62
    7
 10
2087.8796675245307
 20
1181.0625
 40
2.2999999999999998
 50
179.99999999999985
 51
359.99999999999988
  0
ARC
  8
_1-4_
  6
DASHED1
 62
    7
 10
2078.8796675245303
 20
1185.0625
 40
2
 50
359.99999999999994
 51
89.999999999999943
  0
ARC
  8
_1-4_
  6
DASHED1
 62
    7
 10
2082.8796675245307
 20
1184.5625
 40
2
 50
179.99999999999985
 51
209.99999999999991
  0
ARC
  8
_1-4_
  6
DASHED1
 62
    7
 10
2086.8796675245307
 20
1184.2625
 40
1
 50
179.99999999999991
 51
269.99999999999994
  0
ARC
  8
_1-4_
  6
DASHED1
 62
    7
 10
2089.1796675245304
 20
1184.2625
 40
1
 50
269.99999999999988
 51
359.99999999999988
  0
ARC
  8
_1-4_
  6
DASHED1
 62
    7
 10
2058.8796675245303
 20
1188.0625
 40
1
 50
179.99999999999991
 51
269.99999999999994
  0
ARC
  8
_1-4_
  6
DASHED1
 62
    7
 10
2100.9396675245307
 20
1172.8524999999999
 40
8.7300000000000004
 50
146.57599999999996
 51
22.665999999999996
  0
ARC
  8
_1-4_
  6
DASHED1
 62
    7
 10
2073.8796675245303
 20
1173.8624999999999
 40
1
 50
179.99999999999991
 51
269.99999999999994
  0
ARC
  8
_1-4_
  6
DASHED1
 62
    7
 10
2081.8796675245307
 20
1177.5625
 40
1
 50
269.99999999999988
 51
359.99999999999988
  0
ARC
  8
_1-4_
  6
DASHED1
 62
    7
 10
2073.8796675245303
 20
1164.5625
 40
2
 50
179.99999999999991
 51
269.99999999999994
  0
ARC
  8
_1-4_
  6
DASHED1
 62
    7
 10
2111.8796675245307
 20
1168.6602
 40
4
 50
273
 51
304.46999999999985
  0
ARC
  8
_1-4_
  6
DASHED1
 62
    7
 10
2088.8796675245303
 20
1168.6707000000001
 40
4
 50
202.63099999999991
 51
266.99999999999994
  0
ARC
  8
_1-4_
  6
DASHED1
 62
    7
 10
2099.4796675245306
 20
1135.5625
 40
45.472499999999996
 50
86.96199999999996
 51
89.629000000000019
  0
ARC
  8
_1-4_
  6
DASHED1
 62
    7
 10
2099.4796675245306
 20
1135.5625
 40
45.046349999999996
 50
86.96199999999996
 51
89.625999999999976
  0
ARC
  8
_1-4_
  6
DASHED1
 62
    7
 10
2100.6721175245306
 20
1158.0308999999999
 40
22.54635
 50
74.297999999999973
 51
86.961999999999974
  0
ARC
  8
_1-4_
  6
DASHED1
 62
    7
 10
2100.6721175245306
 20
1158.0308999999999
 40
22.9725
 50
74.596999999999965
 51
86.96199999999996
  0
ARC
  8
_1-4_
  6
DASHED1
 62
    7
 10
2100.9396675245307
 20
1172.8524999999999
 40
8.7300000000000004
 50
22.665999999999975
 51
146.57599999999999
  0
ARC
  8
_1-4_
  6
DASHED1
 62
    7
 10
2088.8796675245303
 20
1168.5625
 40
6.0000000000000008
 50
179.99999999999991
 51
269.99999999999994
  0
LINE
  8
_1-4_
  6
DASHED1
 62
    7
 10
2100.3796675245307
 20
1193.1624999999999
 11
2100.3796675245307
 21
1158.7625
  0
ARC
  8
_1-4_
  6
DASHED1
 62
    7
 10
2036.5796675245301
 20
1177
 40
1.1999999999999999
 50
90.000000000000028
 51
180.00000000000005
  0
ARC
  8
_1-4_
  6
DASHED1
 62
    7
 10
2036.5796675245301
 20
1177
 40
1.1999999999999999
 50
90.000000000000028
 51
180.00000000000005
  0
LINE
  8
_1-4_
  6
DASHED1
 62
    7
 10
2035.37966752453
 20
1174
 11
2036.5796675245301
 21
1174
  0
LINE
  8
_1-4_
  6
DASHED1
 62
    7
 10
2036.5796675245301
 20
1177
 11
2036.5796675245301
 21
1157
  0
LINE
  8
_1-4_
  6
DASHED1
 62
    7
 10
2035.37966752453
 20
1157
 11
2036.5796675245301
 21
1157
  0
LINE
  8
_1-4_
  6
DASHED1
 62
    7
 10
2035.37966752453
 20
1177
 11
2035.37966752453
 21
1157
  0
LINE
  8
_1-4_
  6
DASHED1
 62
    7
 10
2036.5796675245301
 20
1176.5
 11
2036.5796675245301
 21
1161.3593
  0
LINE
  8
_1-4_
  6
DASHED1
 62
    7
 10
2037.0796675245301
 20
1177
 11
2052.22036752453
 21
1177
  0
LINE
  8
_1-4_
  6
DASHED1
 62
    7
 10
2066.3796675245303
 20
1177
 11
2066.3796675245303
 21
1178.1999999999998
  0
LINE
  8
_1-4_
  6
DASHED1
 62
    7
 10
2036.5796675245301
 20
1178.1999999999998
 11
2072.3796675245303
 21
1178.1999999999998
  0
LINE
  8
_1-4_
  6
DASHED1
 62
    7
 10
2036.5796675245301
 20
1177
 11
2072.3796675245303
 21
1177
  0
LINE
  8
_1-4_
  6
DASHED1
 62
    7
 10
2072.3796675245303
 20
1178.1999999999998
 11
2072.3796675245303
 21
1177
  0
POINT
  8
_0-9_
 62
    3
 10
2039.3796675245307
 20
1357
  0
POINT
  8
_0-9_
 62
    3
 10
2381.3796675245298
 20
1357
  0
LINE
  8
_0-9_
  6
CONTINUOUS
 62
    4
 10
2039.3796675245307
 20
1367
 11
2039.3796675245307
 21
1237
  0
LINE
  8
_0-9_
  6
CONTINUOUS
 62
    4
 10
2381.3796675245298
 20
1367
 11
2381.3796675245298
 21
1237
  0
LINE
  8
_0-9_
  6
CONTINUOUS
 62
    4
 10
2039.3796675245307
 20
1357
 11
2381.3796675245298
 21
1357
  0
TEXT
  8
_0-9_
 62
    7
 10
2177.2796675245303
 20
1362
 40
35
 41
0.6285714285714286
 50
0
  1
３４２
  0
POINT
  8
_0-9_
 62
    3
 10
2359.3796675245307
 20
1083.224274108792
  0
POINT
  8
_0-9_
 62
    3
 10
2359.3796675245307
 20
1083.224274108792
  0
LINE
  8
_0-9_
  6
CONTINUOUS
 62
    4
 10
2359.3796675245307
 20
1083.224274108792
 11
2069.8796675245307
 21
1083.224274108792
  0
POINT
  8
_0-9_
 62
    3
 10
2069.8796675245307
 20
1083.224274108792
  0
TEXT
  8
_0-9_
 62
    7
 10
2181.5296675245308
 20
1083.224274108792
 40
35
 41
0.6285714285714286
 50
0
  1
２９０
  0
LINE
  8
_0-9_
  6
CONTINUOUS
 62
    4
 10
2069.8796675245307
 20
1093.224274108792
 11
2069.8796675245307
 21
1029.5372566772293
  0
LINE
  8
_0-9_
  6
CONTINUOUS
 62
    4
 10
2359.3796675245307
 20
1093.224274108792
 11
2359.3796675245307
 21
1029.5372566772293
  0
ENDSEC
  0
EOF
