  0
SECTION
  2
HEADER
  9
$ACADVER
  1
AC1009
  9
$INSBASE
 10
0
 20
0
 30
0
  9
$EXTMIN
 10
0
 20
0
  9
$EXTMAX
 10
4200
 20
2970
  9
$LIMMIN
 10
0
 20
0
  9
$LIMMAX
 10
4200
 20
2970
  9
$LTSCALE
 40
10
  0
ENDSEC
  0
SECTION
  2
TABLES
  0
TABLE
  2
LTYPE
 70
     9
  0
LTYPE
  2
CONTINUOUS
 70
    64
  3
実線
 72
    65
 73
     0
 40
0.0
  0
LTYPE
  2
DASHED1
 70
    64
  3
--  --  --  --  --  --  --  --  
 72
    65
 73
     2
 40
2.5
 49
1.25
 49
-1.25
  0
LTYPE
  2
DASHED2
 70
    64
  3
----    ----    ----    ----    
 72
    65
 73
     2
 40
5.0
 49
2.5
 49
-2.5
  0
LTYPE
  2
DASHED3
 70
    64
  3
------  ------  ------  ------  
 72
    65
 73
     2
 40
5.0
 49
3.75
 49
-1.25
  0
LTYPE
  2
CENTER1
 70
    64
  3
----- - ----- - ----- - ----- - 
 72
    65
 73
     4
 40
10.0
 49
6.25
 49
-1.25
 49
1.25
 49
-1.25
  0
LTYPE
  2
CENTER2
 70
    64
  3
----------  --  ----------  --  
 72
    65
 73
     4
 40
20.0
 49
12.5
 49
-2.5
 49
2.5
 49
-2.5
  0
LTYPE
  2
PHANTOM1
 70
    64
  3
--- - - --- - - --- - - --- - - 
 72
    65
 73
     6
 40
10.0
 49
3.25
 49
-1.25
 49
1.25
 49
-1.25
 49
1.25
 49
-1.25
  0
LTYPE
  2
PHANTOM2
 70
    64
  3
--------  -  -  --------  -  -  
 72
    65
 73
     6
 40
20.0
 49
10.0
 49
-2.5
 49
1.25
 49
-2.5
 49
1.25
 49
-2.5
  0
LTYPE
  2
DOT
 70
    64
  3
-   -   -   -   -   -   -   -   
 72
    65
 73
     2
 40
2.5
 49
0.625
 49
-1.875
  0
LTYPE
  2
DUMMY
 70
    64
  3
ダミー
 72
    65
 73
     0
 40
0.0
  0
LTYPE
  2
RAND1
 70
    64
  3
ランダム線1
 72
    65
 73
     4
 40
10.0
 49
1.0
 49
-2.0
 49
3.0
 49
-4.0
  0
LTYPE
  2
RAND2
 70
    64
  3
ランダム線2
 72
    65
 73
     4
 40
14.0
 49
2.0
 49
-3.0
 49
4.0
 49
-5.0
  0
LTYPE
  2
RAND3
 70
    64
  3
ランダム線3
 72
    65
 73
     4
 40
18.0
 49
3.0
 49
-4.0
 49
5.0
 49
-6.0
  0
LTYPE
  2
RAND4
 70
    64
  3
ランダム線4
 72
    65
 73
     4
 40
22.0
 49
4.0
 49
-5.0
 49
6.0
 49
-7.0
  0
LTYPE
  2
RAND5
 70
    64
  3
ランダム線5
 72
    65
 73
     4
 40
26.0
 49
5.0
 49
-6.0
 49
7.0
 49
-8.0
  0
LTYPE
  2
LONG1
 70
    64
  3
----------  --  ----------  --  
 72
    65
 73
     4
 40
40.0
 49
32.5
 49
-2.5
 49
2.5
 49
-2.5
  0
LTYPE
  2
LONG2
 70
    64
  3
--------  -  -  --------  -  -  
 72
    65
 73
     6
 40
40.0
 49
30.0
 49
-2.5
 49
1.25
 49
-2.5
 49
1.25
 49
-2.5
  0
LTYPE
  2
LONG3
 70
    64
  3
+++++++++++++++..+++++++++++++++
 72
    65
 73
     2
 40
40.0
 49
37.5
 49
-2.5
  0
LTYPE
  2
LONG4
 70
    64
  3
+++++++++++++++..+++++++++++++++
 72
    65
 73
     2
 40
80.0
 49
75.0
 49
-5.0
  0
LTYPE
  2
LONG5
 70
    64
  3
----------  --  ----------  --  
 72
    65
 73
     4
 40
60.0
 49
37.5
 49
-7.5
 49
7.5
 49
-7.5
  0
LTYPE
  2
dashed
 70
   64
  3
-------   -------------   ------
 72
   65
 73
    2
 40
7.5
 49
6
 49
-1.5
  0
LTYPE
  2
dashed_spaced
 70
   64
  3
----        --------        ----
 72
   65
 73
    2
 40
12
 49
6
 49
-6
  0
LTYPE
  2
long_dashed_dotted
 70
   64
  3
------------- --- --------------
 72
   65
 73
    4
 40
15.25
 49
12
 49
-1.5
 49
0.25
 49
-1.5
  0
LTYPE
  2
long_dashed_double-dotted
 70
   64
  3
----------- --- --- ------------
 72
   65
 73
    6
 40
17
 49
12
 49
-1.5
 49
0.25
 49
-1.5
 49
0.25
 49
-1.5
  0
LTYPE
  2
long_dashed_triplicate-dotted
 70
   64
  3
--------- --- --- --- ----------
 72
   65
 73
    8
 40
18.75
 49
12
 49
-1.5
 49
0.25
 49
-1.5
 49
0.25
 49
-1.5
 49
0.25
 49
-1.5
  0
LTYPE
  2
dotted
 70
   64
  3
   -       -       -       -    
 72
   65
 73
    2
 40
1.75
 49
0.25
 49
-1.5
  0
LTYPE
  2
chain
 70
   64
  3
-------------- -- --------------
 72
   65
 73
    4
 40
18.5
 49
12
 49
-1.5
 49
3.5
 49
-1.5
  0
LTYPE
  2
chain_double_dash
 70
   64
  3
------------ -- -- -------------
 72
   65
 73
    6
 40
23.5
 49
12
 49
-1.5
 49
3.5
 49
-1.5
 49
3.5
 49
-1.5
  0
LTYPE
  2
dashed_dotted
 70
   64
  3
-----------     -     ----------
 72
   65
 73
    4
 40
9.25
 49
6
 49
-1.5
 49
0.25
 49
-1.5
  0
LTYPE
  2
double-dashed_dotted
 70
   64
  3
------   -----------   -   -----
 72
   65
 73
    6
 40
16.75
 49
6
 49
-1.5
 49
6
 49
-1.5
 49
0.25
 49
-1.5
  0
LTYPE
  2
dashed_double-dotted
 70
   64
  3
---------    -    -    ---------
 72
   65
 73
    6
 40
11
 49
6
 49
-1.5
 49
0.25
 49
-1.5
 49
0.25
 49
-1.5
  0
LTYPE
  2
double-dashed_double-dotted
 70
   64
  3
-----   ---------   -   -   ----
 72
   65
 73
    8
 40
18.5
 49
6
 49
-1.5
 49
6
 49
-1.5
 49
0.25
 49
-1.5
 49
0.25
 49
-1.5
  0
LTYPE
  2
dashed_triplicate-dotted
 70
   64
  3
-------    -    -    -    ------
 72
   65
 73
    8
 40
12.75
 49
6
 49
-1.5
 49
0.25
 49
-1.5
 49
0.25
 49
-1.5
 49
0.25
 49
-1.5
  0
LTYPE
  2
double-dashed_triplicate-dotted
 70
   64
  3
-----  ---------  -  -  -  -----
 72
   65
 73
   10
 40
20.25
 49
6
 49
-1.5
 49
6
 49
-1.5
 49
0.25
 49
-1.5
 49
0.25
 49
-1.5
 49
0.25
 49
-1.5
  0
LTYPE
  2
undefined
 70
   64
  3
--------------------------------
 72
   65
 73
    0
 40
0
  0
LTYPE
  2
_
 70
   64
  3
                                
 72
   65
 73
    0
 40
0
  0
LTYPE
  2
__18
 70
   64
  3
                                
 72
   65
 73
    0
 40
0
  0
LTYPE
  2
__19
 70
   64
  3
                                
 72
   65
 73
    0
 40
0
  0
LTYPE
  2
__20
 70
   64
  3
                                
 72
   65
 73
    0
 40
0
  0
LTYPE
  2
__21
 70
   64
  3
                                
 72
   65
 73
    0
 40
0
  0
LTYPE
  2
__22
 70
   64
  3
                                
 72
   65
 73
    0
 40
0
  0
LTYPE
  2
__23
 70
   64
  3
                                
 72
   65
 73
    0
 40
0
  0
LTYPE
  2
__24
 70
   64
  3
                                
 72
   65
 73
    0
 40
0
  0
LTYPE
  2
__25
 70
   64
  3
                                
 72
   65
 73
    0
 40
0
  0
LTYPE
  2
__26
 70
   64
  3
                                
 72
   65
 73
    0
 40
0
  0
LTYPE
  2
__27
 70
   64
  3
                                
 72
   65
 73
    0
 40
0
  0
LTYPE
  2
__28
 70
   64
  3
                                
 72
   65
 73
    0
 40
0
  0
LTYPE
  2
__29
 70
   64
  3
                                
 72
   65
 73
    0
 40
0
  0
LTYPE
  2
__30
 70
   64
  3
                                
 72
   65
 73
    0
 40
0
  0
LTYPE
  2
__31
 70
   64
  3
                                
 72
   65
 73
    0
 40
0
  0
LTYPE
  2
__32
 70
   64
  3
                                
 72
   65
 73
    0
 40
0
  0
ENDTAB
  0
TABLE
  2
STYLE
  5
3
100
AcDbSymbolTable
 70
     1
  0
STYLE
  5
10
100
AcDbSymbolTableRecord
100
AcDbTextStyleTableRecord
  2
STANDARD
 70
     0
 40
0.0
 41
1.0
 50
0.0
 71
     0
 42
0.2
  3
txt
  4
bigfont.shx
  0
STYLE
  5
26
100
AcDbSymbolTableRecord
100
AcDbTextStyleTableRecord
  2
TATEGAKI
 70
    68
 40
0.0
 41
1.0
 50
0.0
 71
     0
 42
1.0
  3
txt
  4
bigfont.shx
  0
ENDTAB
  0
TABLE
  2
LAYER
 70
   14
  0
LAYER
  2
_0-0_
 70
   64
 62
    7
  6
CONTINUOUS
  0
LAYER
  2
_1-2_
 70
   64
 62
    7
  6
CONTINUOUS
  0
LAYER
  2
_1-3_
 70
   64
 62
    7
  6
CONTINUOUS
  0
LAYER
  2
_1-4_
 70
   64
 62
    7
  6
CONTINUOUS
  0
LAYER
  2
_1-5_
 70
   64
 62
    7
  6
CONTINUOUS
  0
LAYER
  2
_1-8_
 70
   64
 62
    7
  6
CONTINUOUS
  0
LAYER
  2
_1-9_
 70
   64
 62
    7
  6
CONTINUOUS
  0
LAYER
  2
_1-d_
 70
   64
 62
    7
  6
CONTINUOUS
  0
LAYER
  2
_e-0_
 70
   64
 62
    7
  6
CONTINUOUS
  0
LAYER
  2
_f-7_
 70
   64
 62
    7
  6
CONTINUOUS
  0
LAYER
  2
_f-8_
 70
   64
 62
    7
  6
CONTINUOUS
  0
LAYER
  2
_f-9_
 70
   64
 62
    7
  6
CONTINUOUS
  0
LAYER
  2
_f-d_固定文字
 70
   64
 62
    7
  6
CONTINUOUS
  0
LAYER
  2
ADD_LINE
 70
   64
 62
    7
  6
CONTINUOUS
  0
ENDTAB
  0
ENDSEC
  0
SECTION
  2
BLOCKS
  0
ENDSEC
  0
SECTION
  2
ENTITIES
  0
LINE
  8
_f-9_
  6
CONTINUOUS
 62
    7
 10
630
 20
220
 11
2210
 21
220
  0
LINE
  8
_1-9_
  6
CONTINUOUS
 62
    4
 10
2686.3582660936599
 20
1616.5776690599377
 11
2686.3582660936599
 21
1636.5776690599377
  0
TEXT
  8
_1-9_
 62
    7
 10
2686.3582660936599
 20
1568.8548658672514
 40
35
 41
0.6285714285714286
 50
90
  1
２０
  0
LINE
  8
_f-8_
  6
CONTINUOUS
 62
    7
 10
2165
 20
2872
 11
2166.15
 21
2874.0000000000004
  0
LINE
  8
_f-8_
  6
CONTINUOUS
 62
    7
 10
2158.6399999999998
 20
2877
 11
2165
 21
2866
  0
LINE
  8
_f-8_
  6
CONTINUOUS
 62
    7
 10
2165
 20
2866
 11
2171.3499999999999
 21
2877
  0
LINE
  8
_f-8_
  6
CONTINUOUS
 62
    7
 10
2165
 20
2860
 11
2176.5399999999999
 21
2880
  0
LINE
  8
_f-8_
  6
CONTINUOUS
 62
    7
 10
2153.4499999999998
 20
2880
 11
2165
 21
2860
  0
LINE
  8
_f-8_
  6
CONTINUOUS
 62
    7
 10
2176.5399999999999
 20
2880
 11
2153.4499999999998
 21
2880
  0
LINE
  8
_f-8_
  6
CONTINUOUS
 62
    7
 10
2163.8400000000001
 20
2874.0000000000004
 11
2165
 21
2872
  0
LINE
  8
_f-8_
  6
CONTINUOUS
 62
    7
 10
2166.15
 20
2874.0000000000004
 11
2163.8400000000001
 21
2874.0000000000004
  0
LINE
  8
_f-8_
  6
CONTINUOUS
 62
    7
 10
2171.3499999999999
 20
2877
 11
2158.6399999999998
 21
2877
  0
LINE
  8
_f-9_
  6
CONTINUOUS
 62
    7
 10
630
 20
120
 11
630
 21
220
  0
LINE
  8
_f-9_
  6
CONTINUOUS
 62
    7
 10
170
 20
120
 11
610
 21
120
  0
LINE
  8
_f-9_
  6
CONTINUOUS
 62
    7
 10
170
 20
220
 11
610
 21
220
  0
LINE
  8
_f-9_
  6
CONTINUOUS
 62
    7
 10
1420
 20
120
 11
1420
 21
220
  0
LINE
  8
_f-9_
  6
CONTINUOUS
 62
    7
 10
2210
 20
120
 11
2210
 21
220
  0
LINE
  8
_f-9_
  6
CONTINUOUS
 62
    7
 10
2220
 20
120
 11
2220
 21
220
  0
LINE
  8
_f-9_
  6
CONTINUOUS
 62
    7
 10
630
 20
120
 11
2210
 21
120
  0
LINE
  8
_f-9_
  6
CONTINUOUS
 62
    7
 10
2710
 20
120
 11
2710
 21
220
  0
LINE
  8
_f-9_
  6
CONTINUOUS
 62
    7
 10
2720
 20
120
 11
2720
 21
220
  0
LINE
  8
_f-9_
  6
CONTINUOUS
 62
    7
 10
2220
 20
120
 11
2710
 21
120
  0
LINE
  8
_f-9_
  6
CONTINUOUS
 62
    7
 10
2220
 20
220
 11
2710
 21
220
  0
LINE
  8
_f-9_
  6
CONTINUOUS
 62
    7
 10
3020
 20
120
 11
3020
 21
220
  0
LINE
  8
_f-9_
  6
CONTINUOUS
 62
    7
 10
3320
 20
120
 11
3320
 21
220
  0
LINE
  8
_f-9_
  6
CONTINUOUS
 62
    7
 10
3700
 20
120
 11
3700
 21
220
  0
LINE
  8
_f-9_
  6
CONTINUOUS
 62
    7
 10
2720
 20
120
 11
4110
 21
120
  0
LINE
  8
_f-9_
  6
CONTINUOUS
 62
    7
 10
4110
 20
120
 11
4110
 21
220
  0
LINE
  8
_f-9_
  6
CONTINUOUS
 62
    7
 10
2720
 20
220
 11
4110
 21
220
  0
LINE
  8
_0-0_
  6
CONTINUOUS
 62
    7
 10
4130
 20
2860
 11
4130
 21
100
  0
LINE
  8
_0-0_
  6
CONTINUOUS
 62
    7
 10
150
 20
2860
 11
4130
 21
2860
  0
LINE
  8
_0-0_
  6
CONTINUOUS
 62
    7
 10
150
 20
100
 11
4130
 21
100
  0
LINE
  8
_0-0_
  6
CONTINUOUS
 62
    7
 10
150
 20
100
 11
150
 21
2860
  0
TEXT
  8
_f-8_
 62
    7
 10
3040
 20
187.5
 40
25
 41
0.64
 50
0
  1
ＤＡＴＡ
  0
TEXT
  8
_f-8_
 62
    7
 10
3340
 20
187.5
 40
25
 41
0.64
 50
0
  1
ＣＨＥＣＫＥＤ
  0
TEXT
  8
_f-8_
 62
    7
 10
3720
 20
187.5
 40
25
 41
0.64
 50
0
  1
ＳＨＥＥＴ　ＮＯ．
  0
TEXT
  8
_f-8_
 62
    7
 10
3542
 20
187.5
 40
25
 41
0.64
 50
0
  1
ＤＲＡＷＩＮＧ
  0
LINE
  8
_f-9_
  6
CONTINUOUS
 62
    7
 10
170
 20
170
 11
610
 21
170
  0
TEXT
  8
_f-8_
 62
    7
 10
2740.3739840854213
 20
187.46937299484983
 40
25
 41
0.64
 50
0
  1
ＳＣＡＬＥ
  0
TEXT
  8
_f-8_
 62
    7
 10
1445
 20
187.5
 40
25
 41
0.8
 50
0
  1
図面名称
  0
TEXT
  8
_f-8_
 62
    7
 10
655
 20
187.5
 40
25
 41
0.8
 50
0
  1
名　称
  0
LINE
  8
_f-7_
  6
CONTINUOUS
 62
    7
 10
4160
 20
1462.6794919243113
 11
4160
 21
1497.3205080756886
  0
LINE
  8
_f-7_
  6
CONTINUOUS
 62
    7
 10
4160
 20
1497.3205080756886
 11
4130
 21
1480
  0
LINE
  8
_f-7_
  6
CONTINUOUS
 62
    7
 10
4130
 20
1480
 11
4160
 21
1462.6794919243113
  0
LINE
  8
_f-7_
  6
CONTINUOUS
 62
    7
 10
4155
 20
1471.3397459621555
 11
4155
 21
1488.6602540378444
  0
LINE
  8
_f-7_
  6
CONTINUOUS
 62
    7
 10
4155
 20
1488.6602540378444
 11
4140
 21
1480
  0
LINE
  8
_f-7_
  6
CONTINUOUS
 62
    7
 10
4140
 20
1480
 11
4155
 21
1471.3397459621555
  0
LINE
  8
_f-7_
  6
CONTINUOUS
 62
    7
 10
4151
 20
1478.2679491924309
 11
4151
 21
1481.732050807569
  0
LINE
  8
_f-7_
  6
CONTINUOUS
 62
    7
 10
4151
 20
1481.732050807569
 11
4148
 21
1480
  0
LINE
  8
_f-7_
  6
CONTINUOUS
 62
    7
 10
4148
 20
1480
 11
4151
 21
1478.2679491924309
  0
TEXT
  8
_f-d_固定文字
 62
    7
 10
149.98500000000007
 20
65
 40
20
 41
1
 50
0
  1
%f
  0
TEXT
  8
_f-d_固定文字
 62
    7
 10
3990
 20
65.00000323002979
 40
20
 41
1
 50
0
  1
%y
  0
TEXT
  8
_f-d_固定文字
 62
    7
 10
4020
 20
65.00000323002979
 40
20
 41
1
 50
0
  1
．
  0
TEXT
  8
_f-d_固定文字
 62
    7
 10
4050
 20
65.00000323002979
 40
20
 41
1
 50
0
  1
%m
  0
TEXT
  8
_f-d_固定文字
 62
    7
 10
4080
 20
65.00000323002979
 40
20
 41
1
 50
0
  1
．
  0
TEXT
  8
_f-d_固定文字
 62
    7
 10
4110
 20
65.00000323002979
 40
20
 41
1
 50
0
  1
%d
  0
TEXT
  8
_f-8_
 62
    7
 10
709.27997711517059
 20
137.5
 40
45
 41
0.8
 50
0
  1
薄型玄関収納　トールユニット
  0
LINE
  8
_1-2_
  6
CONTINUOUS
 62
    5
 10
1014.4200616777293
 20
2526.5776690599382
 11
1014.4200616777293
 21
726.57766905993776
  0
LINE
  8
_1-2_
  6
CONTINUOUS
 62
    5
 10
2346.3582660936604
 20
1616.5776690599377
 11
2536.3582660936608
 21
1616.5776690599377
  0
LINE
  8
_1-2_
  6
CONTINUOUS
 62
    5
 10
2536.3582660936608
 20
726.57766905993776
 11
2346.3582660936604
 21
726.57766905993776
  0
LINE
  8
_1-4_
  6
CONTINUOUS
 62
    4
 10
2533.6826118024982
 20
1500.5612673673795
 11
2470.82269528711
 21
1294.955744835327
  0
CIRCLE
  8
_1-4_
  6
CONTINUOUS
 62
    4
 10
2449.6256343905083
 20
1307.7105729938125
 40
2
  0
CIRCLE
  8
_1-4_
  6
CONTINUOUS
 62
    4
 10
2419.0239100848789
 20
1317.0664151005289
 40
2
  0
LINE
  8
_1-4_
  6
CONTINUOUS
 62
    4
 10
2533.6826118024982
 20
1500.5612673673795
 11
2510.837965804475
 21
1507.5455765560373
  0
LINE
  8
_1-4_
  6
CONTINUOUS
 62
    4
 10
2532.5131249836072
 20
1496.7360483435277
 11
2509.6684789855839
 21
1503.720357532185
  0
CIRCLE
  8
_1-4_
  6
CONTINUOUS
 62
    4
 10
2510.9872243928016
 20
1446.8498217498599
 40
2
  0
CIRCLE
  8
_1-4_
  6
CONTINUOUS
 62
    4
 10
2526.1905530383837
 20
1496.5776690599377
 40
2
  0
CIRCLE
  8
_1-4_
  6
CONTINUOUS
 62
    4
 10
2482.3347403720226
 20
1353.1319437999061
 40
2
  0
LINE
  8
_1-4_
  6
CONTINUOUS
 62
    4
 10
2528.6879059597554
 20
1497.9055351624185
 11
2468.1669630821488
 21
1299.9504506780701
  0
LINE
  8
_1-4_
  6
CONTINUOUS
 62
    4
 10
2402.8323989925615
 20
1328.3565771882674
 11
2499.1600455093739
 21
1502.8161526903677
  0
LINE
  8
_1-4_
  6
CONTINUOUS
 62
    4
 10
2406.3340809824421
 20
1326.4231279177824
 11
2502.6617265429504
 21
1500.8827037122537
  0
ARC
  8
_1-4_
  6
CONTINUOUS
 62
    4
 10
2411.5866031967398
 20
1323.5229532019352
 40
6.0000000000000008
 50
151.09476799999998
 51
253.00000000000002
  0
ARC
  8
_1-4_
  6
CONTINUOUS
 62
    4
 10
2507.9142487572476
 20
1497.9825289964069
 40
10
 50
73
 51
151.09476799999998
  0
ARC
  8
_1-4_
  6
CONTINUOUS
 62
    4
 10
2507.9142487572476
 20
1497.9825289964069
 40
6.0000000000000008
 50
73
 51
151.09476799999998
  0
ARC
  8
_1-4_
  6
CONTINUOUS
 62
    4
 10
2411.5866031967398
 20
1323.5229532019352
 40
10
 50
151.09496500000003
 51
253.00000000000002
  0
LINE
  8
_1-4_
  6
CONTINUOUS
 62
    4
 10
2470.82269528711
 20
1294.955744835327
 11
2399.0998385898824
 21
1316.8836226895323
  0
LINE
  8
_1-4_
  6
CONTINUOUS
 62
    4
 10
2400.269325408773
 20
1320.7088417133843
 11
2399.0998385898824
 21
1316.8836226895323
  0
LINE
  8
_1-4_
  6
CONTINUOUS
 62
    4
 10
2471.9921821060006
 20
1298.7809638591788
 11
2409.8323729684034
 21
1317.7851246661568
  0
LINE
  8
_1-4_
  6
CONTINUOUS
 62
    4
 10
2402.1819387459181
 20
1320.124097134452
 11
2400.269325408773
 21
1320.7088417133843
  0
LINE
  8
_1-4_
  6
CONTINUOUS
 62
    4
 10
2414.8087642717055
 20
1318.3550726747675
 11
2425.1744443700549
 21
1315.1860080621872
  0
LINE
  8
_1-4_
  6
CONTINUOUS
 62
    4
 10
2443.5725590356223
 20
1309.5611838469824
 11
2454.894492986572
 21
1306.0997212647289
  0
LINE
  8
_1-4_
  6
CONTINUOUS
 62
    4
 10
2475.5605385519788
 20
1355.2030251386868
 11
2490.1847056692299
 21
1350.7319685601642
  0
LINE
  8
_1-4_
  6
CONTINUOUS
 62
    4
 10
2504.2130225727573
 20
1448.9209030886404
 11
2518.8371896900084
 21
1444.4498465101178
  0
LINE
  8
_1-4_
  6
CONTINUOUS
 62
    4
 10
2519.4163512183395
 20
1498.6487503987182
 11
2534.040518335591
 21
1494.1776938201955
  0
LINE
  8
_1-4_
  6
CONTINUOUS
 62
    4
 10
2528.1781207386839
 20
1503.0787100768789
 11
2524.3428770123855
 21
1490.534193092192
  0
LINE
  8
_1-4_
  6
CONTINUOUS
 62
    4
 10
2512.5925330467352
 20
1452.1005497640549
 11
2508.7572893204373
 21
1439.5560327793682
  0
LINE
  8
_1-4_
  6
CONTINUOUS
 62
    4
 10
2484.1594599565091
 20
1359.1003326308234
 11
2480.3242162302108
 21
1346.5558156461365
  0
LINE
  8
_1-4_
  6
CONTINUOUS
 62
    4
 10
2451.7902989416515
 20
1314.7908717090592
 11
2447.9550552153532
 21
1302.2463547243726
  0
LINE
  8
_1-4_
  6
CONTINUOUS
 62
    4
 10
2421.1885746360221
 20
1324.1467138157756
 11
2417.3533309097242
 21
1311.6021968310888
  0
LINE
  8
_1-4_
  6
CONTINUOUS
 62
    4
 10
2533.6826118024982
 20
1230.6125423940588
 11
2470.82269528711
 21
1025.0070198620064
  0
CIRCLE
  8
_1-4_
  6
CONTINUOUS
 62
    4
 10
2449.6256343905083
 20
1037.7618480204919
 40
2
  0
CIRCLE
  8
_1-4_
  6
CONTINUOUS
 62
    4
 10
2419.0239100848789
 20
1047.1176901272083
 40
2
  0
LINE
  8
_1-4_
  6
CONTINUOUS
 62
    4
 10
2533.6826118024982
 20
1230.6125423940588
 11
2510.837965804475
 21
1237.5968515827164
  0
LINE
  8
_1-4_
  6
CONTINUOUS
 62
    4
 10
2532.5131249836072
 20
1226.7873233702068
 11
2509.6684789855839
 21
1233.7716325588644
  0
CIRCLE
  8
_1-4_
  6
CONTINUOUS
 62
    4
 10
2510.9872243928016
 20
1176.9010967765393
 40
2
  0
CIRCLE
  8
_1-4_
  6
CONTINUOUS
 62
    4
 10
2526.1905530383837
 20
1226.6289440866171
 40
2
  0
CIRCLE
  8
_1-4_
  6
CONTINUOUS
 62
    4
 10
2482.3347403720226
 20
1083.1832188265855
 40
2
  0
LINE
  8
_1-4_
  6
CONTINUOUS
 62
    4
 10
2528.6879059597554
 20
1227.9568101890979
 11
2468.1669630821488
 21
1030.0017257047493
  0
LINE
  8
_1-4_
  6
CONTINUOUS
 62
    4
 10
2402.8323989925615
 20
1058.4078522149468
 11
2499.1600455093739
 21
1232.8674277170468
  0
LINE
  8
_1-4_
  6
CONTINUOUS
 62
    4
 10
2406.3340809824421
 20
1056.4744029444616
 11
2502.6617265429504
 21
1230.933978738933
  0
ARC
  8
_1-4_
  6
CONTINUOUS
 62
    4
 10
2411.5866031967398
 20
1053.5742282286146
 40
6.0000000000000008
 50
151.09476799999998
 51
253.00000000000002
  0
ARC
  8
_1-4_
  6
CONTINUOUS
 62
    4
 10
2507.9142487572476
 20
1228.0338040230863
 40
10
 50
73
 51
151.09476799999998
  0
ARC
  8
_1-4_
  6
CONTINUOUS
 62
    4
 10
2507.9142487572476
 20
1228.0338040230863
 40
6.0000000000000008
 50
73
 51
151.09476799999998
  0
ARC
  8
_1-4_
  6
CONTINUOUS
 62
    4
 10
2411.5866031967398
 20
1053.5742282286146
 40
10
 50
151.09496500000003
 51
253.00000000000002
  0
LINE
  8
_1-4_
  6
CONTINUOUS
 62
    4
 10
2470.82269528711
 20
1025.0070198620064
 11
2399.0998385898824
 21
1046.9348977162117
  0
LINE
  8
_1-4_
  6
CONTINUOUS
 62
    4
 10
2400.269325408773
 20
1050.7601167400637
 11
2399.0998385898824
 21
1046.9348977162117
  0
LINE
  8
_1-4_
  6
CONTINUOUS
 62
    4
 10
2471.9921821060006
 20
1028.8322388858584
 11
2409.8323729684034
 21
1047.8363996928362
  0
LINE
  8
_1-4_
  6
CONTINUOUS
 62
    4
 10
2402.1819387459181
 20
1050.1753721611314
 11
2400.269325408773
 21
1050.7601167400637
  0
LINE
  8
_1-4_
  6
CONTINUOUS
 62
    4
 10
2414.8087642717055
 20
1048.4063477014469
 11
2425.1744443700549
 21
1045.2372830888666
  0
LINE
  8
_1-4_
  6
CONTINUOUS
 62
    4
 10
2443.5725590356223
 20
1039.6124588736618
 11
2454.894492986572
 21
1036.150996291408
  0
LINE
  8
_1-4_
  6
CONTINUOUS
 62
    4
 10
2475.5605385519788
 20
1085.2543001653659
 11
2490.1847056692299
 21
1080.7832435868435
  0
LINE
  8
_1-4_
  6
CONTINUOUS
 62
    4
 10
2504.2130225727573
 20
1178.9721781153198
 11
2518.8371896900084
 21
1174.5011215367971
  0
LINE
  8
_1-4_
  6
CONTINUOUS
 62
    4
 10
2519.4163512183395
 20
1228.7000254253975
 11
2534.040518335591
 21
1224.2289688468752
  0
LINE
  8
_1-4_
  6
CONTINUOUS
 62
    4
 10
2528.1781207386839
 20
1233.129985103558
 11
2524.3428770123855
 21
1220.5854681188714
  0
LINE
  8
_1-4_
  6
CONTINUOUS
 62
    4
 10
2512.5925330467352
 20
1182.1518247907345
 11
2508.7572893204373
 21
1169.6073078060476
  0
LINE
  8
_1-4_
  6
CONTINUOUS
 62
    4
 10
2484.1594599565091
 20
1089.1516076575028
 11
2480.3242162302108
 21
1076.6070906728159
  0
LINE
  8
_1-4_
  6
CONTINUOUS
 62
    4
 10
2451.7902989416515
 20
1044.8421467357386
 11
2447.9550552153532
 21
1032.2976297510517
  0
LINE
  8
_1-4_
  6
CONTINUOUS
 62
    4
 10
2421.1885746360221
 20
1054.1979888424548
 11
2417.3533309097242
 21
1041.6534718577681
  0
LINE
  8
_1-4_
  6
CONTINUOUS
 62
    4
 10
2533.6826118024982
 20
960.56126736737951
 11
2470.82269528711
 21
754.95574483532709
  0
CIRCLE
  8
_1-4_
  6
CONTINUOUS
 62
    4
 10
2449.6256343905083
 20
767.71057299381266
 40
2
  0
CIRCLE
  8
_1-4_
  6
CONTINUOUS
 62
    4
 10
2419.0239100848789
 20
777.06641510052895
 40
2
  0
LINE
  8
_1-4_
  6
CONTINUOUS
 62
    4
 10
2533.6826118024982
 20
960.56126736737951
 11
2510.837965804475
 21
967.54557655603719
  0
LINE
  8
_1-4_
  6
CONTINUOUS
 62
    4
 10
2532.5131249836072
 20
956.73604834352761
 11
2509.6684789855839
 21
963.72035753218506
  0
CIRCLE
  8
_1-4_
  6
CONTINUOUS
 62
    4
 10
2510.9872243928016
 20
906.84982174985998
 40
2
  0
CIRCLE
  8
_1-4_
  6
CONTINUOUS
 62
    4
 10
2526.1905530383837
 20
956.57766905993776
 40
2
  0
CIRCLE
  8
_1-4_
  6
CONTINUOUS
 62
    4
 10
2482.3347403720226
 20
813.13194379990636
 40
2
  0
LINE
  8
_1-4_
  6
CONTINUOUS
 62
    4
 10
2528.6879059597554
 20
957.90553516241857
 11
2468.1669630821488
 21
759.95045067807018
  0
LINE
  8
_1-4_
  6
CONTINUOUS
 62
    4
 10
2402.8323989925615
 20
788.35657718826746
 11
2499.1600455093739
 21
962.81615269036751
  0
LINE
  8
_1-4_
  6
CONTINUOUS
 62
    4
 10
2406.3340809824421
 20
786.42312791778226
 11
2502.6617265429504
 21
960.88270371225371
  0
ARC
  8
_1-4_
  6
CONTINUOUS
 62
    4
 10
2411.5866031967398
 20
783.52295320193525
 40
6.0000000000000008
 50
151.09476799999998
 51
253.00000000000002
  0
ARC
  8
_1-4_
  6
CONTINUOUS
 62
    4
 10
2507.9142487572476
 20
957.98252899640692
 40
10
 50
73
 51
151.09476799999998
  0
ARC
  8
_1-4_
  6
CONTINUOUS
 62
    4
 10
2507.9142487572476
 20
957.98252899640692
 40
6.0000000000000008
 50
73
 51
151.09476799999998
  0
ARC
  8
_1-4_
  6
CONTINUOUS
 62
    4
 10
2411.5866031967398
 20
783.52295320193525
 40
10
 50
151.09496500000003
 51
253.00000000000002
  0
LINE
  8
_1-4_
  6
CONTINUOUS
 62
    4
 10
2470.82269528711
 20
754.95574483532709
 11
2399.0998385898824
 21
776.88362268953233
  0
LINE
  8
_1-4_
  6
CONTINUOUS
 62
    4
 10
2400.269325408773
 20
780.70884171338434
 11
2399.0998385898824
 21
776.88362268953233
  0
LINE
  8
_1-4_
  6
CONTINUOUS
 62
    4
 10
2471.9921821060006
 20
758.7809638591791
 11
2409.8323729684034
 21
777.78512466615688
  0
LINE
  8
_1-4_
  6
CONTINUOUS
 62
    4
 10
2402.1819387459181
 20
780.12409713445208
 11
2400.269325408773
 21
780.70884171338434
  0
LINE
  8
_1-4_
  6
CONTINUOUS
 62
    4
 10
2414.8087642717055
 20
778.35507267476771
 11
2425.1744443700549
 21
775.18600806218728
  0
LINE
  8
_1-4_
  6
CONTINUOUS
 62
    4
 10
2443.5725590356223
 20
769.56118384698254
 11
2454.894492986572
 21
766.09972126472882
  0
LINE
  8
_1-4_
  6
CONTINUOUS
 62
    4
 10
2475.5605385519788
 20
815.20302513868671
 11
2490.1847056692299
 21
810.7319685601642
  0
LINE
  8
_1-4_
  6
CONTINUOUS
 62
    4
 10
2504.2130225727573
 20
908.92090308864055
 11
2518.8371896900084
 21
904.44984651011793
  0
LINE
  8
_1-4_
  6
CONTINUOUS
 62
    4
 10
2519.4163512183395
 20
958.64875039871833
 11
2534.040518335591
 21
954.17769382019582
  0
LINE
  8
_1-4_
  6
CONTINUOUS
 62
    4
 10
2528.1781207386839
 20
963.07871007687879
 11
2524.3428770123855
 21
950.53419309219202
  0
LINE
  8
_1-4_
  6
CONTINUOUS
 62
    4
 10
2512.5925330467352
 20
912.10054976405513
 11
2508.7572893204373
 21
899.55603277936825
  0
LINE
  8
_1-4_
  6
CONTINUOUS
 62
    4
 10
2484.1594599565091
 20
819.10033263082357
 11
2480.3242162302108
 21
806.55581564613669
  0
LINE
  8
_1-4_
  6
CONTINUOUS
 62
    4
 10
2451.7902989416515
 20
774.79087170905927
 11
2447.9550552153532
 21
762.24635472437262
  0
LINE
  8
_1-4_
  6
CONTINUOUS
 62
    4
 10
2421.1885746360221
 20
784.14671381577568
 11
2417.3533309097242
 21
771.60219683108891
  0
LINE
  8
_1-2_
  6
CONTINUOUS
 62
    5
 10
2346.3582660936604
 20
1636.5776690599377
 11
2536.3582660936608
 21
1636.5776690599377
  0
LINE
  8
_1-2_
  6
CONTINUOUS
 62
    4
 10
2518.8582660936608
 20
1616.5776690599377
 11
2518.8582660936608
 21
1571.5776690599377
  0
LINE
  8
_1-2_
  6
CONTINUOUS
 62
    4
 10
2533.8582660936608
 20
1571.5776690599377
 11
2518.8582660936608
 21
1571.5776690599377
  0
LINE
  8
_1-2_
  6
CONTINUOUS
 62
    4
 10
2533.8582660936608
 20
1616.5776690599377
 11
2518.8582660936608
 21
1571.5776690599377
  0
LINE
  8
_1-2_
  6
CONTINUOUS
 62
    4
 10
2533.8582660936608
 20
2526.5776690599382
 11
2533.8582660936608
 21
726.57766905993776
  0
LINE
  8
_1-2_
  6
CONTINUOUS
 62
    5
 10
2536.3582660936608
 20
2526.5776690599382
 11
2536.3582660936608
 21
726.57766905993776
  0
LINE
  8
_1-2_
  6
CONTINUOUS
 62
    5
 10
2346.3582660936604
 20
2526.5776690599382
 11
2536.3582660936608
 21
2526.5776690599382
  0
LINE
  8
_1-2_
  6
CONTINUOUS
 62
    4
 10
2346.3582660936604
 20
2526.5776690599382
 11
2346.3582660936604
 21
726.57766905993776
  0
LINE
  8
_1-4_
  6
CONTINUOUS
 62
    4
 10
2533.6826118024982
 20
2384.0069926274113
 11
2470.82269528711
 21
2178.4014700953589
  0
CIRCLE
  8
_1-4_
  6
CONTINUOUS
 62
    4
 10
2449.6256343905083
 20
2191.1562982538443
 40
2
  0
CIRCLE
  8
_1-4_
  6
CONTINUOUS
 62
    4
 10
2419.0239100848789
 20
2200.5121403605608
 40
2
  0
LINE
  8
_1-4_
  6
CONTINUOUS
 62
    4
 10
2533.6826118024982
 20
2384.0069926274113
 11
2510.837965804475
 21
2390.9913018160686
  0
LINE
  8
_1-4_
  6
CONTINUOUS
 62
    4
 10
2532.5131249836072
 20
2380.1817736035591
 11
2509.6684789855839
 21
2387.1660827922169
  0
CIRCLE
  8
_1-4_
  6
CONTINUOUS
 62
    4
 10
2510.9872243928016
 20
2330.2955470098918
 40
2
  0
CIRCLE
  8
_1-4_
  6
CONTINUOUS
 62
    4
 10
2526.1905530383837
 20
2380.0233943199696
 40
2
  0
CIRCLE
  8
_1-4_
  6
CONTINUOUS
 62
    4
 10
2482.3347403720226
 20
2236.5776690599382
 40
2
  0
LINE
  8
_1-4_
  6
CONTINUOUS
 62
    4
 10
2528.6879059597554
 20
2381.3512604224501
 11
2468.1669630821488
 21
2183.3961759381018
  0
LINE
  8
_1-4_
  6
CONTINUOUS
 62
    4
 10
2402.8323989925615
 20
2211.8023024482995
 11
2499.1600455093739
 21
2386.2618779503991
  0
LINE
  8
_1-4_
  6
CONTINUOUS
 62
    4
 10
2406.3340809824421
 20
2209.8688531778138
 11
2502.6617265429504
 21
2384.3284289722855
  0
ARC
  8
_1-4_
  6
CONTINUOUS
 62
    4
 10
2411.5866031967398
 20
2206.9686784619671
 40
6.0000000000000008
 50
151.09476799999998
 51
253.00000000000002
  0
ARC
  8
_1-4_
  6
CONTINUOUS
 62
    4
 10
2507.9142487572476
 20
2381.4282542564387
 40
10
 50
73
 51
151.09476799999998
  0
ARC
  8
_1-4_
  6
CONTINUOUS
 62
    4
 10
2507.9142487572476
 20
2381.4282542564387
 40
6.0000000000000008
 50
73
 51
151.09476799999998
  0
ARC
  8
_1-4_
  6
CONTINUOUS
 62
    4
 10
2411.5866031967398
 20
2206.9686784619671
 40
10
 50
151.09496500000003
 51
253.00000000000002
  0
LINE
  8
_1-4_
  6
CONTINUOUS
 62
    4
 10
2470.82269528711
 20
2178.4014700953589
 11
2399.0998385898824
 21
2200.3293479495641
  0
LINE
  8
_1-4_
  6
CONTINUOUS
 62
    4
 10
2400.269325408773
 20
2204.1545669734159
 11
2399.0998385898824
 21
2200.3293479495641
  0
LINE
  8
_1-4_
  6
CONTINUOUS
 62
    4
 10
2471.9921821060006
 20
2182.2266891192107
 11
2409.8323729684034
 21
2201.2308499261889
  0
LINE
  8
_1-4_
  6
CONTINUOUS
 62
    4
 10
2402.1819387459181
 20
2203.5698223944837
 11
2400.269325408773
 21
2204.1545669734159
  0
LINE
  8
_1-4_
  6
CONTINUOUS
 62
    4
 10
2414.8087642717055
 20
2201.8007979347994
 11
2425.1744443700549
 21
2198.6317333222186
  0
LINE
  8
_1-4_
  6
CONTINUOUS
 62
    4
 10
2443.5725590356223
 20
2193.0069091070145
 11
2454.894492986572
 21
2189.5454465247603
  0
LINE
  8
_1-4_
  6
CONTINUOUS
 62
    4
 10
2475.5605385519788
 20
2238.6487503987182
 11
2490.1847056692299
 21
2234.177693820196
  0
LINE
  8
_1-4_
  6
CONTINUOUS
 62
    4
 10
2504.2130225727573
 20
2332.3666283486722
 11
2518.8371896900084
 21
2327.8955717701496
  0
LINE
  8
_1-4_
  6
CONTINUOUS
 62
    4
 10
2519.4163512183395
 20
2382.09447565875
 11
2534.040518335591
 21
2377.6234190802274
  0
LINE
  8
_1-4_
  6
CONTINUOUS
 62
    4
 10
2528.1781207386839
 20
2386.5244353369103
 11
2524.3428770123855
 21
2373.9799183522236
  0
LINE
  8
_1-4_
  6
CONTINUOUS
 62
    4
 10
2512.5925330467352
 20
2335.5462750240867
 11
2508.7572893204373
 21
2323.0017580394001
  0
LINE
  8
_1-4_
  6
CONTINUOUS
 62
    4
 10
2484.1594599565091
 20
2242.546057890855
 11
2480.3242162302108
 21
2230.0015409061684
  0
LINE
  8
_1-4_
  6
CONTINUOUS
 62
    4
 10
2451.7902989416515
 20
2198.2365969690908
 11
2447.9550552153532
 21
2185.6920799844042
  0
LINE
  8
_1-4_
  6
CONTINUOUS
 62
    4
 10
2421.1885746360221
 20
2207.5924390758073
 11
2417.3533309097242
 21
2195.0479220911206
  0
LINE
  8
_1-4_
  6
CONTINUOUS
 62
    4
 10
2533.6826118024982
 20
2114.0582676540907
 11
2470.82269528711
 21
1908.452745122038
  0
CIRCLE
  8
_1-4_
  6
CONTINUOUS
 62
    4
 10
2449.6256343905083
 20
1921.2075732805237
 40
2
  0
CIRCLE
  8
_1-4_
  6
CONTINUOUS
 62
    4
 10
2419.0239100848789
 20
1930.5634153872401
 40
2
  0
LINE
  8
_1-4_
  6
CONTINUOUS
 62
    4
 10
2533.6826118024982
 20
2114.0582676540907
 11
2510.837965804475
 21
2121.0425768427485
  0
LINE
  8
_1-4_
  6
CONTINUOUS
 62
    4
 10
2532.5131249836072
 20
2110.2330486302384
 11
2509.6684789855839
 21
2117.2173578188958
  0
CIRCLE
  8
_1-4_
  6
CONTINUOUS
 62
    4
 10
2510.9872243928016
 20
2060.3468220365712
 40
2
  0
CIRCLE
  8
_1-4_
  6
CONTINUOUS
 62
    4
 10
2526.1905530383837
 20
2110.0746693466489
 40
2
  0
CIRCLE
  8
_1-4_
  6
CONTINUOUS
 62
    4
 10
2482.3347403720226
 20
1966.6289440866173
 40
2
  0
LINE
  8
_1-4_
  6
CONTINUOUS
 62
    4
 10
2528.6879059597554
 20
2111.4025354491295
 11
2468.1669630821488
 21
1913.4474509647811
  0
LINE
  8
_1-4_
  6
CONTINUOUS
 62
    4
 10
2402.8323989925615
 20
1941.8535774749786
 11
2499.1600455093739
 21
2116.3131529770785
  0
LINE
  8
_1-4_
  6
CONTINUOUS
 62
    4
 10
2406.3340809824421
 20
1939.9201282044932
 11
2502.6617265429504
 21
2114.3797039989649
  0
ARC
  8
_1-4_
  6
CONTINUOUS
 62
    4
 10
2411.5866031967398
 20
1937.019953488646
 40
6.0000000000000008
 50
151.09476799999998
 51
253.00000000000002
  0
ARC
  8
_1-4_
  6
CONTINUOUS
 62
    4
 10
2507.9142487572476
 20
2111.4795292831176
 40
10
 50
73
 51
151.09476799999998
  0
ARC
  8
_1-4_
  6
CONTINUOUS
 62
    4
 10
2507.9142487572476
 20
2111.4795292831176
 40
6.0000000000000008
 50
73
 51
151.09476799999998
  0
ARC
  8
_1-4_
  6
CONTINUOUS
 62
    4
 10
2411.5866031967398
 20
1937.019953488646
 40
10
 50
151.09496500000003
 51
253.00000000000002
  0
LINE
  8
_1-4_
  6
CONTINUOUS
 62
    4
 10
2470.82269528711
 20
1908.452745122038
 11
2399.0998385898824
 21
1930.3806229762431
  0
LINE
  8
_1-4_
  6
CONTINUOUS
 62
    4
 10
2400.269325408773
 20
1934.2058420000955
 11
2399.0998385898824
 21
1930.3806229762431
  0
LINE
  8
_1-4_
  6
CONTINUOUS
 62
    4
 10
2471.9921821060006
 20
1912.2779641458901
 11
2409.8323729684034
 21
1931.2821249528681
  0
LINE
  8
_1-4_
  6
CONTINUOUS
 62
    4
 10
2402.1819387459181
 20
1933.6210974211633
 11
2400.269325408773
 21
1934.2058420000955
  0
LINE
  8
_1-4_
  6
CONTINUOUS
 62
    4
 10
2414.8087642717055
 20
1931.8520729614788
 11
2425.1744443700549
 21
1928.6830083488982
  0
LINE
  8
_1-4_
  6
CONTINUOUS
 62
    4
 10
2443.5725590356223
 20
1923.0581841336936
 11
2454.894492986572
 21
1919.5967215514397
  0
LINE
  8
_1-4_
  6
CONTINUOUS
 62
    4
 10
2475.5605385519788
 20
1968.700025425398
 11
2490.1847056692299
 21
1964.2289688468754
  0
LINE
  8
_1-4_
  6
CONTINUOUS
 62
    4
 10
2504.2130225727573
 20
2062.4179033753516
 11
2518.8371896900084
 21
2057.946846796829
  0
LINE
  8
_1-4_
  6
CONTINUOUS
 62
    4
 10
2519.4163512183395
 20
2112.1457506854294
 11
2534.040518335591
 21
2107.6746941069068
  0
LINE
  8
_1-4_
  6
CONTINUOUS
 62
    4
 10
2528.1781207386839
 20
2116.5757103635901
 11
2524.3428770123855
 21
2104.031193378903
  0
LINE
  8
_1-4_
  6
CONTINUOUS
 62
    4
 10
2512.5925330467352
 20
2065.5975500507661
 11
2508.7572893204373
 21
2053.0530330660794
  0
LINE
  8
_1-4_
  6
CONTINUOUS
 62
    4
 10
2484.1594599565091
 20
1972.5973329175346
 11
2480.3242162302108
 21
1960.0528159328478
  0
LINE
  8
_1-4_
  6
CONTINUOUS
 62
    4
 10
2451.7902989416515
 20
1928.2878719957705
 11
2447.9550552153532
 21
1915.7433550110836
  0
LINE
  8
_1-4_
  6
CONTINUOUS
 62
    4
 10
2421.1885746360221
 20
1937.6437141024866
 11
2417.3533309097242
 21
1925.0991971177998
  0
LINE
  8
_1-4_
  6
CONTINUOUS
 62
    4
 10
2533.6826118024982
 20
1844.0069926274113
 11
2470.82269528711
 21
1638.4014700953589
  0
CIRCLE
  8
_1-4_
  6
CONTINUOUS
 62
    4
 10
2449.6256343905083
 20
1651.1562982538443
 40
2
  0
CIRCLE
  8
_1-4_
  6
CONTINUOUS
 62
    4
 10
2419.0239100848789
 20
1660.5121403605608
 40
2
  0
LINE
  8
_1-4_
  6
CONTINUOUS
 62
    4
 10
2533.6826118024982
 20
1844.0069926274113
 11
2510.837965804475
 21
1850.9913018160691
  0
LINE
  8
_1-4_
  6
CONTINUOUS
 62
    4
 10
2532.5131249836072
 20
1840.1817736035593
 11
2509.6684789855839
 21
1847.1660827922169
  0
CIRCLE
  8
_1-4_
  6
CONTINUOUS
 62
    4
 10
2510.9872243928016
 20
1790.2955470098916
 40
2
  0
CIRCLE
  8
_1-4_
  6
CONTINUOUS
 62
    4
 10
2526.1905530383837
 20
1840.0233943199696
 40
2
  0
CIRCLE
  8
_1-4_
  6
CONTINUOUS
 62
    4
 10
2482.3347403720226
 20
1696.5776690599382
 40
2
  0
LINE
  8
_1-4_
  6
CONTINUOUS
 62
    4
 10
2528.6879059597554
 20
1841.3512604224501
 11
2468.1669630821488
 21
1643.396175938102
  0
LINE
  8
_1-4_
  6
CONTINUOUS
 62
    4
 10
2402.8323989925615
 20
1671.8023024482995
 11
2499.1600455093739
 21
1846.2618779503991
  0
LINE
  8
_1-4_
  6
CONTINUOUS
 62
    4
 10
2406.3340809824421
 20
1669.8688531778138
 11
2502.6617265429504
 21
1844.3284289722853
  0
ARC
  8
_1-4_
  6
CONTINUOUS
 62
    4
 10
2411.5866031967398
 20
1666.9686784619671
 40
6.0000000000000008
 50
151.09476799999998
 51
253.00000000000002
  0
ARC
  8
_1-4_
  6
CONTINUOUS
 62
    4
 10
2507.9142487572476
 20
1841.4282542564387
 40
10
 50
73
 51
151.09476799999998
  0
ARC
  8
_1-4_
  6
CONTINUOUS
 62
    4
 10
2507.9142487572476
 20
1841.4282542564387
 40
6.0000000000000008
 50
73
 51
151.09476799999998
  0
ARC
  8
_1-4_
  6
CONTINUOUS
 62
    4
 10
2411.5866031967398
 20
1666.9686784619671
 40
10
 50
151.09496500000003
 51
253.00000000000002
  0
LINE
  8
_1-4_
  6
CONTINUOUS
 62
    4
 10
2470.82269528711
 20
1638.4014700953589
 11
2399.0998385898824
 21
1660.3293479495641
  0
LINE
  8
_1-4_
  6
CONTINUOUS
 62
    4
 10
2400.269325408773
 20
1664.1545669734159
 11
2399.0998385898824
 21
1660.3293479495641
  0
LINE
  8
_1-4_
  6
CONTINUOUS
 62
    4
 10
2471.9921821060006
 20
1642.2266891192109
 11
2409.8323729684034
 21
1661.2308499261889
  0
LINE
  8
_1-4_
  6
CONTINUOUS
 62
    4
 10
2402.1819387459181
 20
1663.5698223944837
 11
2400.269325408773
 21
1664.1545669734159
  0
LINE
  8
_1-4_
  6
CONTINUOUS
 62
    4
 10
2414.8087642717055
 20
1661.8007979347994
 11
2425.1744443700549
 21
1658.6317333222189
  0
LINE
  8
_1-4_
  6
CONTINUOUS
 62
    4
 10
2443.5725590356223
 20
1653.0069091070142
 11
2454.894492986572
 21
1649.5454465247603
  0
LINE
  8
_1-4_
  6
CONTINUOUS
 62
    4
 10
2475.5605385519788
 20
1698.6487503987182
 11
2490.1847056692299
 21
1694.177693820196
  0
LINE
  8
_1-4_
  6
CONTINUOUS
 62
    4
 10
2504.2130225727573
 20
1792.3666283486722
 11
2518.8371896900084
 21
1787.8955717701498
  0
LINE
  8
_1-4_
  6
CONTINUOUS
 62
    4
 10
2519.4163512183395
 20
1842.0944756587502
 11
2534.040518335591
 21
1837.6234190802276
  0
LINE
  8
_1-4_
  6
CONTINUOUS
 62
    4
 10
2528.1781207386839
 20
1846.5244353369107
 11
2524.3428770123855
 21
1833.9799183522236
  0
LINE
  8
_1-4_
  6
CONTINUOUS
 62
    4
 10
2512.5925330467352
 20
1795.5462750240869
 11
2508.7572893204373
 21
1783.0017580394001
  0
LINE
  8
_1-4_
  6
CONTINUOUS
 62
    4
 10
2484.1594599565091
 20
1702.5460578908553
 11
2480.3242162302108
 21
1690.0015409061684
  0
LINE
  8
_1-4_
  6
CONTINUOUS
 62
    4
 10
2451.7902989416515
 20
1658.2365969690908
 11
2447.9550552153532
 21
1645.6920799844044
  0
LINE
  8
_1-4_
  6
CONTINUOUS
 62
    4
 10
2421.1885746360221
 20
1667.5924390758075
 11
2417.3533309097242
 21
1655.0479220911206
  0
LINE
  8
_1-9_
  6
CONTINUOUS
 62
    4
 10
814.26267192700061
 20
726.57766905993776
 11
909.26267192700061
 21
726.57766905993776
  0
LINE
  8
_1-9_
  6
CONTINUOUS
 62
    4
 10
854.26267192700061
 20
726.57766905993776
 11
909.26267192700061
 21
726.57766905993776
  0
LINE
  8
_1-9_
  6
CONTINUOUS
 62
    4
 10
849.26267192700061
 20
726.57766905993776
 11
909.26267192700061
 21
726.57766905993776
  0
POINT
  8
_1-9_
 62
    3
 10
764.42006167772888
 20
726.57766905993776
  0
POINT
  8
_1-9_
 62
    3
 10
764.42006167772888
 20
726.57766905993776
  0
POINT
  8
_1-9_
 62
    3
 10
764.4200616777291
 20
2526.5776690599382
  0
LINE
  8
_1-9_
  6
CONTINUOUS
 62
    4
 10
748.35617924698908
 20
726.57766905993776
 11
964.42006167772979
 21
726.57766905993776
  0
LINE
  8
_1-9_
  6
CONTINUOUS
 62
    4
 10
748.35617924698908
 20
2526.5776690599382
 11
964.42006167772979
 21
2526.5776690599382
  0
LINE
  8
_1-9_
  6
CONTINUOUS
 62
    4
 10
2076.3582660936604
 20
726.57766905993776
 11
2076.3582660936604
 21
2526.5776690599382
  0
TEXT
  8
_1-9_
 62
    7
 10
2076.3582660936604
 20
1571.3776690599379
 40
35
 41
0.6285714285714286
 50
90
  1
１，８００
  0
POINT
  8
_1-9_
 62
    3
 10
2076.3582660936604
 20
2526.5776690599382
  0
POINT
  8
_1-9_
 62
    3
 10
2076.3582660936604
 20
726.57766905993776
  0
POINT
  8
_1-9_
 62
    3
 10
2076.3582660936604
 20
726.57766905993776
  0
LINE
  8
_1-9_
  6
CONTINUOUS
 62
    4
 10
2126.3582660936604
 20
726.57766905993776
 11
2276.3582660936608
 21
726.57766905993776
  0
LINE
  8
_1-9_
  6
CONTINUOUS
 62
    4
 10
2063.7639368841219
 20
2526.5776690599382
 11
2276.3582660936608
 21
2526.5776690599382
  0
POINT
  8
_1-9_
 62
    3
 10
2686.3582660936599
 20
726.57766905993776
  0
POINT
  8
_1-9_
 62
    3
 10
2686.3582660936599
 20
1616.5776690599377
  0
POINT
  8
_1-9_
 62
    3
 10
2686.3582660936599
 20
1636.5776690599377
  0
POINT
  8
_1-9_
 62
    3
 10
2686.3582660936599
 20
2526.5776690599382
  0
LINE
  8
_1-9_
  6
CONTINUOUS
 62
    4
 10
2686.3582660936599
 20
2526.5776690599382
 11
2686.3582660936599
 21
2588.4875501004471
  0
LINE
  8
_1-9_
  6
CONTINUOUS
 62
    4
 10
2691.9364499014432
 20
726.57766905993776
 11
2586.3582660936608
 21
726.57766905993776
  0
LINE
  8
_1-9_
  6
CONTINUOUS
 62
    4
 10
2691.9364499014432
 20
1616.5776690599377
 11
2586.3582660936608
 21
1616.5776690599377
  0
LINE
  8
_1-9_
  6
CONTINUOUS
 62
    4
 10
2691.9364499014432
 20
2526.5776690599382
 11
2586.3582660936608
 21
2526.5776690599382
  0
LINE
  8
_1-9_
  6
CONTINUOUS
 62
    4
 10
2691.9364499014432
 20
1636.5776690599377
 11
2586.3582660936608
 21
1636.5776690599377
  0
LINE
  8
_1-2_
  6
CONTINUOUS
 62
    5
 10
1764.4200616777293
 20
2526.5776690599382
 11
1764.4200616777293
 21
726.57766905993776
  0
LINE
  8
_1-2_
  6
CONTINUOUS
 62
    5
 10
1014.4200616777293
 20
2526.5776690599382
 11
1764.4200616777293
 21
2526.5776690599382
  0
LINE
  8
_1-2_
  6
CONTINUOUS
 62
    5
 10
1014.4200616777293
 20
726.57766905993776
 11
1764.4200616777293
 21
726.57766905993776
  0
LINE
  8
_1-2_
  6
DASHED1
 62
    2
 10
1026.4200616777295
 20
2526.5776690599382
 11
1026.4200616777295
 21
726.57766905993776
  0
LINE
  8
_1-2_
  6
DASHED1
 62
    2
 10
1752.4200616777295
 20
2526.5776690599382
 11
1752.4200616777295
 21
726.57766905993776
  0
LINE
  8
_1-2_
  6
DASHED1
 62
    5
 10
1026.4200616777295
 20
2511.5776690599382
 11
1752.4200616777295
 21
2511.5776690599382
  0
LINE
  8
_1-2_
  6
DASHED1
 62
    5
 10
1026.4200616777295
 20
1636.5776690599377
 11
1752.4200616777295
 21
1636.5776690599377
  0
LINE
  8
_1-2_
  6
DASHED1
 62
    5
 10
1026.4200616777295
 20
1616.5776690599377
 11
1752.4200616777295
 21
1616.5776690599377
  0
LINE
  8
_1-2_
  6
DASHED1
 62
    9
 10
1026.4200616777295
 20
1626.5776690599377
 11
1752.4200616777295
 21
1626.5776690599377
  0
LINE
  8
_1-2_
  6
DASHED1
 62
    5
 10
1026.4200616777295
 20
741.57766905993776
 11
1752.4200616777295
 21
741.57766905993776
  0
LINE
  8
_1-2_
  6
CONTINUOUS
 62
    5
 10
2346.3582660936604
 20
2511.5776690599382
 11
2536.3582660936608
 21
2511.5776690599382
  0
LINE
  8
_1-2_
  6
CONTINUOUS
 62
    4
 10
2518.8582660936608
 20
2511.5776690599382
 11
2518.8582660936608
 21
2466.5776690599382
  0
LINE
  8
_1-2_
  6
CONTINUOUS
 62
    4
 10
2533.8582660936608
 20
2466.5776690599382
 11
2518.8582660936608
 21
2466.5776690599382
  0
LINE
  8
_1-2_
  6
CONTINUOUS
 62
    4
 10
2533.8582660936608
 20
2511.5776690599382
 11
2518.8582660936608
 21
2466.5776690599382
  0
LINE
  8
_1-2_
  6
CONTINUOUS
 62
    5
 10
2536.3582660936608
 20
741.57766905993776
 11
2346.3582660936604
 21
741.57766905993776
  0
LINE
  8
_1-2_
  6
CONTINUOUS
 62
    4
 10
2533.8582660936608
 20
786.57766905993776
 11
2518.8582660936608
 21
786.57766905993776
  0
LINE
  8
_1-2_
  6
CONTINUOUS
 62
    4
 10
2518.8582660936608
 20
786.57766905993776
 11
2518.8582660936608
 21
741.57766905993776
  0
LINE
  8
_1-2_
  6
CONTINUOUS
 62
    4
 10
2533.8582660936608
 20
786.57766905993776
 11
2518.8582660936608
 21
741.57766905993776
  0
LINE
  8
_1-3_
  6
CONTINUOUS
 62
    3
 10
1358.9200616777293
 20
1629.5776690599382
 11
1018.9200616777293
 21
1629.5776690599382
  0
LINE
  8
_1-3_
  6
CONTINUOUS
 62
    3
 10
1358.9200616777293
 20
1629.5776690599382
 11
1358.9200616777293
 21
2512.5776690599377
  0
ARC
  8
_1-5_
  6
CONTINUOUS
 62
    4
 10
1388.9200628824391
 20
2512.5776690599373
 40
3.0000000000000004
 50
90
 51
180
  0
LINE
  8
_1-5_
  6
CONTINUOUS
 62
    4
 10
1358.9200628824396
 20
2515.5776690599382
 11
1388.9200628824391
 21
2515.5776690599373
  0
ARC
  8
_1-5_
  6
CONTINUOUS
 62
    4
 10
1388.9200628824391
 20
1632.5543855892385
 40
3.0000000000000004
 50
180
 51
270
  0
LINE
  8
_1-5_
  6
CONTINUOUS
 62
    4
 10
1358.9200616777293
 20
1629.5776690599382
 11
1388.9200628824391
 21
1629.5543855892383
  0
LINE
  8
_1-5_
  6
CONTINUOUS
 62
    4
 10
1388.9200628824391
 20
1629.5543855892383
 11
1388.9200628824391
 21
1629.6290562485512
  0
LINE
  8
_1-5_
  6
CONTINUOUS
 62
    4
 10
1358.9200628824396
 20
2515.5776690599382
 11
1358.9200628824396
 21
1629.5776690599382
  0
LINE
  8
_1-5_
  6
CONTINUOUS
 62
    4
 10
1388.9200628824391
 20
1629.5776690599382
 11
1388.9200628824391
 21
2515.5776690599373
  0
LINE
  8
_1-5_
  6
CONTINUOUS
 62
    4
 10
1364.520062882442
 20
2515.5776690599382
 11
1364.520062882442
 21
1629.5776690599382
  0
LINE
  8
_1-5_
  6
CONTINUOUS
 62
    4
 10
1385.9200628824391
 20
1632.5543855892385
 11
1385.9200628824391
 21
2512.5776690599373
  0
LINE
  8
_1-3_
  6
CONTINUOUS
 62
    3
 10
1018.9200616777293
 20
1629.5776690599382
 11
1018.9200616777293
 21
2515.5776690599382
  0
LINE
  8
_1-3_
  6
CONTINUOUS
 62
    3
 10
1358.9200628824396
 20
2515.5776690599382
 11
1018.9200616777293
 21
2515.5776690599382
  0
LINE
  8
_1-3_
  6
CONTINUOUS
 62
    3
 10
1419.9200640871486
 20
1629.5776690599382
 11
1759.9200640871486
 21
1629.5776690599382
  0
LINE
  8
_1-3_
  6
CONTINUOUS
 62
    3
 10
1419.9200640871486
 20
1629.5776690599382
 11
1419.9200640871486
 21
2512.5776690599377
  0
ARC
  8
_1-5_
  6
CONTINUOUS
 62
    4
 10
1389.9200628824391
 20
2512.5776690599373
 40
3.0000000000000004
 50
0
 51
90
  0
LINE
  8
_1-5_
  6
CONTINUOUS
 62
    4
 10
1419.9200628824385
 20
2515.5776690599382
 11
1389.9200628824391
 21
2515.5776690599373
  0
ARC
  8
_1-5_
  6
CONTINUOUS
 62
    4
 10
1389.9200628824391
 20
1632.5543855892385
 40
3.0000000000000004
 50
270
 51
0
  0
LINE
  8
_1-5_
  6
CONTINUOUS
 62
    4
 10
1419.9200640871486
 20
1629.5776690599382
 11
1389.9200628824391
 21
1629.5543855892383
  0
LINE
  8
_1-5_
  6
CONTINUOUS
 62
    4
 10
1389.9200628824391
 20
1629.5543855892383
 11
1389.9200628824391
 21
1629.6290562485512
  0
LINE
  8
_1-5_
  6
CONTINUOUS
 62
    4
 10
1419.9200628824385
 20
2515.5776690599382
 11
1419.9200628824385
 21
1629.5776690599382
  0
LINE
  8
_1-5_
  6
CONTINUOUS
 62
    4
 10
1389.9200628824391
 20
1629.5776690599382
 11
1389.9200628824391
 21
2515.5776690599373
  0
LINE
  8
_1-5_
  6
CONTINUOUS
 62
    4
 10
1414.3200628824363
 20
2515.5776690599382
 11
1414.3200628824363
 21
1629.5776690599382
  0
LINE
  8
_1-5_
  6
CONTINUOUS
 62
    4
 10
1392.9200628824391
 20
1632.5543855892385
 11
1392.9200628824391
 21
2512.5776690599373
  0
LINE
  8
_1-3_
  6
CONTINUOUS
 62
    3
 10
1419.9200628824385
 20
2515.5776690599382
 11
1759.9200640871486
 21
2515.5776690599382
  0
LINE
  8
_1-3_
  6
CONTINUOUS
 62
    3
 10
1759.9200640871486
 20
1629.5776690599382
 11
1759.9200640871486
 21
2515.5776690599382
  0
LINE
  8
_1-3_
  6
CONTINUOUS
 62
    3
 10
1358.9200616777293
 20
737.57766905993798
 11
1018.9200616777293
 21
737.57766905993798
  0
LINE
  8
_1-3_
  6
CONTINUOUS
 62
    3
 10
1358.9200616777293
 20
737.57766905993798
 11
1358.9200616777293
 21
1620.5776690599377
  0
ARC
  8
_1-5_
  6
CONTINUOUS
 62
    4
 10
1388.9200628824391
 20
1620.5776690599373
 40
3.0000000000000004
 50
90
 51
180
  0
LINE
  8
_1-5_
  6
CONTINUOUS
 62
    4
 10
1358.9200628824396
 20
1623.5776690599379
 11
1388.9200628824391
 21
1623.5776690599373
  0
ARC
  8
_1-5_
  6
CONTINUOUS
 62
    4
 10
1388.9200628824391
 20
740.55438558923833
 40
3.0000000000000004
 50
180
 51
270
  0
LINE
  8
_1-5_
  6
CONTINUOUS
 62
    4
 10
1358.9200616777293
 20
737.57766905993798
 11
1388.9200628824391
 21
737.55438558923856
  0
LINE
  8
_1-5_
  6
CONTINUOUS
 62
    4
 10
1388.9200628824391
 20
737.55438558923856
 11
1388.9200628824391
 21
737.62905624855136
  0
LINE
  8
_1-5_
  6
CONTINUOUS
 62
    4
 10
1358.9200628824396
 20
1623.5776690599379
 11
1358.9200628824396
 21
737.57766905993798
  0
LINE
  8
_1-5_
  6
CONTINUOUS
 62
    4
 10
1388.9200628824391
 20
737.57766905993798
 11
1388.9200628824391
 21
1623.5776690599373
  0
LINE
  8
_1-5_
  6
CONTINUOUS
 62
    4
 10
1364.520062882442
 20
1623.5776690599379
 11
1364.520062882442
 21
737.57766905993798
  0
LINE
  8
_1-5_
  6
CONTINUOUS
 62
    4
 10
1385.9200628824391
 20
740.55438558923833
 11
1385.9200628824391
 21
1620.5776690599373
  0
LINE
  8
_1-3_
  6
CONTINUOUS
 62
    3
 10
1018.9200616777293
 20
737.57766905993798
 11
1018.9200616777293
 21
1623.5776690599379
  0
LINE
  8
_1-3_
  6
CONTINUOUS
 62
    3
 10
1358.9200628824396
 20
1623.5776690599379
 11
1018.9200616777293
 21
1623.5776690599379
  0
LINE
  8
_1-3_
  6
CONTINUOUS
 62
    3
 10
1419.9200640871486
 20
737.57766905993798
 11
1759.9200640871486
 21
737.57766905993798
  0
LINE
  8
_1-3_
  6
CONTINUOUS
 62
    3
 10
1419.9200640871486
 20
737.57766905993798
 11
1419.9200640871486
 21
1620.5776690599377
  0
ARC
  8
_1-5_
  6
CONTINUOUS
 62
    4
 10
1389.9200628824391
 20
1620.5776690599373
 40
3.0000000000000004
 50
0
 51
90
  0
LINE
  8
_1-5_
  6
CONTINUOUS
 62
    4
 10
1419.9200628824385
 20
1623.5776690599379
 11
1389.9200628824391
 21
1623.5776690599373
  0
ARC
  8
_1-5_
  6
CONTINUOUS
 62
    4
 10
1389.9200628824391
 20
740.55438558923833
 40
3.0000000000000004
 50
270
 51
0
  0
LINE
  8
_1-5_
  6
CONTINUOUS
 62
    4
 10
1419.9200640871486
 20
737.57766905993798
 11
1389.9200628824391
 21
737.55438558923856
  0
LINE
  8
_1-5_
  6
CONTINUOUS
 62
    4
 10
1389.9200628824391
 20
737.55438558923856
 11
1389.9200628824391
 21
737.62905624855136
  0
LINE
  8
_1-5_
  6
CONTINUOUS
 62
    4
 10
1419.9200628824385
 20
1623.5776690599379
 11
1419.9200628824385
 21
737.57766905993798
  0
LINE
  8
_1-5_
  6
CONTINUOUS
 62
    4
 10
1389.9200628824391
 20
737.57766905993798
 11
1389.9200628824391
 21
1623.5776690599373
  0
LINE
  8
_1-5_
  6
CONTINUOUS
 62
    4
 10
1414.3200628824363
 20
1623.5776690599379
 11
1414.3200628824363
 21
737.57766905993798
  0
LINE
  8
_1-5_
  6
CONTINUOUS
 62
    4
 10
1392.9200628824391
 20
740.55438558923833
 11
1392.9200628824391
 21
1620.5776690599373
  0
LINE
  8
_1-3_
  6
CONTINUOUS
 62
    3
 10
1419.9200628824385
 20
1623.5776690599379
 11
1759.9200640871486
 21
1623.5776690599379
  0
LINE
  8
_1-3_
  6
CONTINUOUS
 62
    3
 10
1759.9200640871486
 20
737.57766905993798
 11
1759.9200640871486
 21
1623.5776690599379
  0
POINT
  8
_1-9_
 62
    3
 10
2686.3582660936599
 20
726.57766905993776
  0
POINT
  8
_1-9_
 62
    3
 10
2686.3582660936599
 20
741.57766905993776
  0
LINE
  8
_1-9_
  6
CONTINUOUS
 62
    4
 10
2696.3582660936599
 20
726.57766905993776
 11
2586.3582660936608
 21
726.57766905993776
  0
LINE
  8
_1-9_
  6
CONTINUOUS
 62
    4
 10
2696.3582660936599
 20
741.57766905993776
 11
2586.3582660936608
 21
741.57766905993776
  0
POINT
  8
_1-9_
 62
    3
 10
2686.3582660936599
 20
1616.5776690599377
  0
LINE
  8
_1-9_
  6
CONTINUOUS
 62
    4
 10
2696.3582660936599
 20
1616.5776690599377
 11
2586.3582660936608
 21
1616.5776690599377
  0
LINE
  8
_1-9_
  6
CONTINUOUS
 62
    4
 10
2686.3582660936599
 20
741.57766905993776
 11
2686.3582660936599
 21
1616.5776690599377
  0
TEXT
  8
_1-9_
 62
    7
 10
2686.3582660936599
 20
1145.9776690599378
 40
35
 41
0.6285714285714286
 50
90
  1
８７５
  0
POINT
  8
_1-9_
 62
    3
 10
2686.3582660936599
 20
1636.5776690599377
  0
POINT
  8
_1-9_
 62
    3
 10
2686.3582660936599
 20
2511.5776690599382
  0
LINE
  8
_1-9_
  6
CONTINUOUS
 62
    4
 10
2696.3582660936599
 20
1636.5776690599377
 11
2586.3582660936608
 21
1636.5776690599377
  0
LINE
  8
_1-9_
  6
CONTINUOUS
 62
    4
 10
2696.3582660936599
 20
2511.5776690599382
 11
2586.3582660936608
 21
2511.5776690599382
  0
LINE
  8
_1-9_
  6
CONTINUOUS
 62
    4
 10
2686.3582660936599
 20
1636.5776690599377
 11
2686.3582660936599
 21
2511.5776690599382
  0
TEXT
  8
_1-9_
 62
    7
 10
2686.3582660936599
 20
2040.977669059938
 40
35
 41
0.6285714285714286
 50
90
  1
８７５
  0
POINT
  8
_1-9_
 62
    3
 10
2686.3582660936599
 20
2526.5776690599382
  0
LINE
  8
_1-9_
  6
CONTINUOUS
 62
    4
 10
2696.3582660936599
 20
2526.5776690599382
 11
2586.3582660936608
 21
2526.5776690599382
  0
LINE
  8
_1-9_
  6
CONTINUOUS
 62
    4
 10
2686.3582660936599
 20
2511.5776690599382
 11
2686.3582660936599
 21
2526.5776690599382
  0
TEXT
  8
_1-9_
 62
    7
 10
2686.3582660936599
 20
2535.7010612705762
 40
35
 41
0.6285714285714286
 50
90
  1
１５
  0
LINE
  8
_1-9_
  6
CONTINUOUS
 62
    4
 10
2686.3582660936599
 20
726.57766905993776
 11
2686.3582660936599
 21
741.57766905993776
  0
TEXT
  8
_1-9_
 62
    7
 10
2686.3582660936599
 20
671.22965976695024
 40
35
 41
0.6285714285714286
 50
90
  1
１５
  0
LINE
  8
_1-9_
  6
CONTINUOUS
 62
    4
 10
2686.3582660936599
 20
726.57766905993776
 11
2686.3582660936599
 21
672.11342740547718
  0
LINE
  8
_1-9_
  6
CONTINUOUS
 62
    4
 10
2063.7639368841219
 20
726.57766905993776
 11
2264.2706131078221
 21
726.57766905993776
  0
LINE
  8
_1-9_
  6
CONTINUOUS
 62
    4
 10
2264.2706131078221
 20
726.57766905993776
 11
2276.3582660936608
 21
726.57766905993776
  0
LINE
  8
_1-3_
  6
CONTINUOUS
 62
    3
 10
2342.3582660936604
 20
2515.5776690599382
 11
2330.3582660936604
 21
2515.5776690599382
  0
LINE
  8
_1-3_
  6
CONTINUOUS
 62
    3
 10
2330.3582660936604
 20
1629.5776690599382
 11
2330.3582660936604
 21
2515.5776690599382
  0
LINE
  8
_1-3_
  6
CONTINUOUS
 62
    3
 10
2342.3582660936604
 20
1629.5776690599382
 11
2342.3582660936604
 21
2515.5776690599382
  0
LINE
  8
_1-3_
  6
CONTINUOUS
 62
    3
 10
2330.3582660936604
 20
1629.5776690599382
 11
2342.3582660936604
 21
1629.5776690599382
  0
LINE
  8
_1-3_
  6
CONTINUOUS
 62
    3
 10
2330.3582660936604
 20
1623.5776690599379
 11
2342.3582660936604
 21
1623.5776690599379
  0
LINE
  8
_1-3_
  6
CONTINUOUS
 62
    3
 10
2330.3582660936604
 20
1623.5776690599379
 11
2330.3582660936604
 21
737.57766905993798
  0
LINE
  8
_1-3_
  6
CONTINUOUS
 62
    3
 10
2342.3582660936604
 20
1623.5776690599379
 11
2342.3582660936604
 21
737.57766905993798
  0
LINE
  8
_1-3_
  6
CONTINUOUS
 62
    3
 10
2330.3582660936604
 20
737.57766905993798
 11
2342.3582660936604
 21
737.57766905993798
  0
POINT
  8
_1-9_
 62
    3
 10
2176.3582660936604
 20
2515.5776690599382
  0
POINT
  8
_1-9_
 62
    3
 10
2176.3582660936604
 20
1629.5776690599382
  0
LINE
  8
_1-9_
  6
CONTINUOUS
 62
    4
 10
2166.3582660936604
 20
2515.5776690599382
 11
2276.3582660936608
 21
2515.5776690599382
  0
LINE
  8
_1-9_
  6
CONTINUOUS
 62
    4
 10
2166.3582660936604
 20
1629.5776690599382
 11
2276.3582660936608
 21
1629.5776690599382
  0
LINE
  8
_1-9_
  6
CONTINUOUS
 62
    4
 10
2176.3582660936604
 20
2515.5776690599382
 11
2176.3582660936604
 21
1629.5776690599382
  0
TEXT
  8
_1-9_
 62
    7
 10
2176.3582660936604
 20
2039.477669059938
 40
35
 41
0.6285714285714286
 50
90
  1
８８６
  0
POINT
  8
_1-9_
 62
    3
 10
2176.3582660936604
 20
1623.5776690599379
  0
POINT
  8
_1-9_
 62
    3
 10
2176.3582660936604
 20
737.57766905993798
  0
LINE
  8
_1-9_
  6
CONTINUOUS
 62
    4
 10
2166.3582660936604
 20
1623.5776690599379
 11
2276.3582660936608
 21
1623.5776690599379
  0
LINE
  8
_1-9_
  6
CONTINUOUS
 62
    4
 10
2166.3582660936604
 20
737.57766905993798
 11
2276.3582660936608
 21
737.57766905993798
  0
LINE
  8
_1-9_
  6
CONTINUOUS
 62
    4
 10
2176.3582660936604
 20
1623.5776690599379
 11
2176.3582660936604
 21
737.57766905993798
  0
TEXT
  8
_1-9_
 62
    7
 10
2176.3582660936604
 20
1147.477669059938
 40
35
 41
0.6285714285714286
 50
90
  1
８８６
  0
POINT
  8
_1-9_
 62
    3
 10
864.42006167772888
 20
726.57766905993776
  0
POINT
  8
_1-9_
 62
    3
 10
864.4200616777291
 20
1626.5776690599377
  0
LINE
  8
_1-9_
  6
CONTINUOUS
 62
    4
 10
854.42006167772888
 20
726.57766905993776
 11
964.42006167772979
 21
726.57766905993776
  0
LINE
  8
_1-9_
  6
CONTINUOUS
 62
    4
 10
854.4200616777291
 20
1626.5776690599377
 11
964.42006167772979
 21
1626.5776690599377
  0
LINE
  8
_1-9_
  6
CONTINUOUS
 62
    4
 10
864.42006167772888
 20
726.57766905993776
 11
864.4200616777291
 21
1626.5776690599377
  0
TEXT
  8
_1-9_
 62
    7
 10
864.4200616777291
 20
1143.4776690599378
 40
35
 41
0.6285714285714286
 50
90
  1
９００
  0
POINT
  8
_1-9_
 62
    3
 10
864.4200616777291
 20
2526.5776690599382
  0
LINE
  8
_1-9_
  6
CONTINUOUS
 62
    4
 10
854.4200616777291
 20
2526.5776690599382
 11
964.42006167772979
 21
2526.5776690599382
  0
LINE
  8
_1-9_
  6
CONTINUOUS
 62
    4
 10
864.4200616777291
 20
1626.5776690599377
 11
864.4200616777291
 21
2526.5776690599382
  0
TEXT
  8
_1-9_
 62
    7
 10
864.4200616777291
 20
2043.477669059938
 40
35
 41
0.6285714285714286
 50
90
  1
９００
  0
LINE
  8
_1-3_
  6
CENTER2
 62
    4
 10
1388.9200628824391
 20
2515.5776690599373
 11
1018.9200616777293
 21
2072.5776690599382
  0
LINE
  8
_1-3_
  6
CENTER2
 62
    4
 10
1018.9200616777293
 20
2072.5776690599382
 11
1388.9177345368652
 21
1629.554387396304
  0
LINE
  8
_1-3_
  6
CENTER2
 62
    4
 10
1389.9200628824391
 20
1629.6290562485512
 11
1759.9200640871486
 21
2072.5776690599382
  0
LINE
  8
_1-3_
  6
CENTER2
 62
    4
 10
1759.9200640871486
 20
2072.5776690599382
 11
1389.9200628824391
 21
2515.5776690599373
  0
LINE
  8
_1-3_
  6
CENTER2
 62
    4
 10
1388.9200628824391
 20
1623.5776690599373
 11
1018.9200616777293
 21
1180.5776690599382
  0
LINE
  8
_1-3_
  6
CENTER2
 62
    4
 10
1018.9200616777293
 20
1180.5776690599382
 11
1388.9200628824391
 21
737.62905624855136
  0
LINE
  8
_1-3_
  6
CENTER2
 62
    4
 10
1389.9200628824391
 20
737.62905624855136
 11
1759.9200640871486
 21
1180.5776690599382
  0
LINE
  8
_1-3_
  6
CENTER2
 62
    4
 10
1759.9200640871486
 20
1180.5776690599382
 11
1389.9200628824391
 21
1623.5776690599373
  0
LINE
  8
_1-9_
  6
CONTINUOUS
 62
    4
 10
764.42006167772888
 20
726.57766905993776
 11
764.4200616777291
 21
2526.5776690599382
  0
TEXT
  8
_1-9_
 62
    7
 10
764.42006167772888
 20
1571.3776690599379
 40
35
 41
0.6285714285714286
 50
90
  1
１，８００
  0
TEXT
  8
_1-d_
 62
    7
 10
3109.9020215905748
 20
2626.2754053738954
 40
35
 41
0.8571428571428569
 50
0
  1
扉
  0
TEXT
  8
_1-d_
 62
    7
 10
3061.9020215905729
 20
2556.2754053738954
 40
35
 41
0.8571428571428569
 50
0
  1
側　　板
  0
TEXT
  8
_1-d_
 62
    7
 10
3061.9020215905729
 20
2416.2754053738954
 40
35
 41
0.8571428571428569
 50
0
  1
背　　板
  0
TEXT
  8
_1-d_
 62
    7
 10
3439.0223739308748
 20
2768.7754053738954
 40
35
 41
0.8571428571428569
 50
0
  1
仕　　　様
  0
TEXT
  8
_1-d_
 62
    7
 10
3058.4020215905738
 20
2486.2754053738954
 40
35
 41
0.7142857142857143
 50
0
  1
地　　　板
  0
LINE
  8
_1-d_
  6
CONTINUOUS
 62
    3
 10
4096.7327439098571
 20
2818.7754053738954
 11
2994.9020215905748
 21
2818.7754053738954
  0
LINE
  8
_1-d_
  6
CONTINUOUS
 62
    7
 10
4096.7327439098571
 20
2748.7754053738954
 11
2994.9020215905748
 21
2748.7754053738954
  0
LINE
  8
_1-d_
  6
CONTINUOUS
 62
    7
 10
4096.7327439098571
 20
2753.7754053738954
 11
2994.9020215905748
 21
2753.7754053738954
  0
LINE
  8
_1-d_
  6
CONTINUOUS
 62
    7
 10
4096.7327439098571
 20
2608.7754053738954
 11
2994.9020215905748
 21
2608.7754053738954
  0
LINE
  8
_1-d_
  6
CONTINUOUS
 62
    7
 10
2994.9020215905748
 20
2678.7754053738954
 11
4096.7327439098571
 21
2678.7754053738954
  0
LINE
  8
_1-d_
  6
CONTINUOUS
 62
    7
 10
2994.9020215905748
 20
2538.7754053738954
 11
4096.7327439098571
 21
2538.7754053738954
  0
LINE
  8
_1-d_
  6
CONTINUOUS
 62
    7
 10
4096.7327439098571
 20
2258.7754053738954
 11
2994.9020215905748
 21
2258.7754053738954
  0
LINE
  8
_1-d_
  6
CONTINUOUS
 62
    7
 10
4096.7327439098571
 20
2328.7754053738954
 11
2994.9020215905748
 21
2328.7754053738954
  0
LINE
  8
_1-d_
  6
CONTINUOUS
 62
    7
 10
4096.7327439098571
 20
2398.7754053738954
 11
2994.9020215905748
 21
2398.7754053738954
  0
LINE
  8
_1-d_
  6
CONTINUOUS
 62
    7
 10
4096.7327439098571
 20
2258.7754053738954
 11
2994.9020215905748
 21
2258.7754053738954
  0
LINE
  8
_1-d_
  6
CONTINUOUS
 62
    7
 10
4096.7327439098571
 20
2188.7754053738954
 11
2994.9020215905748
 21
2188.7754053738954
  0
LINE
  8
_1-d_
  6
CONTINUOUS
 62
    7
 10
4096.7327439098571
 20
2468.7754053738954
 11
2994.9020215905748
 21
2468.7754053738954
  0
TEXT
  8
_1-d_
 62
    7
 10
3061.9020215905748
 20
2696.2754053738954
 40
35
 41
0.8571428571428569
 50
0
  1
天　　板
  0
TEXT
  8
_1-d_
 62
    7
 10
3061.9020215905738
 20
2276.2754053738954
 40
35
 41
0.8571428571428569
 50
0
  1
棚　　板
  0
TEXT
  8
_1-d_
 62
    7
 10
3061.9020215905738
 20
2206.2754053738954
 40
35
 41
0.8571428571428569
 50
0
  1
丁　　番
  0
TEXT
  8
_1-d_
 62
    7
 10
3061.9020215905761
 20
2136.2754053738954
 40
35
 41
0.8571428571428569
 50
0
  1
把　　手
  0
LINE
  8
_1-d_
  6
CONTINUOUS
 62
    3
 10
4096.7327439098571
 20
2118.7754053738954
 11
2994.9020215905748
 21
2118.7754053738954
  0
LINE
  8
_1-d_
  6
CONTINUOUS
 62
    3
 10
2994.9020215905748
 20
2818.7754053738954
 11
2994.9020215905748
 21
2118.7754053738954
  0
LINE
  8
_1-d_
  6
CONTINUOUS
 62
    3
 10
4096.7327439098571
 20
2818.7754053738954
 11
4096.7327439098571
 21
2118.7754053738954
  0
LINE
  8
_1-d_
  6
CONTINUOUS
 62
    7
 10
3254.9020215905748
 20
2748.7754053738954
 11
3254.9020215905748
 21
2118.7754053738954
  0
TEXT
  8
_1-d_
 62
    7
 10
3061.9020215905748
 20
2346.2754053738954
 40
35
 41
0.8571428571428569
 50
0
  1
中仕切板
  0
TEXT
  8
_1-d_
 62
    7
 10
3279.9020215905766
 20
2276.2754053738954
 40
35
 41
0.8571428571428569
 50
0
  1
コーティング網棚　６段
  0
TEXT
  8
_1-d_
 62
    7
 10
3279.9020215905748
 20
2626.2754053738954
 40
35
 41
0.8571428571428569
 50
0
  1
両面化粧パーティクルボード　１２ｔ
  0
TEXT
  8
_1-d_
 62
    7
 10
3279.9020215905757
 20
2416.2754053738954
 40
35
 41
0.8571428571428569
 50
0
  1
カラーＭＤＦ　２．５ｔ
  0
TEXT
  8
_1-d_
 62
    7
 10
3279.9020215905743
 20
2346.2754053738954
 40
35
 41
0.8571428571428569
 50
0
  1
両面フラッシュ２０ｔ
  0
TEXT
  8
_1-d_
 62
    7
 10
3279.9020215905748
 20
2136.2754053738954
 40
35
 41
0.8571428571428569
 50
0
  1
アルミ一文字把手
  0
TEXT
  8
_1-d_
 62
    7
 10
3279.9020215905743
 20
2696.2754053738954
 40
35
 41
0.8571428571428569
 50
0
  1
片面化粧パーティクルボード　１５ｔ
  0
TEXT
  8
_1-d_
 62
    7
 10
3279.9020215905748
 20
2556.2754053738954
 40
35
 41
0.8571428571428569
 50
0
  1
メラミン両面化粧パーティクルボード　１２ｔ
  0
TEXT
  8
_1-d_
 62
    7
 10
3279.9020215905743
 20
2486.2754053738954
 40
35
 41
0.8571428571428569
 50
0
  1
片面化粧パーティクルボード　１５ｔ
  0
TEXT
  8
_1-d_
 62
    7
 10
3279.9020215905738
 20
2206.2754053738954
 40
35
 41
0.8571428571428569
 50
0
  1
ワンタッチスライド式丁番
  0
LINE
  8
_1-8_
  6
CONTINUOUS
 62
    4
 10
1264.4200616777293
 20
357
 11
1514.4200616777293
 21
357
  0
LINE
  8
_1-8_
  6
CONTINUOUS
 62
    4
 10
1514.4200616777293
 20
427
 11
1264.4200616777293
 21
427
  0
LINE
  8
_1-8_
  6
CONTINUOUS
 62
    4
 10
1264.4200616777293
 20
427
 11
1264.4200616777293
 21
357
  0
LINE
  8
_1-8_
  6
CONTINUOUS
 62
    4
 10
1514.4200616777293
 20
357
 11
1514.4200616777293
 21
427
  0
TEXT
  8
_1-8_
 62
    7
 10
1342.4200616777288
 20
374.5
 40
35
 41
0.8571428571428569
 50
0
  1
立面図
  0
LINE
  8
_1-8_
  6
CONTINUOUS
 62
    4
 10
2308.3582660936608
 20
427
 11
2308.3582660936608
 21
357
  0
LINE
  8
_1-8_
  6
CONTINUOUS
 62
    4
 10
2558.3582660936604
 20
427
 11
2308.3582660936608
 21
427
  0
LINE
  8
_1-8_
  6
CONTINUOUS
 62
    4
 10
2558.3582660936604
 20
357
 11
2558.3582660936604
 21
427
  0
LINE
  8
_1-8_
  6
CONTINUOUS
 62
    4
 10
2308.3582660936608
 20
357
 11
2558.3582660936604
 21
357
  0
TEXT
  8
_1-8_
 62
    7
 10
2386.3582660936626
 20
374.5
 40
35
 41
0.8571428571428569
 50
0
  1
断面図
  0
POINT
  8
_1-9_
 62
    3
 10
1759.9200640871486
 20
616.57766905993776
  0
POINT
  8
_1-9_
 62
    3
 10
1389.9200628824391
 20
616.57766905993776
  0
LINE
  8
_1-9_
  6
CONTINUOUS
 62
    4
 10
1759.9200640871486
 20
606.57766905993776
 11
1759.9200640871486
 21
696.57766905993776
  0
LINE
  8
_1-9_
  6
CONTINUOUS
 62
    4
 10
1389.9200628824391
 20
606.57766905993776
 11
1389.9200628824391
 21
696.57766905993776
  0
LINE
  8
_1-9_
  6
CONTINUOUS
 62
    4
 10
1759.9200640871486
 20
616.57766905993776
 11
1389.9200628824391
 21
616.57766905993776
  0
TEXT
  8
_1-9_
 62
    7
 10
1541.8200634847939
 20
621.57766905993776
 40
35
 41
0.6285714285714286
 50
0
  1
３７０
  0
POINT
  8
_1-9_
 62
    3
 10
1388.9177345368652
 20
616.57766905993776
  0
POINT
  8
_1-9_
 62
    3
 10
1018.9200616777293
 20
616.57766905993776
  0
LINE
  8
_1-9_
  6
CONTINUOUS
 62
    4
 10
1388.9177345368652
 20
606.57766905993776
 11
1388.9177345368652
 21
696.57766905993776
  0
LINE
  8
_1-9_
  6
CONTINUOUS
 62
    4
 10
1018.9200616777293
 20
606.57766905993776
 11
1018.9200616777293
 21
696.57766905993776
  0
LINE
  8
_1-9_
  6
CONTINUOUS
 62
    4
 10
1388.9177345368652
 20
616.57766905993776
 11
1018.9200616777293
 21
616.57766905993776
  0
TEXT
  8
_1-9_
 62
    7
 10
1170.8188981072974
 20
621.57766905993776
 40
35
 41
0.6285714285714286
 50
0
  1
３７０
  0
POINT
  8
_1-9_
 62
    3
 10
1764.4200616777293
 20
546.57766905993776
  0
POINT
  8
_1-9_
 62
    3
 10
1014.4200616777293
 20
546.57766905993776
  0
LINE
  8
_1-9_
  6
CONTINUOUS
 62
    4
 10
1764.4200616777293
 20
536.57766905993776
 11
1764.4200616777293
 21
696.57766905993776
  0
LINE
  8
_1-9_
  6
CONTINUOUS
 62
    4
 10
1014.4200616777293
 20
536.57766905993776
 11
1014.4200616777293
 21
696.57766905993776
  0
LINE
  8
_1-9_
  6
CONTINUOUS
 62
    4
 10
1764.4200616777293
 20
546.57766905993776
 11
1014.4200616777293
 21
546.57766905993776
  0
TEXT
  8
_1-9_
 62
    7
 10
1356.3200616777294
 20
551.57766905993776
 40
35
 41
0.6285714285714286
 50
0
  1
７５０
  0
POINT
  8
_1-9_
 62
    3
 10
2536.3582660936608
 20
616.57766905993776
  0
POINT
  8
_1-9_
 62
    3
 10
2346.3582660936608
 20
616.57766905993776
  0
LINE
  8
_1-9_
  6
CONTINUOUS
 62
    4
 10
2536.3582660936608
 20
606.57766905993776
 11
2536.3582660936608
 21
696.57766905993776
  0
LINE
  8
_1-9_
  6
CONTINUOUS
 62
    4
 10
2346.3582660936608
 20
606.57766905993776
 11
2346.3582660936608
 21
696.57766905993776
  0
LINE
  8
_1-9_
  6
CONTINUOUS
 62
    4
 10
2536.3582660936608
 20
616.57766905993776
 11
2346.3582660936608
 21
616.57766905993776
  0
TEXT
  8
_1-9_
 62
    7
 10
2408.2582660936604
 20
621.57766905993776
 40
35
 41
0.6285714285714286
 50
0
  1
１９０
  0
POINT
  8
_1-9_
 62
    3
 10
2536.3582660936608
 20
546.57766905993776
  0
POINT
  8
_1-9_
 62
    3
 10
2330.3582660936604
 20
546.57766905993776
  0
LINE
  8
_1-9_
  6
CONTINUOUS
 62
    4
 10
2536.3582660936608
 20
536.57766905993776
 11
2536.3582660936608
 21
696.57766905993776
  0
LINE
  8
_1-9_
  6
CONTINUOUS
 62
    4
 10
2330.3582660936604
 20
536.57766905993776
 11
2330.3582660936604
 21
696.57766905993776
  0
LINE
  8
_1-9_
  6
CONTINUOUS
 62
    4
 10
2536.3582660936608
 20
546.57766905993776
 11
2330.3582660936604
 21
546.57766905993776
  0
TEXT
  8
_1-9_
 62
    7
 10
2400.2582660936604
 20
551.57766905993776
 40
35
 41
0.6285714285714286
 50
0
  1
２０６
  0
TEXT
  8
_f-8_
 62
    7
 10
1632.3829787234039
 20
138.48623471249595
 40
45
 41
0.8
 50
0
  1
ＳＨＯ－７５ＴＴ
  0
TEXT
  8
_f-8_
 62
    7
 10
3043
 20
142.5
 40
35
 41
0.5714285714285712
 50
0
  1
２０２３．０５．０１
  0
TEXT
  8
_f-8_
 62
    7
 10
3582.2369920752339
 20
145
 40
30
 41
0.733333333333333
 50
0
  1
Ｔ．Ｋ
  0
TEXT
  8
_1-d_
 62
    7
 10
3842.3538041230176
 20
2053.7754053738954
 40
35
 41
0.8571428571428569
 50
0
  1
扉　色
  0
TEXT
  8
_1-d_
 62
    7
 10
3697.4449639287536
 20
1986.2754053738956
 40
35
 41
0.8571428571428569
 50
0
  1
ＳＷ
  0
TEXT
  8
_1-d_
 62
    7
 10
3811.9748643361776
 20
1986.2754053738956
 40
35
 41
0.8571428571428569
 50
0
  1
ホワイト
  0
TEXT
  8
_1-d_
 62
    7
 10
3702.4364193384412
 20
1926.864732189676
 40
35
 41
0.8571428571428569
 50
0
  1
ＬＧ
  0
TEXT
  8
_1-d_
 62
    7
 10
3812.0738582412127
 20
1926.864732189676
 40
35
 41
0.8571428571428569
 50
0
  1
木　　目
  0
TEXT
  8
_1-d_
 62
    7
 10
3697.4449639287536
 20
1861.2754053738956
 40
35
 41
0.8571428571428569
 50
0
  1
ＵＷ
  0
TEXT
  8
_1-d_
 62
    7
 10
3811.9748643361772
 20
1861.2754053738956
 40
35
 41
0.8571428571428569
 50
0
  1
ｳﾙﾄﾗﾎﾜｲﾄ（艶有）
  0
TEXT
  8
_1-d_
 62
    7
 10
3702.4364193384412
 20
1801.864732189676
 40
35
 41
0.8571428571428569
 50
0
  1
ＷＮ
  0
TEXT
  8
_1-d_
 62
    7
 10
3811.9748643361776
 20
1801.2754053738956
 40
35
 41
0.8571428571428569
 50
0
  1
ｳｨﾝｻﾞｰﾅｯﾄ（艶有）
  0
LINE
  8
_1-d_
  6
CONTINUOUS
 62
    3
 10
4096.7327439098571
 20
2103.7754053738954
 11
4096.7327439098571
 21
1608.7754053738949
  0
LINE
  8
_1-d_
  6
CONTINUOUS
 62
    7
 10
3781.9748643361776
 20
2033.7754053738956
 11
3781.9748643361776
 21
1913.7754053738956
  0
TEXT
  8
_1-d_
 62
    7
 10
3702.4364193384412
 20
1741.864732189676
 40
35
 41
0.8571428571428569
 50
0
  1
ＢＳ
  0
TEXT
  8
_1-d_
 62
    7
 10
3812.0738582412127
 20
1741.864732189676
 40
35
 41
0.8571428571428569
 50
0
  1
ブラックストーン
  0
LINE
  8
_1-d_
  6
CONTINUOUS
 62
    3
 10
3681.9748643361776
 20
2103.7754053738954
 11
3681.9748643361776
 21
1608.7754053738949
  0
LINE
  8
_1-d_
  6
CONTINUOUS
 62
    7
 10
3781.9748643361776
 20
1908.7754053738956
 11
3781.9748643361776
 21
1608.7754053738949
  0
TEXT
  8
_1-d_
 62
    7
 10
3702.4364193384412
 20
1681.8647321896753
 40
35
 41
0.8571428571428569
 50
0
  1
ＰＭ
  0
TEXT
  8
_1-d_
 62
    7
 10
3812.0738582412141
 20
1681.8647321896753
 40
35
 41
0.8571428571428569
 50
0
  1
ペールグレイン
  0
TEXT
  8
_1-d_
 62
    7
 10
3702.4364193384412
 20
1621.8647321896753
 40
35
 41
0.8571428571428569
 50
0
  1
ＭＤ
  0
TEXT
  8
_1-d_
 62
    7
 10
3812.0738582412141
 20
1621.8647321896753
 40
35
 41
0.8571428571428569
 50
0
  1
ダークグレイン
  0
LINE
  8
_1-d_
  6
CONTINUOUS
 62
    3
 10
4096.7327439098571
 20
2103.7754053738954
 11
3681.9748643361776
 21
2103.7754053738954
  0
LINE
  8
_1-d_
  6
CONTINUOUS
 62
    3
 10
4096.7327439098571
 20
1608.7754053738949
 11
3681.9748643361776
 21
1608.7754053738949
  0
LINE
  8
_1-d_
  6
CONTINUOUS
 62
    7
 10
3681.9748643361776
 20
1973.7754053738956
 11
4096.7327439098571
 21
1973.7754053738956
  0
LINE
  8
_1-d_
  6
CONTINUOUS
 62
    7
 10
4096.7327439098571
 20
1973.7754053738956
 11
3681.9748643361776
 21
1973.7754053738956
  0
LINE
  8
_1-d_
  6
CONTINUOUS
 62
    3
 10
4096.7327439098571
 20
1973.7754053738956
 11
3681.9748643361776
 21
1973.7754053738956
  0
LINE
  8
_1-d_
  6
CONTINUOUS
 62
    3
 10
4096.7327439098571
 20
1913.7754053738956
 11
3681.9748643361776
 21
1913.7754053738956
  0
LINE
  8
_1-d_
  6
CONTINUOUS
 62
    7
 10
4096.7327439098571
 20
1848.7754053738956
 11
3681.9748643361776
 21
1848.7754053738956
  0
LINE
  8
_1-d_
  6
CONTINUOUS
 62
    3
 10
4096.7327439098571
 20
1848.7754053738956
 11
3681.9748643361776
 21
1848.7754053738956
  0
LINE
  8
_1-d_
  6
CONTINUOUS
 62
    3
 10
4096.7327439098571
 20
1788.7754053738956
 11
3681.9748643361776
 21
1788.7754053738956
  0
LINE
  8
_1-d_
  6
CONTINUOUS
 62
    7
 10
3681.9748643361776
 20
1848.7754053738956
 11
4096.7327439098571
 21
1848.7754053738956
  0
LINE
  8
_1-d_
  6
CONTINUOUS
 62
    7
 10
4096.7327439098571
 20
1913.7754053738956
 11
3681.9748643361776
 21
1913.7754053738956
  0
LINE
  8
_1-d_
  6
CONTINUOUS
 62
    7
 10
4096.7327439098571
 20
1908.7754053738956
 11
3681.9748643361776
 21
1908.7754053738956
  0
LINE
  8
_1-d_
  6
CONTINUOUS
 62
    7
 10
4096.7327439098571
 20
1788.7754053738956
 11
3681.9748643361776
 21
1788.7754053738956
  0
LINE
  8
_1-d_
  6
CONTINUOUS
 62
    3
 10
4096.7327439098571
 20
1788.7754053738956
 11
3681.9748643361776
 21
1788.7754053738956
  0
LINE
  8
_1-d_
  6
CONTINUOUS
 62
    3
 10
4096.7327439098571
 20
1728.7754053738949
 11
3681.9748643361776
 21
1728.7754053738949
  0
LINE
  8
_1-d_
  6
CONTINUOUS
 62
    7
 10
3681.9748643361776
 20
1788.7754053738956
 11
4096.7327439098571
 21
1788.7754053738956
  0
LINE
  8
_1-d_
  6
CONTINUOUS
 62
    7
 10
4096.7327439098571
 20
1728.7754053738949
 11
3681.9748643361776
 21
1728.7754053738949
  0
LINE
  8
_1-d_
  6
CONTINUOUS
 62
    3
 10
4096.7327439098571
 20
1728.7754053738949
 11
3681.9748643361776
 21
1728.7754053738949
  0
LINE
  8
_1-d_
  6
CONTINUOUS
 62
    3
 10
4096.7327439098571
 20
1668.7754053738949
 11
3681.9748643361776
 21
1668.7754053738949
  0
LINE
  8
_1-d_
  6
CONTINUOUS
 62
    7
 10
3681.9748643361776
 20
1728.7754053738949
 11
4096.7327439098571
 21
1728.7754053738949
  0
LINE
  8
_1-d_
  6
CONTINUOUS
 62
    7
 10
4096.7327439098571
 20
1668.7754053738949
 11
3681.9748643361776
 21
1668.7754053738949
  0
LINE
  8
_1-d_
  6
CONTINUOUS
 62
    3
 10
4096.7327439098571
 20
1668.7754053738949
 11
3681.9748643361776
 21
1668.7754053738949
  0
LINE
  8
_1-d_
  6
CONTINUOUS
 62
    7
 10
3681.9748643361776
 20
1668.7754053738949
 11
4096.7327439098571
 21
1668.7754053738949
  0
LINE
  8
_1-d_
  6
CONTINUOUS
 62
    7
 10
4096.7327439098571
 20
2033.7754053738956
 11
3681.9748643361776
 21
2033.7754053738956
  0
LINE
  8
_1-d_
  6
CONTINUOUS
 62
    7
 10
4096.7327439098571
 20
2038.7754053738956
 11
3681.9748643361776
 21
2038.7754053738956
  0
LINE
  8
_e-0_
  6
CONTINUOUS
 62
    7
 10
2243.7859302690862
 20
199.51965480360598
 11
2272.9339284698526
 21
210.12865853712995
  0
LINE
  8
_e-0_
  6
CONTINUOUS
 62
    7
 10
2237.6336615052869
 20
191.95952323799758
 11
2287.5529504706664
 21
210.12865853712895
  0
LINE
  8
_e-0_
  6
CONTINUOUS
 62
    7
 10
2234.2067375789874
 20
185.39133607135255
 11
2263.8643430051365
 21
196.18582166608263
  0
LINE
  8
_e-0_
  6
CONTINUOUS
 62
    7
 10
2232.2119570371696
 20
179.34440646785787
 11
2253.9586582709303
 21
187.25955841042662
  0
LINE
  8
_e-0_
  6
CONTINUOUS
 62
    7
 10
2231.2024514117433
 20
173.65608760649877
 11
2249.4574587956462
 21
180.3003669205492
  0
LINE
  8
_e-0_
  6
CONTINUOUS
 62
    7
 10
2230.9649088875535
 20
168.248740335938
 11
2249.3748102388385
 21
174.94939644358311
  0
LINE
  8
_e-0_
  6
CONTINUOUS
 62
    7
 10
2231.3837497438626
 20
163.08029707814966
 11
2249.8286640768283
 21
169.79369686893903
  0
LINE
  8
_e-0_
  6
CONTINUOUS
 62
    7
 10
2232.3950068941753
 20
158.12747571767488
 11
2251.269568818267
 21
164.99725444285843
  0
LINE
  8
_e-0_
  6
CONTINUOUS
 62
    7
 10
2233.9675550564961
 20
153.37894757832998
 11
2253.6625167678698
 21
160.54732740628253
  0
LINE
  8
_e-0_
  6
CONTINUOUS
 62
    7
 10
2236.0955302019183
 20
148.83257832814223
 11
2257.099910488102
 21
156.47754754152117
  0
LINE
  8
_e-0_
  6
CONTINUOUS
 62
    7
 10
2238.7970089264299
 20
144.49494730998821
 11
2261.880116002736
 21
152.89651120014326
  0
LINE
  8
_e-0_
  6
CONTINUOUS
 62
    7
 10
2242.1181877425701
 20
140.38286867935909
 11
2268.9468388985251
 21
150.14769912563821
  0
LINE
  8
_e-0_
  6
CONTINUOUS
 62
    7
 10
2246.1455691824353
 20
136.52782678312661
 11
2284.5651405528205
 21
150.51140717521263
  0
LINE
  8
_e-0_
  6
CONTINUOUS
 62
    7
 10
2251.0351047702797
 20
132.98658333410969
 11
2279.1844822576495
 21
143.2321188526356
  0
LINE
  8
_e-0_
  6
CONTINUOUS
 62
    7
 10
2279.5849322183671
 20
201.90764820482513
 11
2302.1719724714803
 21
210.12865853713066
  0
LINE
  8
_e-0_
  6
CONTINUOUS
 62
    7
 10
2260.5624543087296
 20
189.663143601351
 11
2313.0511299164636
 21
208.76745915862059
  0
LINE
  8
_e-0_
  6
CONTINUOUS
 62
    7
 10
2273.0696188494734
 20
188.89449034687174
 11
2313.0511299164636
 21
203.44657029624102
  0
LINE
  8
_e-0_
  6
CONTINUOUS
 62
    7
 10
2287.6886408502887
 20
188.89449034687174
 11
2313.0511299164636
 21
198.12568143386158
  0
LINE
  8
_e-0_
  6
CONTINUOUS
 62
    7
 10
2291.8751463425487
 20
185.09736486926669
 11
2313.0511299164636
 21
192.80479257148215
  0
LINE
  8
_e-0_
  6
CONTINUOUS
 62
    7
 10
2291.8751463425487
 20
179.77647600688726
 11
2313.0511299164636
 21
187.48390370910215
  0
LINE
  8
_e-0_
  6
CONTINUOUS
 62
    7
 10
2291.8751463425487
 20
174.45558714450783
 11
2313.0511299164636
 21
182.16301484672271
  0
LINE
  8
_e-0_
  6
CONTINUOUS
 62
    7
 10
2291.8751463425487
 20
169.13469828212839
 11
2313.0511299164636
 21
176.84212598434328
  0
LINE
  8
_e-0_
  6
CONTINUOUS
 62
    7
 10
2291.8008475696451
 20
163.78676687796939
 11
2313.0511299164636
 21
171.52123712196384
  0
LINE
  8
_e-0_
  6
CONTINUOUS
 62
    7
 10
2290.6539909363364
 20
158.04845633809463
 11
2313.0511299164636
 21
166.20034825958413
  0
LINE
  8
_e-0_
  6
CONTINUOUS
 62
    7
 10
2288.3949962857823
 20
151.90536066354695
 11
2313.0511299164636
 21
160.87945939720469
  0
LINE
  8
_e-0_
  6
CONTINUOUS
 62
    7
 10
2284.4003861827632
 20
145.13055262616916
 11
2311.8608666367176
 21
155.12535013005759
  0
LINE
  8
_e-0_
  6
CONTINUOUS
 62
    7
 10
2275.7463468865153
 20
136.65985105378524
 11
2309.0387712913652
 21
148.77730256370853
  0
LINE
  8
_e-0_
  6
CONTINUOUS
 62
    7
 10
2266.9791201478205
 20
128.14795262145821
 11
2304.1703780821812
 21
141.68446348448242
  0
LINE
  8
_e-0_
  6
CONTINUOUS
 62
    7
 10
2282.1376414569663
 20
128.34431431109749
 11
2292.7244583873175
 21
132.19760054937069
  0
LINE
  8
_e-0_
  6
CONTINUOUS
 62
    3
 10
2266.4464672734898
 20
197.56612819678281
 11
2262.3244734593249
 21
194.75680664380121
  0
LINE
  8
_e-0_
  6
CONTINUOUS
 62
    3
 10
2282.3868421919432
 20
128.14795262145651
 11
2266.9204010401704
 21
128.14795262145651
  0
ARC
  8
_e-0_
  6
CONTINUOUS
 62
    3
 10
2282.3868421919432
 20
133.14795262145651
 40
5
 50
270
 51
286.20399351045659
  0
LINE
  8
_e-0_
  6
CONTINUOUS
 62
    3
 10
2313.2288608412613
 20
210.12865853712895
 11
2313.2288608412613
 21
159.77346730566921
  0
ARC
  8
_e-0_
  6
CONTINUOUS
 62
    3
 10
2271.9221657766447
 20
169.15823653484835
 40
42.5
 50
286.20399351045648
 51
345.50707147989851
  0
ARC
  8
_e-0_
  6
CONTINUOUS
 62
    3
 10
2308.2288608412613
 20
159.77346730566921
 40
5
 50
345.50707147989879
 51
0.0000000000000159
  0
ARC
  8
_e-0_
  6
CONTINUOUS
 62
    3
 10
2250.0927387377205
 20
170.4956084628958
 40
40
 50
279.71265316664215
 51
332.69093929010892
  0
ARC
  8
_e-0_
  6
CONTINUOUS
 62
    3
 10
2255.9974857549714
 20
135.99729020443191
 40
5
 50
241.9452628118
 51
279.71265316664221
  0
ARC
  8
_e-0_
  6
CONTINUOUS
 62
    3
 10
2263.2643122966178
 20
205.12865853712895
 40
5
 50
90
 51
106.05338143786268
  0
LINE
  8
_e-0_
  6
CONTINUOUS
 62
    3
 10
2288.4334989152221
 20
210.12865853712881
 11
2278.2181989551913
 21
205.24067691222057
  0
LINE
  8
_e-0_
  6
CONTINUOUS
 62
    3
 10
2278.2181989551913
 20
205.24067691222057
 11
2272.2994583375816
 21
201.4444897898403
  0
LINE
  8
_e-0_
  6
CONTINUOUS
 62
    3
 10
2266.4464672734898
 20
197.56612819678252
 11
2272.2994583375816
 21
201.4444897898403
  0
ARC
  8
_e-0_
  6
CONTINUOUS
 62
    3
 10
2263.2643122966178
 20
205.12865853712895
 40
5
 50
90
 51
106.05338143786268
  0
ARC
  8
_e-0_
  6
CONTINUOUS
 62
    3
 10
2263.2643122966178
 20
205.12865853712895
 40
5
 50
90
 51
106.05338143786268
  0
LINE
  8
_e-0_
  6
CONTINUOUS
 62
    3
 10
2288.4334989152221
 20
210.12865853712895
 11
2263.2643122966178
 21
210.12865853712895
  0
ARC
  8
_e-0_
  6
CONTINUOUS
 62
    3
 10
2273.6342932765642
 20
169.09099082020304
 40
42.5
 50
106.05338143786271
 51
241.94526281180051
  0
ARC
  8
_e-0_
  6
CONTINUOUS
 62
    3
 10
2263.2643122966178
 20
205.12865853712895
 40
5
 50
90
 51
106.05338143786268
  0
LINE
  8
_e-0_
  6
CONTINUOUS
 62
    3
 10
2299.1719829458552
 20
210.12865853712895
 11
2313.2288608412613
 21
210.12865853712895
  0
ARC
  8
_e-0_
  6
CONTINUOUS
 62
    3
 10
2299.1719829458552
 20
205.12865853712895
 40
5
 50
90
 51
112.84552721528326
  0
LINE
  8
_e-0_
  6
CONTINUOUS
 62
    3
 10
2292.0528772673465
 20
188.89449034687004
 11
2269.0173546029673
 21
188.89449034687004
  0
ARC
  8
_e-0_
  6
CONTINUOUS
 62
    3
 10
2269.0173546029673
 20
183.89449034687004
 40
5
 50
90
 51
110.93110431809542
  0
ARC
  8
_e-0_
  6
CONTINUOUS
 62
    3
 10
2254.2292662802574
 20
177.70386452217394
 40
0.5
 50
165.368776721252
 51
224.67319701305797
  0
LINE
  8
_e-0_
  6
CONTINUOUS
 62
    3
 10
2253.8737020580624
 20
177.3523334653737
 11
2253.6837582739271
 21
177.54445650133447
  0
ARC
  8
_e-0_
  6
CONTINUOUS
 62
    3
 10
2276.1622566207875
 20
165.2142768803236
 40
25
 50
110.93110431809527
 51
150.17701829297226
  0
ARC
  8
_e-0_
  6
CONTINUOUS
 62
    3
 10
2254.0393224961217
 20
177.89598755813472
 40
0.5
 50
224.67319701305652
 51
330.17701829297561
  0
LINE
  8
_e-0_
  6
CONTINUOUS
 62
    3
 10
2297.2307430642558
 20
209.73643324104926
 11
2283.5233941157548
 21
203.96157353985984
  0
LINE
  8
_e-0_
  6
CONTINUOUS
 62
    3
 10
2283.5233941157548
 20
203.96157353985984
 11
2277.114528385443
 21
200.4613679180602
  0
ARC
  8
_e-0_
  6
CONTINUOUS
 62
    3
 10
2277.9347719955744
 20
171.51524603489747
 40
25
 50
126.05682261028302
 51
165.36877672125814
  0
ARC
  8
_e-0_
  6
CONTINUOUS
 62
    3
 10
2322.0287923520791
 20
111.11536133502738
 40
100
 50
116.68868989749238
 51
126.03335467187628
  0
LINE
  8
_e-0_
  6
CONTINUOUS
 62
    3
 10
2262.3244734593245
 20
194.75680664380149
 11
2254.3560414411385
 21
187.50185893935451
  0
LINE
  8
_e-0_
  6
CONTINUOUS
 62
    3
 10
2254.3560414411385
 20
187.50185893935451
 11
2252.5108960046536
 21
185.36863764275494
  0
ARC
  8
_e-0_
  6
CONTINUOUS
 62
    3
 10
2274.5493829743445
 20
174.5520307550089
 40
25
 50
169.07329675873063
 51
296.32138326661799
  0
LINE
  8
_e-0_
  6
CONTINUOUS
 62
    3
 10
2252.5108960046541
 20
185.36863764275494
 11
2250.002621066113
 21
179.29085759512361
  0
LINE
  8
_e-0_
  6
CONTINUOUS
 62
    3
 10
2292.0528772673465
 20
188.89449034687004
 11
2292.0528772673465
 21
164.42425885831653
  0
ARC
  8
_e-0_
  6
CONTINUOUS
 62
    3
 10
2277.2840925230507
 20
144.13090983307199
 40
5
 50
311.4163090429962
 51
326.13300916724881
  0
ARC
  8
_e-0_
  6
CONTINUOUS
 62
    3
 10
2252.285941088533
 20
168.73596234419835
 40
40
 50
316.78132524618342
 51
353.81191653224226
  0
ARC
  8
_e-0_
  6
CONTINUOUS
 62
    3
 10
2240.9001979970053
 20
185.376663785662
 40
60
 50
294.69555798319504
 51
311.41630904299643
  0
ARC
  8
_e-0_
  6
CONTINUOUS
 62
    3
 10
2271.9268153318698
 20
202.98067150791609
 40
75
 50
264.68313230529076
 51
266.17253517307824
  0
ARC
  8
_e-0_
  6
CONTINUOUS
 62
    3
 10
2265.0233680716155
 20
128.80121063143832
 40
0.5
 50
174.02086603460466
 51
264.68313230528985
  0
ARC
  8
_e-0_
  6
CONTINUOUS
 62
    3
 10
2267.0124878650103
 20
128.59287809071872
 40
2.5
 50
114.69555798319522
 51
174.02086603461154
  0
LINE
  8
_e-0_
  6
CONTINUOUS
 62
    7
 10
2376.8899919095943
 20
169.43032024062034
 11
2388.2618909747961
 21
173.56935300743344
  0
LINE
  8
_e-0_
  6
CONTINUOUS
 62
    3
 10
2436.2585234464268
 20
162.63312492519389
 11
2436.2585234464268
 21
136.49018622829544
  0
CIRCLE
  8
_e-0_
  6
CONTINUOUS
 62
    3
 10
2365.5167430510387
 20
162.46293449130519
 40
13.33773795583065
  0
CIRCLE
  8
_e-0_
  6
CONTINUOUS
 62
    3
 10
2365.2330256036634
 20
162.17921704393006
 40
25.691707563897665
  0
LINE
  8
_e-0_
  6
CONTINUOUS
 62
    3
 10
2399.4939617252575
 20
188.26250382114977
 11
2399.4939617252575
 21
136.49018622829544
  0
LINE
  8
_e-0_
  6
CONTINUOUS
 62
    3
 10
2399.4939617252575
 20
136.49018622829544
 11
2414.856930753669
 21
136.49018622829544
  0
LINE
  8
_e-0_
  6
CONTINUOUS
 62
    3
 10
2414.856930753669
 20
136.49018622829544
 11
2414.856930753669
 21
172.63312492519389
  0
LINE
  8
_e-0_
  6
CONTINUOUS
 62
    3
 10
2451.1774760289304
 20
136.49018622829544
 11
2436.2585234464268
 21
136.49018622829544
  0
LINE
  8
_e-0_
  6
CONTINUOUS
 62
    3
 10
2426.2585234464268
 20
172.63312492519389
 11
2414.856930753669
 21
172.63312492519389
  0
ARC
  8
_e-0_
  6
CONTINUOUS
 62
    3
 10
2426.2585234464268
 20
162.63312492519389
 40
10
 50
0
 51
90
  0
LINE
  8
_e-0_
  6
CONTINUOUS
 62
    3
 10
2426.1774760289299
 20
188.26250382114977
 11
2399.4939617252575
 21
188.26250382114977
  0
LINE
  8
_e-0_
  6
CONTINUOUS
 62
    3
 10
2451.1774760289304
 20
163.26250382114977
 11
2451.1774760289304
 21
136.49018622829544
  0
ARC
  8
_e-0_
  6
CONTINUOUS
 62
    3
 10
2426.1774760289299
 20
163.26250382114977
 40
25
 50
0
 51
90
  0
ARC
  8
_e-0_
  6
CONTINUOUS
 62
    3
 10
2486.2452606175233
 20
162.17653762406428
 40
13.33773795583065
 50
23.422555400004949
 51
97.191484740792631
  0
LINE
  8
_e-0_
  6
CONTINUOUS
 62
    3
 10
2474.0065761310629
 20
167.47841048365671
 11
2498.4839451039833
 21
167.47841048365671
  0
ARC
  8
_e-0_
  6
CONTINUOUS
 62
    3
 10
2486.2452606175233
 20
162.17653762406428
 40
13.33773795583065
 50
92.530763017635237
 51
156.57744459999506
  0
ARC
  8
_e-0_
  6
CONTINUOUS
 62
    3
 10
2486.2452606175233
 20
162.17653762406428
 40
13.33773795583065
 50
204.21097500392608
 51
316.0067678116265
  0
LINE
  8
_e-0_
  6
CONTINUOUS
 62
    3
 10
2474.0806890359867
 20
156.70676139316753
 11
2511.5200753562385
 21
156.70676139316753
  0
LINE
  8
_e-0_
  6
CONTINUOUS
 62
    3
 10
2495.8407207162626
 20
152.91249966689292
 11
2508.7092412098891
 21
149.78943472664496
  0
ARC
  8
_e-0_
  6
CONTINUOUS
 62
    3
 10
2486.5655867677851
 20
162.8171899245882
 40
25.691707563897665
 50
346.24110979921471
 51
329.53046432565093
  0
ARC
  8
_e-0_
  6
CONTINUOUS
 62
    3
 10
2546.5135590423406
 20
162.14309845353909
 40
11.089756641867943
 50
94.502189492040685
 51
357.22978420280037
  0
LINE
  8
_e-0_
  6
CONTINUOUS
 62
    3
 10
2556.5903561511468
 20
173.19863581905565
 11
2545.6430442891501
 21
173.19863581905565
  0
LINE
  8
_e-0_
  6
CONTINUOUS
 62
    3
 10
2557.5903561511468
 20
172.19863581905599
 11
2557.5903561511468
 21
161.60712439988742
  0
ARC
  8
_e-0_
  6
CONTINUOUS
 62
    3
 10
2556.5903561511468
 20
172.19863581905599
 40
1
 50
0
 51
90
  0
LINE
  8
_e-0_
  6
CONTINUOUS
 62
    3
 10
2548.9703457355517
 20
188.29058742736094
 11
2557.3930775458175
 21
188.29058742736094
  0
ARC
  8
_e-0_
  6
CONTINUOUS
 62
    3
 10
2546.9662856612039
 20
162.67716163604518
 40
25.691707563897665
 50
85.526146014136969
 51
347.40557840019874
  0
LINE
  8
_e-0_
  6
CONTINUOUS
 62
    3
 10
2557.3930775458175
 20
209.12865853712901
 11
2557.3930775458175
 21
188.29058742736094
  0
ARC
  8
_e-0_
  6
CONTINUOUS
 62
    3
 10
2558.3930775458175
 20
209.12865853712901
 40
1
 50
90
 51
180
  0
LINE
  8
_e-0_
  6
CONTINUOUS
 62
    3
 10
2572.0397992563612
 20
209.12865853712901
 11
2572.0397992563612
 21
157.07513043814088
  0
LINE
  8
_e-0_
  6
CONTINUOUS
 62
    3
 10
2571.0397992563616
 20
210.12865853712895
 11
2558.3930775458175
 21
210.12865853712895
  0
ARC
  8
_e-0_
  6
CONTINUOUS
 62
    3
 10
2571.0397992563616
 20
209.12865853712901
 40
1
 50
0
 51
90
  0
CIRCLE
  8
_e-0_
  6
CONTINUOUS
 62
    3
 10
2607.4932845795829
 20
162.61858771142584
 40
13.33773795583065
  0
CIRCLE
  8
_e-0_
  6
CONTINUOUS
 62
    3
 10
2607.2095671322085
 20
162.334870264051
 40
25.691707563897665
  0
ARC
  8
_e-0_
  6
CONTINUOUS
 62
    3
 10
2361.3056445788688
 20
183.56108960512415
 40
5
 50
90
 51
106.05338143786268
  0
ARC
  8
_e-0_
  6
CONTINUOUS
 62
    3
 10
2361.3056445788688
 20
183.56108960512415
 40
5
 50
90
 51
106.05338143786268
  0
ARC
  8
_e-0_
  6
CONTINUOUS
 62
    3
 10
2361.3056445788688
 20
183.56108960512415
 40
5
 50
90
 51
106.05338143786268
  0
ARC
  8
_e-0_
  6
CONTINUOUS
 62
    3
 10
2361.3056445788688
 20
183.56108960512415
 40
5
 50
90
 51
106.05338143786268
  0
LINE
  8
_e-0_
  6
CONTINUOUS
 62
    7
 10
2346.3470804331013
 20
179.59716504486777
 11
2368.5044577934554
 21
187.66179087344028
  0
LINE
  8
_e-0_
  6
CONTINUOUS
 62
    7
 10
2361.2415063076145
 20
179.69740385729494
 11
2376.5205845613304
 21
185.25853354867166
  0
LINE
  8
_e-0_
  6
CONTINUOUS
 62
    7
 10
2341.7511550984831
 20
172.60349616177705
 11
2361.2415063076145
 21
179.69740385729494
  0
LINE
  8
_e-0_
  6
CONTINUOUS
 62
    7
 10
2339.9278406436087
 20
166.61897511011602
 11
2357.2356669233163
 21
172.91850869577984
  0
LINE
  8
_e-0_
  6
CONTINUOUS
 62
    7
 10
2339.5613566552269
 20
161.16469698463049
 11
2352.6357267551816
 21
165.92337853279389
  0
LINE
  8
_e-0_
  6
CONTINUOUS
 62
    7
 10
2340.2704529847874
 20
156.10189807943811
 11
2352.3257797311662
 21
160.489678179473
  0
LINE
  8
_e-0_
  6
CONTINUOUS
 62
    7
 10
2341.9204823498939
 20
151.38157079162255
 11
2353.9794571535694
 21
155.77067867592631
  0
LINE
  8
_e-0_
  6
CONTINUOUS
 62
    7
 10
2344.504128974107
 20
147.00105239631881
 11
2357.564943671171
 21
151.75480018131679
  0
LINE
  8
_e-0_
  6
CONTINUOUS
 62
    7
 10
2348.1361647674011
 20
143.00211645248765
 11
2364.9879954656798
 21
149.13568121955449
  0
LINE
  8
_e-0_
  6
CONTINUOUS
 62
    7
 10
2353.1501292054063
 20
139.50616140121155
 11
2375.2534753949121
 21
147.55112149187283
  0
LINE
  8
_e-0_
  6
CONTINUOUS
 62
    7
 10
2360.6217579801264
 20
136.90472301431668
 11
2375.3071030149835
 21
142.24975148693374
  0
LINE
  8
_e-0_
  6
CONTINUOUS
 62
    7
 10
2375.3071030149835
 20
142.24975148693374
 11
2385.0115931457403
 21
145.78189703325932
  0
LINE
  8
_e-0_
  6
CONTINUOUS
 62
    7
 10
2374.4001538198344
 20
147.24053783828736
 11
2389.063020487204
 21
152.57738485422379
  0
LINE
  8
_e-0_
  6
CONTINUOUS
 62
    7
 10
2374.4883804748506
 20
152.59353857696169
 11
2390.6567834919524
 21
158.47835601080646
  0
LINE
  8
_e-0_
  6
CONTINUOUS
 62
    7
 10
2378.4912308361026
 20
159.37134582305873
 11
2390.8686178519897
 21
163.87634627483464
  0
LINE
  8
_e-0_
  6
CONTINUOUS
 62
    7
 10
2378.6565159204478
 20
164.75239353630797
 11
2390.0320630429459
 21
168.89275408738967
  0
LINE
  8
_e-0_
  6
CONTINUOUS
 62
    7
 10
2365.1397018509305
 20
175.7953421400316
 11
2381.7641004494612
 21
181.84612839247364
  0
LINE
  8
_e-0_
  6
CONTINUOUS
 62
    7
 10
2373.159843452322
 20
173.39354609515908
 11
2385.5507858710998
 21
177.90348031010012
  0
LINE
  8
_e-0_
  6
CONTINUOUS
 62
    7
 10
2399.4939617252575
 20
182.97838129215278
 11
2414.0119690553087
 21
188.26250382114977
  0
LINE
  8
_e-0_
  6
CONTINUOUS
 62
    7
 10
2399.4939617252575
 20
177.65749242977335
 11
2428.3670442872125
 21
188.16643505383524
  0
LINE
  8
_e-0_
  6
CONTINUOUS
 62
    7
 10
2399.4939617252575
 20
172.33660356739392
 11
2436.7743097980664
 21
185.90554058897964
  0
LINE
  8
_e-0_
  6
CONTINUOUS
 62
    7
 10
2399.4939617252575
 20
167.01571470501448
 11
2442.1110032081055
 21
182.52704927725858
  0
LINE
  8
_e-0_
  6
CONTINUOUS
 62
    7
 10
2399.4939617252575
 20
161.69482584263505
 11
2414.856930753669
 21
167.28648927893004
  0
LINE
  8
_e-0_
  6
CONTINUOUS
 62
    7
 10
2428.7090082786239
 20
172.32823318076128
 11
2445.9244086202584
 21
178.5941264760919
  0
LINE
  8
_e-0_
  6
CONTINUOUS
 62
    7
 10
2399.4939617252575
 20
156.37393698025562
 11
2414.856930753669
 21
161.96560041655061
  0
LINE
  8
_e-0_
  6
CONTINUOUS
 62
    7
 10
2403.3398935234458
 20
136.49018622829544
 11
2414.856930753669
 21
140.68204496703231
  0
LINE
  8
_e-0_
  6
CONTINUOUS
 62
    7
 10
2399.4939617252575
 20
140.41127039311675
 11
2414.856930753669
 21
146.00293382941202
  0
LINE
  8
_e-0_
  6
CONTINUOUS
 62
    7
 10
2399.4939617252575
 20
145.73215925549646
 11
2414.856930753669
 21
151.32382269179146
  0
LINE
  8
_e-0_
  6
CONTINUOUS
 62
    7
 10
2399.4939617252575
 20
151.0530481178759
 11
2414.856930753669
 21
156.64471155417118
  0
LINE
  8
_e-0_
  6
CONTINUOUS
 62
    7
 10
2436.2585234464268
 20
159.113365397844
 11
2451.1774760289304
 21
164.5434200643038
  0
LINE
  8
_e-0_
  6
CONTINUOUS
 62
    7
 10
2436.2585234464268
 20
153.79247653546485
 11
2451.1774760289304
 21
159.22253120192465
  0
LINE
  8
_e-0_
  6
CONTINUOUS
 62
    7
 10
2436.105047565391
 20
164.37839360784892
 11
2450.3687179376247
 21
169.56994505472636
  0
LINE
  8
_e-0_
  6
CONTINUOUS
 62
    7
 10
2436.2585234464268
 20
148.47158767308542
 11
2451.1774760289304
 21
153.90164233954521
  0
LINE
  8
_e-0_
  6
CONTINUOUS
 62
    7
 10
2436.2585234464268
 20
143.1506988107057
 11
2451.1774760289304
 21
148.5807534771655
  0
LINE
  8
_e-0_
  6
CONTINUOUS
 62
    7
 10
2436.2585234464268
 20
137.82980994832598
 11
2451.1774760289304
 21
143.25986461478606
  0
LINE
  8
_e-0_
  6
CONTINUOUS
 62
    7
 10
2447.1969595258929
 20
136.49018622829544
 11
2451.1774760289304
 21
137.93897575240634
  0
LINE
  8
_e-0_
  6
CONTINUOUS
 62
    7
 10
2434.0189024056153
 20
168.93998772771169
 11
2448.6296862431445
 21
174.25787814386978
  0
LINE
  8
_e-0_
  6
CONTINUOUS
 62
    7
 10
2469.1883842563338
 20
181.74063227593791
 11
2487.7135419125711
 21
188.48323824789645
  0
LINE
  8
_e-0_
  6
CONTINUOUS
 62
    7
 10
2463.6316388937825
 20
174.39725350219305
 11
2496.6904887083792
 21
186.42969081378254
  0
LINE
  8
_e-0_
  6
CONTINUOUS
 62
    7
 10
2461.4628990865917
 20
168.28700790412767
 11
2502.2794299488264
 21
183.14301020398858
  0
LINE
  8
_e-0_
  6
CONTINUOUS
 62
    7
 10
2461.4992419870632
 20
162.97934677574687
 11
2473.9894671720021
 21
167.52541696234658
  0
LINE
  8
_e-0_
  6
CONTINUOUS
 62
    7
 10
2492.1508316310541
 20
174.13561303910114
 11
2506.2885679576884
 21
179.28132824190015
  0
LINE
  8
_e-0_
  6
CONTINUOUS
 62
    7
 10
2496.6927278595248
 20
170.46783921101109
 11
2509.1784918759253
 21
175.01228566505261
  0
LINE
  8
_e-0_
  6
CONTINUOUS
 62
    7
 10
2463.2093427036916
 20
158.28088367181749
 11
2488.4793399340492
 21
167.47841048365671
  0
LINE
  8
_e-0_
  6
CONTINUOUS
 62
    7
 10
2462.8888794596255
 20
152.84335572742151
 11
2511.1140538755621
 21
170.39588375711787
  0
LINE
  8
_e-0_
  6
CONTINUOUS
 62
    7
 10
2465.300291731432
 20
148.400149154524
 11
2476.9283430630944
 21
152.63241372176821
  0
LINE
  8
_e-0_
  6
CONTINUOUS
 62
    7
 10
2488.1225212892722
 20
156.70676139316753
 11
2512.1228430370119
 21
165.44216412215632
  0
LINE
  8
_e-0_
  6
CONTINUOUS
 62
    7
 10
2502.7415432900879
 20
156.70676139316753
 11
2512.1151621126959
 21
160.11847963195407
  0
LINE
  8
_e-0_
  6
CONTINUOUS
 62
    7
 10
2468.7281740890052
 20
144.32690743686691
 11
2482.5550140975401
 21
149.35946563393486
  0
LINE
  8
_e-0_
  6
CONTINUOUS
 62
    7
 10
2473.4508580764295
 20
140.72493497175571
 11
2502.4973614552445
 21
151.29699761115659
  0
LINE
  8
_e-0_
  6
CONTINUOUS
 62
    7
 10
2480.3069495598269
 20
137.89945933273884
 11
2507.3767895083869
 21
147.75207532036432
  0
LINE
  8
_e-0_
  6
CONTINUOUS
 62
    7
 10
2552.6231690921717
 20
137.61596638527407
 11
2558.7418873346696
 21
139.84299769740459
  0
LINE
  8
_e-0_
  6
CONTINUOUS
 62
    7
 10
2539.4012676014826
 20
138.12447666464265
 11
2568.5435873921023
 21
148.73141362589478
  0
LINE
  8
_e-0_
  6
CONTINUOUS
 62
    7
 10
2532.9976800904732
 20
141.11465028049622
 11
2571.5269734698549
 21
155.13816621790056
  0
LINE
  8
_e-0_
  6
CONTINUOUS
 62
    7
 10
2522.081864354775
 20
169.06695144424446
 11
2572.0397992563612
 21
187.25015271383
  0
LINE
  8
_e-0_
  6
CONTINUOUS
 62
    7
 10
2524.5896829795606
 20
175.30061163898437
 11
2572.0397992563612
 21
192.57104157620943
  0
LINE
  8
_e-0_
  6
CONTINUOUS
 62
    7
 10
2557.3930775458175
 20
208.52362629350906
 11
2561.8028673926596
 21
210.12865853712895
  0
LINE
  8
_e-0_
  6
CONTINUOUS
 62
    7
 10
2557.3930775458175
 20
203.20273743112977
 11
2572.0397992563612
 21
208.53370816334788
  0
LINE
  8
_e-0_
  6
CONTINUOUS
 62
    7
 10
2557.3930775458175
 20
197.88184856875005
 11
2572.0397992563612
 21
203.21281930096859
  0
LINE
  8
_e-0_
  6
CONTINUOUS
 62
    7
 10
2557.3930775458175
 20
192.56095970637034
 11
2572.0397992563612
 21
197.89193043858915
  0
LINE
  8
_e-0_
  6
CONTINUOUS
 62
    7
 10
2531.3600319802562
 20
183.08570601321093
 11
2545.8030101140193
 21
188.34252014805827
  0
LINE
  8
_e-0_
  6
CONTINUOUS
 62
    7
 10
2548.0525958796984
 20
173.19863581905565
 11
2572.0397992563612
 21
181.92926385145057
  0
LINE
  8
_e-0_
  6
CONTINUOUS
 62
    7
 10
2521.2864022906337
 20
163.45653806802943
 11
2538.3752084417083
 21
169.67635484616607
  0
LINE
  8
_e-0_
  6
CONTINUOUS
 62
    7
 10
2521.6554107736333
 20
158.26995730965364
 11
2535.4846691325356
 21
163.30339571427089
  0
LINE
  8
_e-0_
  6
CONTINUOUS
 62
    7
 10
2522.9940114609526
 20
153.43627925302655
 11
2536.1404517985765
 21
158.22119222247806
  0
LINE
  8
_e-0_
  6
CONTINUOUS
 62
    7
 10
2525.2563435788042
 20
148.93881194156961
 11
2539.0354883761397
 21
153.95401050144357
  0
LINE
  8
_e-0_
  6
CONTINUOUS
 62
    7
 10
2528.5117312327797
 20
144.80278728623488
 11
2545.7561370732087
 21
151.07923771975691
  0
LINE
  8
_e-0_
  6
CONTINUOUS
 62
    7
 10
2554.2054905278623
 20
154.15455087604527
 11
2572.0397992563612
 21
160.64570840193255
  0
LINE
  8
_e-0_
  6
CONTINUOUS
 62
    7
 10
2557.505937791675
 20
160.67670430221767
 11
2572.0397992563612
 21
165.96659726431198
  0
LINE
  8
_e-0_
  6
CONTINUOUS
 62
    7
 10
2557.5903561511468
 20
166.02831893467055
 11
2572.0397992563612
 21
171.28748612669141
  0
LINE
  8
_e-0_
  6
CONTINUOUS
 62
    7
 10
2557.5903561511468
 20
171.34920779704998
 11
2572.0397992563612
 21
176.60837498907085
  0
LINE
  8
_e-0_
  6
CONTINUOUS
 62
    7
 10
2595.1467628188602
 20
185.01862193009401
 11
2601.869376832742
 21
187.46545332760774
  0
LINE
  8
_e-0_
  6
CONTINUOUS
 62
    7
 10
2585.5936460434281
 20
176.22068291698809
 11
2614.8426950414304
 21
186.86646613285404
  0
LINE
  8
_e-0_
  6
CONTINUOUS
 62
    7
 10
2608.5181174973608
 20
136.67650840108905
 11
2622.7000364868072
 21
141.83830477802189
  0
LINE
  8
_e-0_
  6
CONTINUOUS
 62
    7
 10
2598.2444761483161
 20
138.25809761488983
 11
2629.5534764025951
 21
149.65364177207987
  0
LINE
  8
_e-0_
  6
CONTINUOUS
 62
    7
 10
2582.6330921261528
 20
169.82224055178022
 11
2621.2234503919626
 21
183.86798229020314
  0
LINE
  8
_e-0_
  6
CONTINUOUS
 62
    7
 10
2592.2968185805402
 20
141.41421615899105
 11
2632.0809325371146
 21
155.89444943583799
  0
LINE
  8
_e-0_
  6
CONTINUOUS
 62
    7
 10
2588.0695495912832
 20
145.19650493704432
 11
2602.246111940276
 21
150.35635165629656
  0
LINE
  8
_e-0_
  6
CONTINUOUS
 62
    7
 10
2585.0094293819529
 20
149.40360112995108
 11
2597.3909335115822
 21
153.91010008858017
  0
LINE
  8
_e-0_
  6
CONTINUOUS
 62
    7
 10
2582.919829983693
 20
153.96393800982366
 11
2594.8695180063709
 21
158.31326875884542
  0
LINE
  8
_e-0_
  6
CONTINUOUS
 62
    7
 10
2581.7538748691904
 20
158.86045391603374
 11
2594.1774270088017
 21
163.38225709870641
  0
LINE
  8
_e-0_
  6
CONTINUOUS
 62
    7
 10
2581.5798124660104
 20
164.11798924475078
 11
2595.9853391150813
 21
169.36117215394091
  0
LINE
  8
_e-0_
  6
CONTINUOUS
 62
    7
 10
2611.9748325174678
 20
175.18087181340547
 11
2625.6969314853622
 21
180.17530738937352
  0
LINE
  8
_e-0_
  6
CONTINUOUS
 62
    7
 10
2617.2029460570038
 20
171.76286066078091
 11
2628.9430705154381
 21
176.03591651023151
  0
LINE
  8
_e-0_
  6
CONTINUOUS
 62
    7
 10
2619.9310564926913
 20
167.43492279278257
 11
2631.1973168341919
 21
171.53550620858254
  0
LINE
  8
_e-0_
  6
CONTINUOUS
 62
    7
 10
2620.8298424207368
 20
162.44116525518904
 11
2632.5279188691888
 21
166.69891688059578
  0
LINE
  8
_e-0_
  6
CONTINUOUS
 62
    7
 10
2619.394865425299
 20
156.5979874796136
 11
2632.8880000931144
 21
161.50908686564349
  0
TEXT
  8
_e-0_
 62
    7
 10
2642.8586825750176
 20
180.56247057449553
 40
35
 41
0.5714285714285712
 50
0
  1
ワンド
  0
TEXT
  8
_e-0_
 62
    7
 10
2649.7045100149039
 20
147.0179161190498
 40
30
 41
0.6666666666666666
 50
0
  1
株式
  0
TEXT
  8
_e-0_
 62
    7
 10
2649.0199272709155
 20
118.95002361551377
 40
30
 41
0.6666666666666666
 50
0
  1
会社
  0
TEXT
  8
_f-8_
 62
    7
 10
2829.8617021276595
 20
142.5
 40
35
 41
0.5714285714285712
 50
0
  1
１／１０
  0
ENDSEC
  0
EOF
