  0
SECTION
  2
HEADER
  9
$ACADVER
  1
AC1009
  9
$INSBASE
 10
0
 20
0
 30
0
  9
$EXTMIN
 10
0
 20
0
  9
$EXTMAX
 10
4200
 20
2970
  9
$LIMMIN
 10
0
 20
0
  9
$LIMMAX
 10
4200
 20
2970
  9
$LTSCALE
 40
10
  0
ENDSEC
  0
SECTION
  2
TABLES
  0
TABLE
  2
LTYPE
 70
     9
  0
LTYPE
  2
CONTINUOUS
 70
    64
  3
実線
 72
    65
 73
     0
 40
0.0
  0
LTYPE
  2
DASHED1
 70
    64
  3
--  --  --  --  --  --  --  --  
 72
    65
 73
     2
 40
2.5
 49
1.25
 49
-1.25
  0
LTYPE
  2
DASHED2
 70
    64
  3
----    ----    ----    ----    
 72
    65
 73
     2
 40
5.0
 49
2.5
 49
-2.5
  0
LTYPE
  2
DASHED3
 70
    64
  3
------  ------  ------  ------  
 72
    65
 73
     2
 40
5.0
 49
3.75
 49
-1.25
  0
LTYPE
  2
CENTER1
 70
    64
  3
----- - ----- - ----- - ----- - 
 72
    65
 73
     4
 40
10.0
 49
6.25
 49
-1.25
 49
1.25
 49
-1.25
  0
LTYPE
  2
CENTER2
 70
    64
  3
----------  --  ----------  --  
 72
    65
 73
     4
 40
20.0
 49
12.5
 49
-2.5
 49
2.5
 49
-2.5
  0
LTYPE
  2
PHANTOM1
 70
    64
  3
--- - - --- - - --- - - --- - - 
 72
    65
 73
     6
 40
10.0
 49
3.25
 49
-1.25
 49
1.25
 49
-1.25
 49
1.25
 49
-1.25
  0
LTYPE
  2
PHANTOM2
 70
    64
  3
--------  -  -  --------  -  -  
 72
    65
 73
     6
 40
20.0
 49
10.0
 49
-2.5
 49
1.25
 49
-2.5
 49
1.25
 49
-2.5
  0
LTYPE
  2
DOT
 70
    64
  3
-   -   -   -   -   -   -   -   
 72
    65
 73
     2
 40
2.5
 49
0.625
 49
-1.875
  0
LTYPE
  2
DUMMY
 70
    64
  3
ダミー
 72
    65
 73
     0
 40
0.0
  0
LTYPE
  2
RAND1
 70
    64
  3
ランダム線1
 72
    65
 73
     4
 40
10.0
 49
1.0
 49
-2.0
 49
3.0
 49
-4.0
  0
LTYPE
  2
RAND2
 70
    64
  3
ランダム線2
 72
    65
 73
     4
 40
14.0
 49
2.0
 49
-3.0
 49
4.0
 49
-5.0
  0
LTYPE
  2
RAND3
 70
    64
  3
ランダム線3
 72
    65
 73
     4
 40
18.0
 49
3.0
 49
-4.0
 49
5.0
 49
-6.0
  0
LTYPE
  2
RAND4
 70
    64
  3
ランダム線4
 72
    65
 73
     4
 40
22.0
 49
4.0
 49
-5.0
 49
6.0
 49
-7.0
  0
LTYPE
  2
RAND5
 70
    64
  3
ランダム線5
 72
    65
 73
     4
 40
26.0
 49
5.0
 49
-6.0
 49
7.0
 49
-8.0
  0
LTYPE
  2
LONG1
 70
    64
  3
----------  --  ----------  --  
 72
    65
 73
     4
 40
40.0
 49
32.5
 49
-2.5
 49
2.5
 49
-2.5
  0
LTYPE
  2
LONG2
 70
    64
  3
--------  -  -  --------  -  -  
 72
    65
 73
     6
 40
40.0
 49
30.0
 49
-2.5
 49
1.25
 49
-2.5
 49
1.25
 49
-2.5
  0
LTYPE
  2
LONG3
 70
    64
  3
+++++++++++++++..+++++++++++++++
 72
    65
 73
     2
 40
40.0
 49
37.5
 49
-2.5
  0
LTYPE
  2
LONG4
 70
    64
  3
+++++++++++++++..+++++++++++++++
 72
    65
 73
     2
 40
80.0
 49
75.0
 49
-5.0
  0
LTYPE
  2
LONG5
 70
    64
  3
----------  --  ----------  --  
 72
    65
 73
     4
 40
60.0
 49
37.5
 49
-7.5
 49
7.5
 49
-7.5
  0
LTYPE
  2
dashed
 70
   64
  3
-------   -------------   ------
 72
   65
 73
    2
 40
7.5
 49
6
 49
-1.5
  0
LTYPE
  2
dashed_spaced
 70
   64
  3
----        --------        ----
 72
   65
 73
    2
 40
12
 49
6
 49
-6
  0
LTYPE
  2
long_dashed_dotted
 70
   64
  3
------------- --- --------------
 72
   65
 73
    4
 40
15.25
 49
12
 49
-1.5
 49
0.25
 49
-1.5
  0
LTYPE
  2
long_dashed_double-dotted
 70
   64
  3
----------- --- --- ------------
 72
   65
 73
    6
 40
17
 49
12
 49
-1.5
 49
0.25
 49
-1.5
 49
0.25
 49
-1.5
  0
LTYPE
  2
long_dashed_triplicate-dotted
 70
   64
  3
--------- --- --- --- ----------
 72
   65
 73
    8
 40
18.75
 49
12
 49
-1.5
 49
0.25
 49
-1.5
 49
0.25
 49
-1.5
 49
0.25
 49
-1.5
  0
LTYPE
  2
dotted
 70
   64
  3
   -       -       -       -    
 72
   65
 73
    2
 40
1.75
 49
0.25
 49
-1.5
  0
LTYPE
  2
chain
 70
   64
  3
-------------- -- --------------
 72
   65
 73
    4
 40
18.5
 49
12
 49
-1.5
 49
3.5
 49
-1.5
  0
LTYPE
  2
chain_double_dash
 70
   64
  3
------------ -- -- -------------
 72
   65
 73
    6
 40
23.5
 49
12
 49
-1.5
 49
3.5
 49
-1.5
 49
3.5
 49
-1.5
  0
LTYPE
  2
dashed_dotted
 70
   64
  3
-----------     -     ----------
 72
   65
 73
    4
 40
9.25
 49
6
 49
-1.5
 49
0.25
 49
-1.5
  0
LTYPE
  2
double-dashed_dotted
 70
   64
  3
------   -----------   -   -----
 72
   65
 73
    6
 40
16.75
 49
6
 49
-1.5
 49
6
 49
-1.5
 49
0.25
 49
-1.5
  0
LTYPE
  2
dashed_double-dotted
 70
   64
  3
---------    -    -    ---------
 72
   65
 73
    6
 40
11
 49
6
 49
-1.5
 49
0.25
 49
-1.5
 49
0.25
 49
-1.5
  0
LTYPE
  2
double-dashed_double-dotted
 70
   64
  3
-----   ---------   -   -   ----
 72
   65
 73
    8
 40
18.5
 49
6
 49
-1.5
 49
6
 49
-1.5
 49
0.25
 49
-1.5
 49
0.25
 49
-1.5
  0
LTYPE
  2
dashed_triplicate-dotted
 70
   64
  3
-------    -    -    -    ------
 72
   65
 73
    8
 40
12.75
 49
6
 49
-1.5
 49
0.25
 49
-1.5
 49
0.25
 49
-1.5
 49
0.25
 49
-1.5
  0
LTYPE
  2
double-dashed_triplicate-dotted
 70
   64
  3
-----  ---------  -  -  -  -----
 72
   65
 73
   10
 40
20.25
 49
6
 49
-1.5
 49
6
 49
-1.5
 49
0.25
 49
-1.5
 49
0.25
 49
-1.5
 49
0.25
 49
-1.5
  0
LTYPE
  2
undefined
 70
   64
  3
--------------------------------
 72
   65
 73
    0
 40
0
  0
LTYPE
  2
_
 70
   64
  3
                                
 72
   65
 73
    0
 40
0
  0
LTYPE
  2
__18
 70
   64
  3
                                
 72
   65
 73
    0
 40
0
  0
LTYPE
  2
__19
 70
   64
  3
                                
 72
   65
 73
    0
 40
0
  0
LTYPE
  2
__20
 70
   64
  3
                                
 72
   65
 73
    0
 40
0
  0
LTYPE
  2
__21
 70
   64
  3
                                
 72
   65
 73
    0
 40
0
  0
LTYPE
  2
__22
 70
   64
  3
                                
 72
   65
 73
    0
 40
0
  0
LTYPE
  2
__23
 70
   64
  3
                                
 72
   65
 73
    0
 40
0
  0
LTYPE
  2
__24
 70
   64
  3
                                
 72
   65
 73
    0
 40
0
  0
LTYPE
  2
__25
 70
   64
  3
                                
 72
   65
 73
    0
 40
0
  0
LTYPE
  2
__26
 70
   64
  3
                                
 72
   65
 73
    0
 40
0
  0
LTYPE
  2
__27
 70
   64
  3
                                
 72
   65
 73
    0
 40
0
  0
LTYPE
  2
__28
 70
   64
  3
                                
 72
   65
 73
    0
 40
0
  0
LTYPE
  2
__29
 70
   64
  3
                                
 72
   65
 73
    0
 40
0
  0
LTYPE
  2
__30
 70
   64
  3
                                
 72
   65
 73
    0
 40
0
  0
LTYPE
  2
__31
 70
   64
  3
                                
 72
   65
 73
    0
 40
0
  0
LTYPE
  2
__32
 70
   64
  3
                                
 72
   65
 73
    0
 40
0
  0
ENDTAB
  0
TABLE
  2
STYLE
  5
3
100
AcDbSymbolTable
 70
     1
  0
STYLE
  5
10
100
AcDbSymbolTableRecord
100
AcDbTextStyleTableRecord
  2
STANDARD
 70
     0
 40
0.0
 41
1.0
 50
0.0
 71
     0
 42
0.2
  3
txt
  4
bigfont.shx
  0
STYLE
  5
26
100
AcDbSymbolTableRecord
100
AcDbTextStyleTableRecord
  2
TATEGAKI
 70
    68
 40
0.0
 41
1.0
 50
0.0
 71
     0
 42
1.0
  3
txt
  4
bigfont.shx
  0
ENDTAB
  0
TABLE
  2
LAYER
 70
   12
  0
LAYER
  2
_0-0_
 70
   64
 62
    7
  6
CONTINUOUS
  0
LAYER
  2
_0-1_
 70
   64
 62
    7
  6
CONTINUOUS
  0
LAYER
  2
_0-3_
 70
   64
 62
    7
  6
CONTINUOUS
  0
LAYER
  2
_0-4_
 70
   64
 62
    7
  6
CONTINUOUS
  0
LAYER
  2
_0-6_
 70
   64
 62
    7
  6
CONTINUOUS
  0
LAYER
  2
_0-7_
 70
   64
 62
    7
  6
CONTINUOUS
  0
LAYER
  2
_0-8_
 70
   64
 62
    7
  6
CONTINUOUS
  0
LAYER
  2
_0-9_
 70
   64
 62
    7
  6
CONTINUOUS
  0
LAYER
  2
_0-a_
 70
   64
 62
    7
  6
CONTINUOUS
  0
LAYER
  2
_e-0_
 70
   64
 62
    7
  6
CONTINUOUS
  0
LAYER
  2
_f-8_
 70
   64
 62
    7
  6
CONTINUOUS
  0
LAYER
  2
ADD_LINE
 70
   64
 62
    7
  6
CONTINUOUS
  0
ENDTAB
  0
ENDSEC
  0
SECTION
  2
BLOCKS
  0
ENDSEC
  0
SECTION
  2
ENTITIES
  0
LINE
  8
_0-8_
  6
CONTINUOUS
 62
    4
 10
825
 20
2217
 11
1075
 21
2217
  0
LINE
  8
_0-8_
  6
CONTINUOUS
 62
    4
 10
1075
 20
2217
 11
1075
 21
2147
  0
LINE
  8
_0-8_
  6
CONTINUOUS
 62
    4
 10
825
 20
2147
 11
1075
 21
2147
  0
LINE
  8
_0-8_
  6
CONTINUOUS
 62
    4
 10
825
 20
2217
 11
825
 21
2147
  0
TEXT
  8
_0-8_
 62
    7
 10
902.99999999999954
 20
2164.5
 40
35
 41
0.8571428571428568
 50
0
  1
平面図
  0
LINE
  8
_0-3_
  6
DASHED1
 62
    4
 10
586.99999999999988
 20
2495
 11
1313
 21
2495
  0
LINE
  8
_0-9_
  6
CONTINUOUS
 62
    4
 10
500
 20
2710
 11
500
 21
2540
  0
POINT
  8
_0-9_
 62
    3
 10
500
 20
2710
  0
LINE
  8
_0-4_
  6
CONTINUOUS
 62
    3
 10
505.50000000000011
 20
2309.0000000000004
 11
949.50000000000045
 21
2309.0000000000004
  0
LINE
  8
_0-9_
  6
CONTINUOUS
 62
    4
 10
1400
 20
2710
 11
1400
 21
2540
  0
POINT
  8
_0-9_
 62
    3
 10
1400
 20
2710
  0
LINE
  8
_0-9_
  6
CONTINUOUS
 62
    4
 10
1648.8305078991243
 20
2510
 11
1430
 21
2510
  0
POINT
  8
_0-9_
 62
    3
 10
1648.8305078991243
 20
2510
  0
POINT
  8
_0-9_
 62
    3
 10
1648.8305078991243
 20
2510
  0
LINE
  8
_0-9_
  6
CONTINUOUS
 62
    4
 10
1648.8305078991243
 20
2309.0000000000004
 11
1430
 21
2309.0000000000004
  0
POINT
  8
_0-9_
 62
    3
 10
1648.8305078991243
 20
2309.0000000000004
  0
POINT
  8
_0-9_
 62
    3
 10
1648.8305078991243
 20
2309.0000000000004
  0
POINT
  8
_0-9_
 62
    3
 10
1648.8305078991243
 20
2510
  0
POINT
  8
_0-9_
 62
    3
 10
1648.8305078991243
 20
2309.0000000000004
  0
LINE
  8
_0-9_
  6
CONTINUOUS
 62
    4
 10
1648.8305078991243
 20
2510
 11
1648.8305078991243
 21
2309.0000000000004
  0
TEXT
  8
_0-9_
 62
    7
 10
1648.8305078991243
 20
2376.4
 40
35
 41
0.6285714285714286
 50
90
  1
２０１
  0
LINE
  8
_0-9_
  6
CONTINUOUS
 62
    4
 10
500
 20
2710
 11
1400
 21
2710
  0
TEXT
  8
_0-9_
 62
    7
 10
916.90000000000009
 20
2712.0000000000004
 40
35
 41
0.6285714285714286
 50
0
  1
９００
  0
LINE
  8
_0-3_
  6
CONTINUOUS
 62
    5
 10
500
 20
2510
 11
1400
 21
2510
  0
LINE
  8
_0-4_
  6
CONTINUOUS
 62
    3
 10
950.50000000000045
 20
2309.0000000000004
 11
1394.5000000000004
 21
2309.0000000000004
  0
LINE
  8
_e-0_
  6
CONTINUOUS
 62
    7
 10
630
 20
120
 11
630
 21
220
  0
LINE
  8
_e-0_
  6
CONTINUOUS
 62
    7
 10
170
 20
120
 11
610
 21
120
  0
LINE
  8
_e-0_
  6
CONTINUOUS
 62
    7
 10
170
 20
220
 11
610
 21
220
  0
LINE
  8
_e-0_
  6
CONTINUOUS
 62
    7
 10
1420
 20
120
 11
1420
 21
220
  0
LINE
  8
_e-0_
  6
CONTINUOUS
 62
    7
 10
2210
 20
120
 11
2210
 21
220
  0
LINE
  8
_e-0_
  6
CONTINUOUS
 62
    7
 10
2220
 20
120
 11
2220
 21
220
  0
LINE
  8
_e-0_
  6
CONTINUOUS
 62
    7
 10
630
 20
120
 11
2210
 21
120
  0
LINE
  8
_e-0_
  6
CONTINUOUS
 62
    7
 10
630
 20
220
 11
2210
 21
220
  0
LINE
  8
_e-0_
  6
CONTINUOUS
 62
    7
 10
2710
 20
120
 11
2710
 21
220
  0
LINE
  8
_e-0_
  6
CONTINUOUS
 62
    7
 10
2720
 20
120
 11
2720
 21
220
  0
LINE
  8
_e-0_
  6
CONTINUOUS
 62
    7
 10
2220
 20
120
 11
2710
 21
120
  0
LINE
  8
_e-0_
  6
CONTINUOUS
 62
    7
 10
2220
 20
220
 11
2710
 21
220
  0
LINE
  8
_e-0_
  6
CONTINUOUS
 62
    7
 10
3020
 20
120
 11
3020
 21
220
  0
LINE
  8
_e-0_
  6
CONTINUOUS
 62
    7
 10
3320
 20
120
 11
3320
 21
220
  0
LINE
  8
_e-0_
  6
CONTINUOUS
 62
    7
 10
3700
 20
120
 11
3700
 21
220
  0
LINE
  8
_e-0_
  6
CONTINUOUS
 62
    7
 10
2720
 20
120
 11
4110
 21
120
  0
LINE
  8
_e-0_
  6
CONTINUOUS
 62
    7
 10
4110
 20
120
 11
4110
 21
220
  0
LINE
  8
_e-0_
  6
CONTINUOUS
 62
    7
 10
2720
 20
220
 11
4110
 21
220
  0
LINE
  8
_e-0_
  6
CONTINUOUS
 62
    7
 10
4130
 20
2860
 11
4130
 21
100
  0
LINE
  8
_e-0_
  6
CONTINUOUS
 62
    7
 10
150
 20
2860
 11
4130
 21
2860
  0
LINE
  8
_e-0_
  6
CONTINUOUS
 62
    7
 10
150
 20
100
 11
4130
 21
100
  0
LINE
  8
_e-0_
  6
CONTINUOUS
 62
    7
 10
150
 20
100
 11
150
 21
2860
  0
TEXT
  8
_e-0_
 62
    7
 10
3040
 20
187.5
 40
25
 41
0.64
 50
0
  1
ＤＡＴＡ
  0
TEXT
  8
_e-0_
 62
    7
 10
3340
 20
187.5
 40
25
 41
0.64
 50
0
  1
ＣＨＥＣＫＥＤ
  0
TEXT
  8
_e-0_
 62
    7
 10
3720
 20
187.5
 40
25
 41
0.64
 50
0
  1
ＳＨＥＥＴ　ＮＯ．
  0
TEXT
  8
_e-0_
 62
    7
 10
3542
 20
187.5
 40
25
 41
0.64
 50
0
  1
ＤＲＡＷＩＮＧ
  0
LINE
  8
_e-0_
  6
CONTINUOUS
 62
    7
 10
170
 20
170
 11
610
 21
170
  0
TEXT
  8
_e-0_
 62
    7
 10
2861
 20
142.5
 40
35
 41
0.5714285714285711
 50
0
  1
１／１０
  0
TEXT
  8
_e-0_
 62
    7
 10
2740.3739840854213
 20
187.46937299485011
 40
25
 41
0.64
 50
0
  1
ＳＣＡＬＥ
  0
TEXT
  8
_e-0_
 62
    7
 10
1445
 20
187.5
 40
25
 41
0.8
 50
0
  1
図面名称
  0
TEXT
  8
_e-0_
 62
    7
 10
655
 20
187.5
 40
25
 41
0.8
 50
0
  1
名　称
  0
LINE
  8
_e-0_
  6
CONTINUOUS
 62
    7
 10
2165
 20
2872
 11
2166.15
 21
2874.0000000000004
  0
LINE
  8
_e-0_
  6
CONTINUOUS
 62
    7
 10
2158.6399999999998
 20
2877
 11
2165
 21
2866
  0
LINE
  8
_e-0_
  6
CONTINUOUS
 62
    7
 10
2165
 20
2866
 11
2171.3499999999999
 21
2877
  0
LINE
  8
_e-0_
  6
CONTINUOUS
 62
    7
 10
2165
 20
2860
 11
2176.5399999999999
 21
2880
  0
LINE
  8
_e-0_
  6
CONTINUOUS
 62
    7
 10
2153.4499999999998
 20
2880
 11
2165
 21
2860
  0
LINE
  8
_e-0_
  6
CONTINUOUS
 62
    7
 10
2176.5399999999999
 20
2880
 11
2153.4499999999998
 21
2880
  0
LINE
  8
_e-0_
  6
CONTINUOUS
 62
    7
 10
2163.8400000000001
 20
2874.0000000000004
 11
2165
 21
2872
  0
LINE
  8
_e-0_
  6
CONTINUOUS
 62
    7
 10
2166.15
 20
2874.0000000000004
 11
2163.8400000000001
 21
2874.0000000000004
  0
LINE
  8
_e-0_
  6
CONTINUOUS
 62
    7
 10
2171.3499999999999
 20
2877
 11
2158.6399999999998
 21
2877
  0
LINE
  8
_e-0_
  6
CONTINUOUS
 62
    7
 10
120
 20
1462.6794919243113
 11
120
 21
1497.3205080756886
  0
LINE
  8
_e-0_
  6
CONTINUOUS
 62
    7
 10
120
 20
1497.3205080756886
 11
150
 21
1480
  0
LINE
  8
_e-0_
  6
CONTINUOUS
 62
    7
 10
150
 20
1480
 11
120
 21
1462.6794919243113
  0
LINE
  8
_e-0_
  6
CONTINUOUS
 62
    7
 10
125
 20
1471.3397459621555
 11
125
 21
1488.6602540378444
  0
LINE
  8
_e-0_
  6
CONTINUOUS
 62
    7
 10
125
 20
1488.6602540378444
 11
140
 21
1480
  0
LINE
  8
_e-0_
  6
CONTINUOUS
 62
    7
 10
140
 20
1480
 11
125
 21
1471.3397459621555
  0
LINE
  8
_e-0_
  6
CONTINUOUS
 62
    7
 10
128.99999999999977
 20
1478.2679491924309
 11
128.99999999999977
 21
1481.732050807569
  0
LINE
  8
_e-0_
  6
CONTINUOUS
 62
    7
 10
128.99999999999977
 20
1481.732050807569
 11
132.00000000000045
 21
1480
  0
LINE
  8
_e-0_
  6
CONTINUOUS
 62
    7
 10
132.00000000000045
 20
1480
 11
128.99999999999977
 21
1478.2679491924309
  0
LINE
  8
_e-0_
  6
CONTINUOUS
 62
    7
 10
4160
 20
1462.6794919243113
 11
4160
 21
1497.3205080756886
  0
LINE
  8
_e-0_
  6
CONTINUOUS
 62
    7
 10
4160
 20
1497.3205080756886
 11
4130
 21
1480
  0
LINE
  8
_e-0_
  6
CONTINUOUS
 62
    7
 10
4130
 20
1480
 11
4160
 21
1462.6794919243113
  0
LINE
  8
_e-0_
  6
CONTINUOUS
 62
    7
 10
4155
 20
1471.3397459621555
 11
4155
 21
1488.6602540378444
  0
LINE
  8
_e-0_
  6
CONTINUOUS
 62
    7
 10
4155
 20
1488.6602540378444
 11
4140
 21
1480
  0
LINE
  8
_e-0_
  6
CONTINUOUS
 62
    7
 10
4140
 20
1480
 11
4155
 21
1471.3397459621555
  0
LINE
  8
_e-0_
  6
CONTINUOUS
 62
    7
 10
4151
 20
1478.2679491924309
 11
4151
 21
1481.732050807569
  0
LINE
  8
_e-0_
  6
CONTINUOUS
 62
    7
 10
4151
 20
1481.732050807569
 11
4148
 21
1480
  0
LINE
  8
_e-0_
  6
CONTINUOUS
 62
    7
 10
4148
 20
1480
 11
4151
 21
1478.2679491924309
  0
TEXT
  8
_e-0_
 62
    7
 10
149.98500000000007
 20
65
 40
20
 41
1
 50
0
  1
%f
  0
TEXT
  8
_e-0_
 62
    7
 10
3990
 20
65.000003230029506
 40
20
 41
1
 50
0
  1
%y
  0
TEXT
  8
_e-0_
 62
    7
 10
4020
 20
65.000003230029506
 40
20
 41
1
 50
0
  1
．
  0
TEXT
  8
_e-0_
 62
    7
 10
4050
 20
65.000003230029506
 40
20
 41
1
 50
0
  1
%m
  0
TEXT
  8
_e-0_
 62
    7
 10
4080
 20
65.000003230029506
 40
20
 41
1
 50
0
  1
．
  0
TEXT
  8
_e-0_
 62
    7
 10
4110
 20
65.000003230029506
 40
20
 41
1
 50
0
  1
%d
  0
TEXT
  8
_e-0_
 62
    7
 10
887
 20
137.5
 40
45
 41
0.8
 50
0
  1
多目的吊戸棚
  0
LINE
  8
_0-4_
  6
CONTINUOUS
 62
    3
 10
505.50000000000011
 20
792
 11
949.50000000000045
 21
792
  0
LINE
  8
_0-a_
  6
CONTINUOUS
 62
    4
 10
3516.5461735799372
 20
813.49999999999783
 11
3561.5461735799412
 21
858.50000000000136
  0
LINE
  8
_0-9_
  6
CONTINUOUS
 62
    4
 10
505.50000000000011
 20
607
 11
505.50000000000011
 21
777
  0
LINE
  8
_0-8_
  6
CONTINUOUS
 62
    4
 10
825
 20
427
 11
1075
 21
427
  0
LINE
  8
_0-8_
  6
CONTINUOUS
 62
    4
 10
1075
 20
427
 11
1075
 21
357
  0
LINE
  8
_0-8_
  6
CONTINUOUS
 62
    4
 10
825
 20
357
 11
1075
 21
357
  0
LINE
  8
_0-8_
  6
CONTINUOUS
 62
    4
 10
825
 20
427
 11
825
 21
357
  0
LINE
  8
_0-9_
  6
CONTINUOUS
 62
    4
 10
2503
 20
807
 11
2313
 21
807
  0
POINT
  8
_0-9_
 62
    3
 10
2413
 20
807
  0
POINT
  8
_0-9_
 62
    3
 10
2493
 20
807
  0
LINE
  8
_0-8_
  6
CONTINUOUS
 62
    4
 10
2056.5
 20
427
 11
2306.5
 21
427
  0
LINE
  8
_0-8_
  6
CONTINUOUS
 62
    4
 10
2306.5
 20
427
 11
2306.5
 21
357
  0
LINE
  8
_0-8_
  6
CONTINUOUS
 62
    4
 10
2056.5
 20
357
 11
2306.5
 21
357
  0
LINE
  8
_0-8_
  6
CONTINUOUS
 62
    4
 10
2056.5
 20
427
 11
2056.5
 21
357
  0
TEXT
  8
_0-8_
 62
    7
 10
2134.499999999999
 20
374.5
 40
35
 41
0.8571428571428568
 50
0
  1
断面図
  0
LINE
  8
_0-8_
  6
CONTINUOUS
 62
    4
 10
3180
 20
427
 11
3430
 21
427
  0
LINE
  8
_0-8_
  6
CONTINUOUS
 62
    4
 10
3430
 20
427
 11
3430
 21
357
  0
LINE
  8
_0-8_
  6
CONTINUOUS
 62
    4
 10
3180
 20
357
 11
3430
 21
357
  0
LINE
  8
_0-8_
  6
CONTINUOUS
 62
    4
 10
3180
 20
427
 11
3180
 21
357
  0
TEXT
  8
_0-8_
 62
    7
 10
902.99999999999954
 20
374.5
 40
35
 41
0.8571428571428568
 50
0
  1
立面図
  0
TEXT
  8
_0-8_
 62
    7
 10
3258
 20
374.5
 40
35
 41
0.8571428571428568
 50
0
  1
背面図
  0
POINT
  8
_0-9_
 62
    3
 10
2413
 20
807
  0
LINE
  8
_0-3_
  6
CONTINUOUS
 62
    5
 10
2265
 20
822
 11
2265
 21
813.5
  0
LINE
  8
_0-3_
  6
CONTINUOUS
 62
    5
 10
2265
 20
813.5
 11
2283
 21
813.5
  0
LINE
  8
_0-3_
  6
CONTINUOUS
 62
    5
 10
2283
 20
813.5
 11
2283
 21
807
  0
LINE
  8
_0-3_
  6
CONTINUOUS
 62
    4
 10
2268
 20
858.5
 11
2283
 21
858.5
  0
LINE
  8
_0-3_
  6
CONTINUOUS
 62
    4
 10
2283
 20
858.5
 11
2268
 21
813.5
  0
LINE
  8
_0-a_
  6
CONTINUOUS
 62
    4
 10
3488.2619023324878
 20
813.49999999999636
 11
3533.2619023324859
 21
858.49999999999465
  0
LINE
  8
_0-a_
  6
CONTINUOUS
 62
    4
 10
3459.9776310850238
 20
813.49999999999909
 11
3504.977631085022
 21
858.49999999999704
  0
LINE
  8
_0-a_
  6
CONTINUOUS
 62
    4
 10
3431.6933598375594
 20
813.50000000000136
 11
3476.693359837558
 21
858.49999999999954
  0
LINE
  8
_0-a_
  6
CONTINUOUS
 62
    4
 10
3403.4090885900877
 20
813.4999999999967
 11
3448.4090885900918
 21
858.50000000000045
  0
LINE
  8
_0-a_
  6
CONTINUOUS
 62
    4
 10
3375.1248173426401
 20
813.49999999999727
 11
3420.1248173426383
 21
858.49999999999545
  0
LINE
  8
_0-a_
  6
CONTINUOUS
 62
    4
 10
3346.8405460951762
 20
813.49999999999965
 11
3391.8405460951735
 21
858.49999999999783
  0
LINE
  8
_0-a_
  6
CONTINUOUS
 62
    4
 10
3318.5562748477113
 20
813.50000000000227
 11
3363.55627484771
 21
858.50000000000022
  0
LINE
  8
_0-a_
  6
CONTINUOUS
 62
    4
 10
3290.2720036002474
 20
813.49999999999477
 11
3335.2720036002506
 21
858.49999999999818
  0
LINE
  8
_0-a_
  6
CONTINUOUS
 62
    4
 10
3261.9877323527925
 20
813.49999999999795
 11
3306.9877323527907
 21
858.49999999999613
  0
LINE
  8
_0-a_
  6
CONTINUOUS
 62
    4
 10
3233.7034611053281
 20
813.50000000000045
 11
3278.7034611053263
 21
858.49999999999863
  0
LINE
  8
_0-a_
  6
CONTINUOUS
 62
    4
 10
3205.4191898578642
 20
813.50000000000295
 11
3250.4191898578619
 21
858.50000000000113
  0
LINE
  8
_0-a_
  6
CONTINUOUS
 62
    4
 10
3177.1349186104089
 20
813.49999999999624
 11
3222.1349186104071
 21
858.49999999999454
  0
LINE
  8
_0-a_
  6
CONTINUOUS
 62
    4
 10
3148.8506473629445
 20
813.49999999999886
 11
3193.8506473629427
 21
858.49999999999704
  0
LINE
  8
_0-a_
  6
CONTINUOUS
 62
    4
 10
3120.5663761154805
 20
813.50000000000136
 11
3165.5663761154792
 21
858.49999999999931
  0
LINE
  8
_0-a_
  6
CONTINUOUS
 62
    4
 10
3092.2821048680111
 20
813.49999999999852
 11
3137.2821048680143
 21
858.50000000000193
  0
POINT
  8
_0-9_
 62
    3
 10
950.50000000000045
 20
617
  0
LINE
  8
_0-9_
  6
CONTINUOUS
 62
    4
 10
950.50000000000045
 20
607
 11
950.50000000000045
 21
777
  0
POINT
  8
_0-9_
 62
    3
 10
949.50000000000045
 20
617
  0
LINE
  8
_0-9_
  6
CONTINUOUS
 62
    4
 10
949.50000000000045
 20
607
 11
949.50000000000045
 21
777
  0
LINE
  8
_0-3_
  6
CONTINUOUS
 62
    5
 10
500
 20
807
 11
503.50000000000022
 21
807
  0
POINT
  8
_0-9_
 62
    3
 10
505.50000000000011
 20
617
  0
LINE
  8
_0-3_
  6
CONTINUOUS
 62
    5
 10
1396.5000000000004
 20
807
 11
1400
 21
807
  0
LINE
  8
_0-9_
  6
CONTINUOUS
 62
    9
 10
1660
 20
792
 11
1430
 21
792
  0
POINT
  8
_0-9_
 62
    3
 10
1730
 20
792
  0
LINE
  8
_0-9_
  6
CONTINUOUS
 62
    4
 10
1740
 20
792
 11
1430
 21
792
  0
POINT
  8
_0-9_
 62
    3
 10
1394.5000000000004
 20
617
  0
LINE
  8
_0-9_
  6
CONTINUOUS
 62
    4
 10
1394.5000000000004
 20
607
 11
1394.5000000000004
 21
777
  0
LINE
  8
_0-4_
  6
CONTINUOUS
 62
    3
 10
950.50000000000045
 20
792
 11
1394.5000000000004
 21
792
  0
LINE
  8
_0-9_
  6
CONTINUOUS
 62
    4
 10
1394.5000000000004
 20
617
 11
950.50000000000045
 21
617
  0
TEXT
  8
_0-9_
 62
    7
 10
1139.4000000000003
 20
622
 40
35
 41
0.6285714285714286
 50
0
  1
４４４
  0
LINE
  8
_0-3_
  6
DASHED1
 62
    2
 10
503.50000000000022
 20
807
 11
1396.5000000000004
 21
807
  0
LINE
  8
_0-9_
  6
CONTINUOUS
 62
    4
 10
949.50000000000045
 20
617
 11
505.50000000000011
 21
617
  0
TEXT
  8
_0-9_
 62
    7
 10
694.40000000000031
 20
622
 40
35
 41
0.6285714285714286
 50
0
  1
４４４
  0
LINE
  8
_0-a_
  6
CONTINUOUS
 62
    4
 10
2960.7135623730973
 20
813.49999999999954
 11
3005.7135623730946
 21
858.49999999999772
  0
LINE
  8
_0-a_
  6
CONTINUOUS
 62
    4
 10
2932.4292911256325
 20
813.50000000000204
 11
2977.4292911256311
 21
858.50000000000022
  0
LINE
  8
_0-a_
  6
CONTINUOUS
 62
    4
 10
2904.1450198781631
 20
813.4999999999992
 11
2949.1450198781667
 21
858.50000000000261
  0
LINE
  8
_0-a_
  6
CONTINUOUS
 62
    4
 10
2875.8607486307137
 20
813.49999999999795
 11
2920.8607486307118
 21
858.4999999999959
  0
LINE
  8
_0-a_
  6
CONTINUOUS
 62
    4
 10
2988.9978336205608
 20
813.49999999999704
 11
3033.9978336205595
 21
858.49999999999545
  0
LINE
  8
_0-a_
  6
CONTINUOUS
 62
    4
 10
3676.3989873223358
 20
813.49999999999567
 11
3721.398987322334
 21
858.49999999999363
  0
LINE
  8
_0-a_
  6
CONTINUOUS
 62
    4
 10
3648.1147160748714
 20
813.49999999999818
 11
3693.1147160748696
 21
858.49999999999636
  0
LINE
  8
_0-a_
  6
CONTINUOUS
 62
    4
 10
3619.8304448274075
 20
813.50000000000068
 11
3664.8304448274052
 21
858.49999999999886
  0
POINT
  8
_0-9_
 62
    3
 10
3905
 20
858.5
  0
POINT
  8
_0-9_
 62
    3
 10
3905
 20
813.5
  0
LINE
  8
_0-9_
  6
CONTINUOUS
 62
    4
 10
3915
 20
858.5
 11
3785
 21
858.5
  0
LINE
  8
_0-9_
  6
CONTINUOUS
 62
    4
 10
3915
 20
813.5
 11
3785
 21
813.5
  0
LINE
  8
_0-9_
  6
CONTINUOUS
 62
    4
 10
3905
 20
858.5
 11
3905
 21
813.5
  0
TEXT
  8
_0-9_
 62
    7
 10
3900
 20
765.10279383023635
 40
35
 41
0.6285714285714286
 50
90
  1
４５
  0
LINE
  8
_0-9_
  6
CONTINUOUS
 62
    4
 10
3905
 20
813.5
 11
3905
 21
766.47771648956927
  0
LINE
  8
_0-3_
  6
CONTINUOUS
 62
    5
 10
2855
 20
807
 11
3755
 21
807
  0
LINE
  8
_0-a_
  6
CONTINUOUS
 62
    4
 10
3063.9978336205608
 20
813.49999999999624
 11
3108.9978336205595
 21
858.49999999999454
  0
LINE
  8
_0-a_
  6
CONTINUOUS
 62
    4
 10
3035.7135623730973
 20
813.49999999999886
 11
3080.7135623730946
 21
858.49999999999704
  0
LINE
  8
_0-a_
  6
CONTINUOUS
 62
    4
 10
3007.4292911256325
 20
813.50000000000136
 11
3052.4292911256311
 21
858.49999999999931
  0
LINE
  8
_0-a_
  6
CONTINUOUS
 62
    4
 10
3591.5461735799535
 20
813.49999999999624
 11
3636.5461735799517
 21
858.49999999999454
  0
LINE
  8
_0-a_
  6
CONTINUOUS
 62
    4
 10
3563.2619023324887
 20
813.49999999999886
 11
3608.2619023324873
 21
858.49999999999704
  0
LINE
  8
_0-a_
  6
CONTINUOUS
 62
    4
 10
3534.9776310850252
 20
813.50000000000136
 11
3579.9776310850234
 21
858.49999999999931
  0
LINE
  8
_0-9_
  6
CONTINUOUS
 62
    4
 10
2283
 20
1637
 11
2283
 21
1437
  0
POINT
  8
_0-9_
 62
    3
 10
2283
 20
1637
  0
LINE
  8
_0-9_
  6
CONTINUOUS
 62
    4
 10
2503
 20
1407
 11
2313
 21
1407
  0
POINT
  8
_0-9_
 62
    3
 10
2493
 20
1407
  0
POINT
  8
_0-9_
 62
    3
 10
2283
 20
1637
  0
POINT
  8
_0-9_
 62
    3
 10
2283
 20
1637
  0
LINE
  8
_0-3_
  6
CONTINUOUS
 62
    4
 10
2268
 20
1322
 11
2283
 21
1322
  0
LINE
  8
_0-3_
  6
CONTINUOUS
 62
    4
 10
2283
 20
1407
 11
2268
 21
1322
  0
LINE
  8
_0-a_
  6
CONTINUOUS
 62
    4
 10
3497.3506473629454
 20
1321.9999999999995
 11
3582.3506473629436
 21
1406.9999999999972
  0
LINE
  8
_0-a_
  6
CONTINUOUS
 62
    4
 10
3469.0663761154814
 20
1322.0000000000018
 11
3554.0663761154792
 21
1407
  0
LINE
  8
_0-a_
  6
CONTINUOUS
 62
    4
 10
3440.782104868017
 20
1322.0000000000045
 11
3525.7821048680148
 21
1407.0000000000022
  0
LINE
  8
_0-a_
  6
CONTINUOUS
 62
    4
 10
3412.4978336205617
 20
1321.9999999999977
 11
3497.4978336205649
 21
1407.0000000000006
  0
LINE
  8
_0-a_
  6
CONTINUOUS
 62
    4
 10
3384.2135623730973
 20
1322.0000000000002
 11
3469.2135623730955
 21
1406.9999999999981
  0
LINE
  8
_0-a_
  6
CONTINUOUS
 62
    4
 10
3355.9292911256334
 20
1322.0000000000027
 11
3440.9292911256311
 21
1407.0000000000004
  0
LINE
  8
_0-a_
  6
CONTINUOUS
 62
    4
 10
3327.645019878164
 20
1322
 11
3412.6450198781676
 21
1407.0000000000029
  0
LINE
  8
_0-a_
  6
CONTINUOUS
 62
    4
 10
3299.3607486307146
 20
1321.9999999999986
 11
3384.3607486307118
 21
1406.9999999999963
  0
LINE
  8
_0-a_
  6
CONTINUOUS
 62
    4
 10
3271.0764773832497
 20
1322.0000000000009
 11
3356.0764773832479
 21
1406.9999999999986
  0
LINE
  8
_0-a_
  6
CONTINUOUS
 62
    4
 10
3242.7922061357858
 20
1322.0000000000036
 11
3327.792206135783
 21
1407.0000000000013
  0
LINE
  8
_0-a_
  6
CONTINUOUS
 62
    4
 10
3214.5079348883132
 20
1321.9999999999977
 11
3299.5079348883164
 21
1407.0000000000009
  0
LINE
  8
_0-a_
  6
CONTINUOUS
 62
    4
 10
3186.2236636408665
 20
1321.9999999999993
 11
3271.2236636408642
 21
1406.999999999997
  0
LINE
  8
_0-a_
  6
CONTINUOUS
 62
    4
 10
3157.9393923934026
 20
1322.0000000000018
 11
3242.9393923934003
 21
1407
  0
LINE
  8
_0-a_
  6
CONTINUOUS
 62
    4
 10
3129.6551211459382
 20
1322.0000000000045
 11
3214.6551211459359
 21
1407.0000000000022
  0
LINE
  8
_0-a_
  6
CONTINUOUS
 62
    4
 10
3101.3708498984633
 20
1321.9999999999961
 11
3186.3708498984665
 21
1406.9999999999993
  0
LINE
  8
_0-a_
  6
CONTINUOUS
 62
    4
 10
3073.0865786510184
 20
1322.0000000000002
 11
3158.0865786510162
 21
1406.9999999999981
  0
LINE
  8
_0-a_
  6
CONTINUOUS
 62
    4
 10
3044.8023074035545
 20
1322.0000000000027
 11
3129.8023074035522
 21
1407.0000000000004
  0
POINT
  8
_0-9_
 62
    3
 10
500
 20
1637
  0
LINE
  8
_0-9_
  6
CONTINUOUS
 62
    4
 10
500
 20
1647
 11
500
 21
1437
  0
LINE
  8
_0-3_
  6
DASHED1
 62
    2
 10
586.99999999999988
 20
1392
 11
619.99426577264307
 21
1392
  0
LINE
  8
_0-4_
  6
CONTINUOUS
 62
    3
 10
505.50000000000011
 20
1402
 11
949.50000000000045
 21
1402
  0
POINT
  8
_0-9_
 62
    3
 10
1400
 20
1637
  0
LINE
  8
_0-9_
  6
CONTINUOUS
 62
    4
 10
1400
 20
1647
 11
1400
 21
1437
  0
POINT
  8
_0-9_
 62
    3
 10
1730
 20
1407
  0
LINE
  8
_0-9_
  6
CONTINUOUS
 62
    4
 10
1740
 20
1407
 11
1430
 21
1407.0000000000002
  0
LINE
  8
_0-9_
  6
CONTINUOUS
 62
    4
 10
500
 20
1637
 11
1400
 21
1637
  0
TEXT
  8
_0-9_
 62
    7
 10
916.90000000000009
 20
1637
 40
35
 41
0.6285714285714286
 50
0
  1
９００
  0
LINE
  8
_0-3_
  6
CONTINUOUS
 62
    5
 10
500
 20
1407
 11
1400
 21
1407
  0
LINE
  8
_0-4_
  6
CONTINUOUS
 62
    3
 10
950.50000000000045
 20
1402
 11
1394.5000000000004
 21
1402
  0
POINT
  8
_0-9_
 62
    3
 10
2855
 20
1637
  0
LINE
  8
_0-9_
  6
CONTINUOUS
 62
    4
 10
2855
 20
1647
 11
2855
 21
1437
  0
LINE
  8
_0-a_
  6
CONTINUOUS
 62
    4
 10
2941.5180361560901
 20
1322.000000000005
 11
3026.5180361560878
 21
1407.0000000000027
  0
LINE
  8
_0-9_
  6
CONTINUOUS
 62
    4
 10
3755
 20
1647
 11
3755
 21
1437
  0
POINT
  8
_0-9_
 62
    3
 10
3755
 20
1637
  0
LINE
  8
_0-a_
  6
CONTINUOUS
 62
    4
 10
3628.9191898578646
 20
1322.0000000000036
 11
3713.9191898578619
 21
1407.0000000000015
  0
LINE
  8
_0-a_
  6
CONTINUOUS
 62
    4
 10
3600.6349186104098
 20
1321.999999999997
 11
3685.6349186104125
 21
1407.0000000000002
  0
POINT
  8
_0-9_
 62
    3
 10
3905
 20
1407
  0
POINT
  8
_0-9_
 62
    3
 10
3905
 20
1322
  0
LINE
  8
_0-9_
  6
CONTINUOUS
 62
    4
 10
3915
 20
1407
 11
3785
 21
1407
  0
LINE
  8
_0-9_
  6
CONTINUOUS
 62
    4
 10
3915
 20
1322
 11
3785
 21
1322
  0
LINE
  8
_0-9_
  6
CONTINUOUS
 62
    4
 10
3905
 20
1407
 11
3905
 21
1322
  0
TEXT
  8
_0-9_
 62
    7
 10
3900
 20
1342.45
 40
35
 41
0.6285714285714286
 50
90
  1
８５
  0
LINE
  8
_0-9_
  6
CONTINUOUS
 62
    4
 10
2855
 20
1637
 11
3755
 21
1637
  0
TEXT
  8
_0-9_
 62
    7
 10
3271.9
 20
1637
 40
35
 41
0.6285714285714286
 50
0
  1
９００
  0
LINE
  8
_0-3_
  6
CONTINUOUS
 62
    5
 10
2855
 20
1407
 11
3755
 21
1407
  0
LINE
  8
_0-a_
  6
CONTINUOUS
 62
    4
 10
2906.5157570469359
 20
1321.9999999999961
 11
2991.5157570469386
 21
1406.9999999999993
  0
LINE
  8
_0-a_
  6
CONTINUOUS
 62
    4
 10
2878.2314857994915
 20
1322.0000000000002
 11
2963.2314857994888
 21
1406.9999999999981
  0
LINE
  8
_0-a_
  6
CONTINUOUS
 62
    4
 10
3044.802307403549
 20
1321.9999999999961
 11
3129.8023074035518
 21
1406.9999999999993
  0
LINE
  8
_0-a_
  6
CONTINUOUS
 62
    4
 10
3016.5180361561042
 20
1322.0000000000002
 11
3101.5180361561024
 21
1406.9999999999981
  0
LINE
  8
_0-a_
  6
CONTINUOUS
 62
    4
 10
2988.2337649086402
 20
1322.0000000000027
 11
3073.2337649086375
 21
1407.0000000000004
  0
LINE
  8
_0-a_
  6
CONTINUOUS
 62
    4
 10
3016.518036156101
 20
1321.9999999999961
 11
3101.5180361561037
 21
1406.9999999999993
  0
LINE
  8
_0-a_
  6
CONTINUOUS
 62
    4
 10
2988.2337649086566
 20
1322.0000000000002
 11
3073.2337649086543
 21
1406.9999999999981
  0
LINE
  8
_0-a_
  6
CONTINUOUS
 62
    4
 10
2959.9494936611922
 20
1322.0000000000027
 11
3044.9494936611899
 21
1407.0000000000004
  0
LINE
  8
_0-a_
  6
CONTINUOUS
 62
    4
 10
3600.6349186104089
 20
1321.9999999999961
 11
3685.6349186104125
 21
1406.9999999999993
  0
LINE
  8
_0-a_
  6
CONTINUOUS
 62
    4
 10
3572.3506473629649
 20
1322.0000000000002
 11
3657.3506473629631
 21
1406.9999999999981
  0
LINE
  8
_0-a_
  6
CONTINUOUS
 62
    4
 10
3544.066376115501
 20
1322.0000000000027
 11
3629.0663761154983
 21
1407.0000000000004
  0
LINE
  8
_0-a_
  6
CONTINUOUS
 62
    4
 10
3572.3506473629595
 20
1321.9999999999961
 11
3657.3506473629631
 21
1406.9999999999993
  0
LINE
  8
_0-a_
  6
CONTINUOUS
 62
    4
 10
3544.0663761155151
 20
1322.0000000000002
 11
3629.0663761155128
 21
1406.9999999999981
  0
LINE
  8
_0-a_
  6
CONTINUOUS
 62
    4
 10
3515.7821048680507
 20
1322.0000000000027
 11
3600.7821048680489
 21
1407.0000000000004
  0
LINE
  8
_0-9_
  6
CONTINUOUS
 62
    4
 10
1730
 20
792
 11
1730
 21
1407.0000000000002
  0
TEXT
  8
_0-9_
 62
    7
 10
1725
 20
1066.4
 40
35
 41
0.6285714285714286
 50
90
  1
６１５
  0
LINE
  8
_0-9_
  6
CONTINUOUS
 62
    4
 10
2493
 20
807
 11
2493
 21
1407
  0
TEXT
  8
_0-9_
 62
    7
 10
2493
 20
1073.9
 40
35
 41
0.6285714285714286
 50
90
  1
６００
  0
LINE
  8
_0-3_
  6
CONTINUOUS
 62
    5
 10
3755
 20
1407
 11
3755
 21
807
  0
LINE
  8
_0-3_
  6
CONTINUOUS
 62
    5
 10
2855
 20
1407
 11
2855
 21
807
  0
LINE
  8
_0-4_
  6
CONTINUOUS
 62
    3
 10
2082
 20
1402
 11
2082
 21
792
  0
LINE
  8
_0-3_
  6
CONTINUOUS
 62
    5
 10
500
 20
1407
 11
500
 21
807
  0
LINE
  8
_0-4_
  6
CONTINUOUS
 62
    3
 10
505.50000000000011
 20
1402
 11
505.50000000000011
 21
792
  0
LINE
  8
_0-4_
  6
CONTINUOUS
 62
    3
 10
1394.5000000000004
 20
1402
 11
1394.5000000000004
 21
792
  0
LINE
  8
_0-3_
  6
CONTINUOUS
 62
    5
 10
1400
 20
1407
 11
1400
 21
807
  0
LINE
  8
_0-4_
  6
CONTINUOUS
 62
    3
 10
949.50000000000045
 20
1402
 11
949.50000000000045
 21
792
  0
LINE
  8
_0-4_
  6
CONTINUOUS
 62
    3
 10
950.50000000000045
 20
1402
 11
950.50000000000045
 21
792
  0
LINE
  8
_0-4_
  6
CENTER1
 62
    4
 10
949.50000000000045
 20
1402
 11
505.50000000000011
 21
1097
  0
LINE
  8
_0-4_
  6
CENTER1
 62
    4
 10
505.50000000000011
 20
1097
 11
949.50000000000045
 21
792
  0
LINE
  8
_0-4_
  6
CENTER1
 62
    4
 10
950.50000000000045
 20
792
 11
1394.5000000000004
 21
1097
  0
LINE
  8
_0-4_
  6
CENTER1
 62
    4
 10
1394.5000000000004
 20
1097
 11
950.50000000000045
 21
1402
  0
LINE
  8
_0-3_
  6
CONTINUOUS
 62
    7
 10
2283
 20
807
 11
2283
 21
1407
  0
LINE
  8
_0-3_
  6
CONTINUOUS
 62
    7
 10
2268.6000000000003
 20
813.5
 11
2268.6000000000003
 21
1407
  0
LINE
  8
_0-3_
  6
CONTINUOUS
 62
    7
 10
2265
 20
813.5
 11
2265
 21
1407
  0
LINE
  8
_0-3_
  6
CONTINUOUS
 62
    7
 10
2268
 20
813.5
 11
2268
 21
1407
  0
ARC
  8
_0-0_
  6
CONTINUOUS
 62
    7
 10
2256.2320499999996
 20
1068.5
 40
1
 50
149.99999999999994
 51
269.99999999999994
  0
CIRCLE
  8
_0-0_
  6
CONTINUOUS
 62
    7
 10
2242
 20
1047
 40
1.5000000000000002
  0
LINE
  8
_0-0_
  6
CONTINUOUS
 62
    7
 10
2237
 20
1048.0688749999999
 11
2237
 21
1049
  0
LINE
  8
_0-0_
  6
CONTINUOUS
 62
    7
 10
2237
 20
1049
 11
2236.0712250000001
 21
1049.066325
  0
LINE
  8
_0-0_
  6
CONTINUOUS
 62
    7
 10
2247
 20
1047
 11
2247
 21
1048
  0
LINE
  8
_0-0_
  6
CONTINUOUS
 62
    7
 10
2248
 20
1049
 11
2260.5
 21
1049
  0
LINE
  8
_0-0_
  6
CONTINUOUS
 62
    7
 10
2237
 20
1047
 11
2237
 21
1048.0688749999999
  0
LINE
  8
_0-0_
  6
CONTINUOUS
 62
    7
 10
2236.0712250000001
 20
1049.066325
 11
2223.92875
 21
1049.9336499999999
  0
LINE
  8
_0-0_
  6
CONTINUOUS
 62
    7
 10
2223
 20
1050.9311
 11
2223
 21
1051
  0
LINE
  8
_0-0_
  6
CONTINUOUS
 62
    7
 10
2255.3660249999998
 20
1069
 11
2257.2424
 21
1072.25
  0
LINE
  8
_0-0_
  6
CONTINUOUS
 62
    7
 10
2224
 20
1052
 11
2259.5
 21
1052
  0
LINE
  8
_0-0_
  6
CONTINUOUS
 62
    7
 10
2256.2320499999996
 20
1067.5
 11
2259.5
 21
1067.5
  0
LINE
  8
_0-0_
  6
CONTINUOUS
 62
    7
 10
2260.5
 20
1066.5
 11
2260.5
 21
1053
  0
ARC
  8
_0-0_
  6
CONTINUOUS
 62
    7
 10
2260.5
 20
1052.7999999999999
 40
3.7999999999999998
 50
269.99999999999994
 51
2.5319999999999902
  0
ARC
  8
_0-0_
  6
CONTINUOUS
 62
    7
 10
2242
 20
1047
 40
5
 50
179.99999999999985
 51
359.99999999999988
  0
CIRCLE
  8
_0-0_
  6
PHANTOM2
 62
    7
 10
2242
 20
1047
 40
4.0999999999999996
  0
CIRCLE
  8
_0-0_
  6
PHANTOM2
 62
    7
 10
2242
 20
1047
 40
1.925
  0
ARC
  8
_0-0_
  6
CONTINUOUS
 62
    7
 10
2262.343225
 20
1071.5
 40
1
 50
2.531999999999964
 51
89.999999999999943
  0
ARC
  8
_0-0_
  6
CONTINUOUS
 62
    7
 10
2257.6754249999999
 20
1072
 40
0.5
 50
89.999999999999985
 51
149.99999999999997
  0
ARC
  8
_0-0_
  6
CONTINUOUS
 62
    7
 10
2248
 20
1048
 40
1
 50
89.999999999999971
 51
180
  0
ARC
  8
_0-0_
  6
CONTINUOUS
 62
    7
 10
2236
 20
1048.0688749999999
 40
1
 50
359.99999999999994
 51
85.913999999999987
  0
ARC
  8
_0-0_
  6
CONTINUOUS
 62
    7
 10
2224
 20
1050.9311
 40
1
 50
179.99999999999994
 51
265.91399999999993
  0
ARC
  8
_0-0_
  6
CONTINUOUS
 62
    7
 10
2224
 20
1051
 40
1
 50
89.999999999999971
 51
180
  0
ARC
  8
_0-0_
  6
CONTINUOUS
 62
    7
 10
2259.5
 20
1066.5
 40
1
 50
359.99999999999994
 51
89.999999999999943
  0
ARC
  8
_0-0_
  6
CONTINUOUS
 62
    7
 10
2259.5
 20
1053
 40
1
 50
269.99999999999988
 51
359.99999999999988
  0
LINE
  8
_0-0_
  6
CONTINUOUS
 62
    7
 10
2262.343225
 20
1072.5
 11
2257.6754249999999
 21
1072.5
  0
LINE
  8
_0-0_
  6
CONTINUOUS
 62
    7
 10
2264.2962749999996
 20
1052.9678499999999
 11
2263.341528050751
 21
1071.5582324553936
  0
LINE
  8
_0-0_
  6
CENTER1
 62
    7
 10
2242
 20
1047
 11
2242
 21
1040.8852721223418
  0
LINE
  8
_0-0_
  6
CENTER1
 62
    7
 10
2242
 20
1047
 11
2242
 21
1053.0974029520527
  0
LINE
  8
_0-0_
  6
CENTER1
 62
    7
 10
2241.8871379288802
 20
1047
 11
2244.5667763508122
 21
1047
  0
LINE
  8
_0-0_
  6
CENTER1
 62
    7
 10
2241.8871379288802
 20
1047
 11
2239.2218548242349
 21
1047
  0
ARC
  8
_0-0_
  6
CONTINUOUS
 62
    7
 10
2256.2320499999996
 20
1188.5
 40
1
 50
149.99999999999994
 51
269.99999999999994
  0
CIRCLE
  8
_0-0_
  6
CONTINUOUS
 62
    7
 10
2242
 20
1167
 40
1.5000000000000002
  0
LINE
  8
_0-0_
  6
CONTINUOUS
 62
    7
 10
2237
 20
1168.0688749999999
 11
2237
 21
1169
  0
LINE
  8
_0-0_
  6
CONTINUOUS
 62
    7
 10
2237
 20
1169
 11
2236.0712250000001
 21
1169.066325
  0
LINE
  8
_0-0_
  6
CONTINUOUS
 62
    7
 10
2247
 20
1167
 11
2247
 21
1168
  0
LINE
  8
_0-0_
  6
CONTINUOUS
 62
    7
 10
2248
 20
1169
 11
2260.5
 21
1169
  0
LINE
  8
_0-0_
  6
CONTINUOUS
 62
    7
 10
2237
 20
1167
 11
2237
 21
1168.0688749999999
  0
LINE
  8
_0-0_
  6
CONTINUOUS
 62
    7
 10
2236.0712250000001
 20
1169.066325
 11
2223.92875
 21
1169.9336499999999
  0
LINE
  8
_0-0_
  6
CONTINUOUS
 62
    7
 10
2223
 20
1170.9311
 11
2223
 21
1171
  0
LINE
  8
_0-0_
  6
CONTINUOUS
 62
    7
 10
2255.3660249999998
 20
1189
 11
2257.2424
 21
1192.25
  0
LINE
  8
_0-0_
  6
CONTINUOUS
 62
    7
 10
2224
 20
1172
 11
2259.5
 21
1172
  0
LINE
  8
_0-0_
  6
CONTINUOUS
 62
    7
 10
2256.2320499999996
 20
1187.5
 11
2259.5
 21
1187.5
  0
LINE
  8
_0-0_
  6
CONTINUOUS
 62
    7
 10
2260.5
 20
1186.5
 11
2260.5
 21
1173
  0
ARC
  8
_0-0_
  6
CONTINUOUS
 62
    7
 10
2260.5
 20
1172.7999999999999
 40
3.7999999999999998
 50
269.99999999999994
 51
2.5319999999999902
  0
ARC
  8
_0-0_
  6
CONTINUOUS
 62
    7
 10
2242
 20
1167
 40
5
 50
179.99999999999985
 51
359.99999999999988
  0
CIRCLE
  8
_0-0_
  6
PHANTOM2
 62
    7
 10
2242
 20
1167
 40
4.0999999999999996
  0
CIRCLE
  8
_0-0_
  6
PHANTOM2
 62
    7
 10
2242
 20
1167
 40
1.925
  0
ARC
  8
_0-0_
  6
CONTINUOUS
 62
    7
 10
2262.343225
 20
1191.5
 40
1
 50
2.531999999999964
 51
89.999999999999943
  0
ARC
  8
_0-0_
  6
CONTINUOUS
 62
    7
 10
2257.6754249999999
 20
1192
 40
0.5
 50
89.999999999999985
 51
149.99999999999997
  0
ARC
  8
_0-0_
  6
CONTINUOUS
 62
    7
 10
2248
 20
1168
 40
1
 50
89.999999999999971
 51
180
  0
ARC
  8
_0-0_
  6
CONTINUOUS
 62
    7
 10
2236
 20
1168.0688749999999
 40
1
 50
359.99999999999994
 51
85.913999999999987
  0
ARC
  8
_0-0_
  6
CONTINUOUS
 62
    7
 10
2224
 20
1170.9311
 40
1
 50
179.99999999999994
 51
265.91399999999993
  0
ARC
  8
_0-0_
  6
CONTINUOUS
 62
    7
 10
2224
 20
1171
 40
1
 50
89.999999999999971
 51
180
  0
ARC
  8
_0-0_
  6
CONTINUOUS
 62
    7
 10
2259.5
 20
1186.5
 40
1
 50
359.99999999999994
 51
89.999999999999943
  0
ARC
  8
_0-0_
  6
CONTINUOUS
 62
    7
 10
2259.5
 20
1173
 40
1
 50
269.99999999999988
 51
359.99999999999988
  0
LINE
  8
_0-0_
  6
CONTINUOUS
 62
    7
 10
2262.343225
 20
1192.5
 11
2257.6754249999999
 21
1192.5
  0
LINE
  8
_0-0_
  6
CONTINUOUS
 62
    7
 10
2264.2962749999996
 20
1172.9678499999999
 11
2263.341528050751
 21
1191.5582324553936
  0
LINE
  8
_0-0_
  6
CENTER1
 62
    7
 10
2242
 20
1167
 11
2242
 21
1160.8852721223418
  0
LINE
  8
_0-0_
  6
CENTER1
 62
    7
 10
2242
 20
1167
 11
2242
 21
1173.0974029520527
  0
LINE
  8
_0-0_
  6
CENTER1
 62
    7
 10
2241.8871379288802
 20
1167
 11
2244.5667763508122
 21
1167
  0
LINE
  8
_0-0_
  6
CENTER1
 62
    7
 10
2241.8871379288802
 20
1167
 11
2239.2218548242349
 21
1167
  0
LINE
  8
_0-6_
  6
CONTINUOUS
 62
    7
 10
2111.5
 20
1067
 11
2260.5
 21
1067
  0
LINE
  8
_0-6_
  6
CONTINUOUS
 62
    7
 10
2260.5
 20
1172
 11
2260.5
 21
1187
  0
LINE
  8
_0-6_
  6
CONTINUOUS
 62
    7
 10
2260.5
 20
1052
 11
2260.5
 21
1067
  0
LINE
  8
_0-6_
  6
CONTINUOUS
 62
    7
 10
2111.5
 20
1187
 11
2260.5
 21
1187
  0
LINE
  8
_0-6_
  6
CONTINUOUS
 62
    7
 10
2111.5
 20
1172
 11
2260.5
 21
1172
  0
LINE
  8
_0-6_
  6
CONTINUOUS
 62
    7
 10
2111.5
 20
1052
 11
2260.5
 21
1052
  0
LINE
  8
_0-9_
  6
CONTINUOUS
 62
    4
 10
2423
 20
987
 11
2313
 21
987
  0
POINT
  8
_0-9_
 62
    3
 10
2413
 20
987
  0
POINT
  8
_0-9_
 62
    3
 10
2413
 20
987
  0
LINE
  8
_0-9_
  6
CONTINUOUS
 62
    4
 10
2413
 20
987
 11
2413
 21
807
  0
TEXT
  8
_0-9_
 62
    7
 10
2413
 20
863.89999999999997
 40
35
 41
0.6285714285714286
 50
90
  1
１８０
  0
POINT
  8
_0-9_
 62
    3
 10
2413
 20
987
  0
POINT
  8
_0-9_
 62
    3
 10
2413
 20
987
  0
LINE
  8
_0-9_
  6
CONTINUOUS
 62
    4
 10
2423
 20
1047
 11
2313
 21
1047
  0
POINT
  8
_0-9_
 62
    3
 10
2413
 20
1047
  0
POINT
  8
_0-9_
 62
    3
 10
2413
 20
1047
  0
LINE
  8
_0-9_
  6
CONTINUOUS
 62
    4
 10
2413
 20
1047
 11
2413
 21
987
  0
TEXT
  8
_0-9_
 62
    7
 10
2413
 20
994.95000000000004
 40
35
 41
0.6285714285714286
 50
90
  1
６０
  0
LINE
  8
_0-9_
  6
CONTINUOUS
 62
    4
 10
2423
 20
1047
 11
2313
 21
1047
  0
POINT
  8
_0-9_
 62
    3
 10
2413
 20
1047
  0
POINT
  8
_0-9_
 62
    3
 10
2413
 20
1047
  0
POINT
  8
_0-9_
 62
    3
 10
2413
 20
1047
  0
POINT
  8
_0-9_
 62
    3
 10
2413
 20
1047
  0
LINE
  8
_0-9_
  6
CONTINUOUS
 62
    4
 10
2423
 20
1107
 11
2313
 21
1107
  0
POINT
  8
_0-9_
 62
    3
 10
2413
 20
1107
  0
POINT
  8
_0-9_
 62
    3
 10
2413
 20
1107
  0
LINE
  8
_0-9_
  6
CONTINUOUS
 62
    4
 10
2413
 20
1107
 11
2413
 21
1047
  0
TEXT
  8
_0-9_
 62
    7
 10
2413
 20
1054.95
 40
35
 41
0.6285714285714286
 50
90
  1
６０
  0
LINE
  8
_0-9_
  6
CONTINUOUS
 62
    4
 10
2423
 20
1107
 11
2313
 21
1107
  0
POINT
  8
_0-9_
 62
    3
 10
2413
 20
1107
  0
POINT
  8
_0-9_
 62
    3
 10
2413
 20
1107
  0
POINT
  8
_0-9_
 62
    3
 10
2413
 20
1107
  0
POINT
  8
_0-9_
 62
    3
 10
2413
 20
1107
  0
LINE
  8
_0-9_
  6
CONTINUOUS
 62
    4
 10
2423
 20
1167
 11
2313
 21
1167
  0
POINT
  8
_0-9_
 62
    3
 10
2413
 20
1167
  0
POINT
  8
_0-9_
 62
    3
 10
2413
 20
1167
  0
LINE
  8
_0-9_
  6
CONTINUOUS
 62
    4
 10
2413
 20
1167
 11
2413
 21
1107
  0
TEXT
  8
_0-9_
 62
    7
 10
2413
 20
1114.95
 40
35
 41
0.6285714285714286
 50
90
  1
６０
  0
LINE
  8
_0-9_
  6
CONTINUOUS
 62
    4
 10
2423
 20
1167
 11
2313
 21
1167
  0
POINT
  8
_0-9_
 62
    3
 10
2413
 20
1167
  0
POINT
  8
_0-9_
 62
    3
 10
2413
 20
1167
  0
POINT
  8
_0-9_
 62
    3
 10
2413
 20
1167
  0
POINT
  8
_0-9_
 62
    3
 10
2413
 20
1167
  0
LINE
  8
_0-9_
  6
CONTINUOUS
 62
    4
 10
2423
 20
1227
 11
2313
 21
1227
  0
POINT
  8
_0-9_
 62
    3
 10
2413
 20
1227
  0
POINT
  8
_0-9_
 62
    3
 10
2413
 20
1227
  0
LINE
  8
_0-9_
  6
CONTINUOUS
 62
    4
 10
2413
 20
1227
 11
2413
 21
1167
  0
TEXT
  8
_0-9_
 62
    7
 10
2413
 20
1174.95
 40
35
 41
0.6285714285714286
 50
90
  1
６０
  0
LINE
  8
_0-1_
  6
DASHED1
 62
    7
 10
918.75
 20
1362.3000000000001
 11
895.75
 21
1362.3000000000001
  0
LINE
  8
_0-1_
  6
DASHED1
 62
    7
 10
907.25
 20
1379.3000000000001
 11
899.75
 21
1379.3000000000001
  0
LINE
  8
_0-1_
  6
DASHED1
 62
    7
 10
897.25
 20
1386.8000000000001
 11
897.25
 21
1381.2999999999999
  0
LINE
  8
_0-1_
  6
DASHED1
 62
    7
 10
898.75
 20
1380.8000000000001
 11
897.75
 21
1380.8000000000001
  0
LINE
  8
_0-1_
  6
DASHED1
 62
    7
 10
926.82999999999992
 20
1390.25
 11
926.8499999999999
 21
1390.25
  0
LINE
  8
_0-1_
  6
DASHED1
 62
    7
 10
889.75
 20
1372.5999999999999
 11
888.75
 21
1372.5999999999999
  0
LINE
  8
_0-1_
  6
DASHED1
 62
    7
 10
890.75
 20
1386.8000000000001
 11
898.25
 21
1386.8000000000001
  0
LINE
  8
_0-1_
  6
DASHED1
 62
    7
 10
889.75
 20
1385.8000000000001
 11
889.75
 21
1368.2999999999997
  0
LINE
  8
_0-1_
  6
DASHED1
 62
    7
 10
887.75
 20
1392
 11
887.75
 21
1373.6000000000001
  0
LINE
  8
_0-1_
  6
DASHED1
 62
    7
 10
899.25
 20
1392
 11
887.75
 21
1392
  0
LINE
  8
_0-1_
  6
DASHED1
 62
    7
 10
889.75
 20
1392
 11
889.75
 21
1387.7999999999999
  0
LINE
  8
_0-1_
  6
DASHED1
 62
    7
 10
899.25
 20
1392
 11
899.25
 21
1379.8000000000001
  0
LINE
  8
_0-1_
  6
DASHED1
 62
    7
 10
924.75
 20
1392
 11
924.75
 21
1368.2999999999997
  0
LINE
  8
_0-1_
  6
DASHED1
 62
    7
 10
915.25
 20
1392
 11
926.75
 21
1392
  0
LINE
  8
_0-1_
  6
DASHED1
 62
    7
 10
926.75
 20
1392
 11
926.75
 21
1373.6000000000001
  0
LINE
  8
_0-1_
  6
DASHED1
 62
    7
 10
924.75
 20
1372.5999999999999
 11
925.75
 21
1372.5999999999999
  0
LINE
  8
_0-1_
  6
DASHED1
 62
    7
 10
899.25
 20
1391.1000000000001
 11
915.25
 21
1391.1000000000001
  0
LINE
  8
_0-1_
  6
DASHED1
 62
    7
 10
915.25
 20
1392
 11
915.25
 21
1379.8000000000001
  0
LINE
  8
_0-1_
  6
DASHED1
 62
    7
 10
907.25
 20
1379.3000000000001
 11
914.75
 21
1379.3000000000001
  0
LINE
  8
_0-1_
  6
DASHED1
 62
    7
 10
923.75
 20
1386.8000000000001
 11
916.25
 21
1386.8000000000001
  0
LINE
  8
_0-1_
  6
DASHED1
 62
    7
 10
913.75
 20
1390.8000000000001
 11
900.75
 21
1390.8000000000001
  0
LINE
  8
_0-1_
  6
DASHED1
 62
    7
 10
904.25
 20
1386.8000000000001
 11
904.25
 21
1381.8000000000001
  0
LINE
  8
_0-1_
  6
DASHED1
 62
    7
 10
909.25
 20
1380.8000000000001
 11
905.25
 21
1380.8000000000001
  0
LINE
  8
_0-1_
  6
DASHED1
 62
    7
 10
910.25
 20
1386.8000000000001
 11
910.25
 21
1381.8000000000001
  0
LINE
  8
_0-1_
  6
DASHED1
 62
    7
 10
913.75
 20
1386.8000000000001
 11
910.25
 21
1386.8000000000001
  0
LINE
  8
_0-1_
  6
DASHED1
 62
    7
 10
904.25
 20
1386.8000000000001
 11
900.75
 21
1386.8000000000001
  0
LINE
  8
_0-1_
  6
DASHED1
 62
    7
 10
901.75
 20
1380.4038500000001
 11
901.55340000000001
 21
1380.8636000000001
  0
LINE
  8
_0-1_
  6
DASHED1
 62
    7
 10
912.75
 20
1380.4038500000001
 11
912.94659999999998
 21
1380.8636000000001
  0
LINE
  8
_0-1_
  6
DASHED1
 62
    7
 10
914.75
 20
1379.3000000000001
 11
914.75
 21
1389.8000000000001
  0
LINE
  8
_0-1_
  6
DASHED1
 62
    7
 10
899.75
 20
1379.3000000000001
 11
899.75
 21
1389.8000000000001
  0
LINE
  8
_0-1_
  6
DASHED1
 62
    7
 10
915.75
 20
1380.8000000000001
 11
916.75
 21
1380.8000000000001
  0
LINE
  8
_0-1_
  6
DASHED1
 62
    7
 10
917.25
 20
1386.8000000000001
 11
917.25
 21
1381.2999999999999
  0
LINE
  8
_0-1_
  6
DASHED1
 62
    7
 10
899.25
 20
1384.8000000000001
 11
899.75
 21
1384.8000000000001
  0
LINE
  8
_0-1_
  6
DASHED1
 62
    7
 10
899.25
 20
1383.7999999999999
 11
899.75
 21
1383.7999999999999
  0
LINE
  8
_0-1_
  6
DASHED1
 62
    7
 10
914.75
 20
1383.7999999999999
 11
915.25
 21
1383.7999999999999
  0
LINE
  8
_0-1_
  6
DASHED1
 62
    7
 10
914.75
 20
1384.8000000000001
 11
915.25
 21
1384.8000000000001
  0
LINE
  8
_0-1_
  6
DASHED1
 62
    7
 10
899.25
 20
1391.5
 11
915.25
 21
1391.5
  0
LINE
  8
_0-1_
  6
DASHED1
 62
    7
 10
907.25
 20
1362.3000000000001
 11
906.54999999999995
 21
1362.3000000000001
  0
LINE
  8
_0-1_
  6
DASHED1
 62
    7
 10
907.25
 20
1362.3000000000001
 11
907.95000000000027
 21
1362.3000000000001
  0
LINE
  8
_0-1_
  6
DASHED1
 62
    7
 10
906.75
 20
1376.2999999999999
 11
907.25
 21
1376.2999999999999
  0
LINE
  8
_0-1_
  6
DASHED1
 62
    7
 10
906.25
 20
1362.5999999999999
 11
906.25
 21
1375.8000000000001
  0
LINE
  8
_0-1_
  6
DASHED1
 62
    7
 10
908.25
 20
1362.5999999999999
 11
908.25
 21
1375.8000000000001
  0
LINE
  8
_0-1_
  6
DASHED1
 62
    7
 10
907.25
 20
1376.2999999999999
 11
907.75
 21
1376.2999999999999
  0
LINE
  8
_0-1_
  6
DASHED1
 62
    7
 10
894.5
 20
1393.8999999999998
 11
894.5
 21
1385.5
  0
LINE
  8
_0-1_
  6
DASHED1
 62
    7
 10
907.25
 20
1392.5999999999999
 11
907.25
 21
1359.6000000000001
  0
LINE
  8
_0-1_
  6
DASHED1
 62
    7
 10
920
 20
1393.8999999999998
 11
920
 21
1385.5
  0
ARC
  8
_0-1_
  6
DASHED1
 62
    7
 10
895.75
 20
1368.2999999999997
 40
6.0000000000000008
 50
180.00000000000005
 51
270.00000000000005
  0
ARC
  8
_0-1_
  6
DASHED1
 62
    7
 10
918.75
 20
1368.2999999999997
 40
6.0000000000000008
 50
270.00000000000005
 51
0.0000000000000508
  0
ARC
  8
_0-1_
  6
DASHED1
 62
    7
 10
898.25
 20
1387.7999999999999
 40
1
 50
270.00000000000005
 51
0.0000000000000508
  0
ARC
  8
_0-1_
  6
DASHED1
 62
    7
 10
890.75
 20
1387.7999999999999
 40
1
 50
180.00000000000005
 51
270.00000000000005
  0
ARC
  8
_0-1_
  6
DASHED1
 62
    7
 10
899.75
 20
1379.8000000000001
 40
0.5
 50
180.00000000000005
 51
270.00000000000005
  0
ARC
  8
_0-1_
  6
DASHED1
 62
    7
 10
898.75
 20
1381.2999999999999
 40
0.5
 50
270.00000000000005
 51
0.0000000000000508
  0
ARC
  8
_0-1_
  6
DASHED1
 62
    7
 10
897.75
 20
1381.2999999999999
 40
0.5
 50
180.00000000000005
 51
270.00000000000005
  0
ARC
  8
_0-1_
  6
DASHED1
 62
    7
 10
888.75
 20
1373.6000000000001
 40
1
 50
180.00000000000005
 51
270.00000000000005
  0
ARC
  8
_0-1_
  6
DASHED1
 62
    7
 10
890.75
 20
1385.8000000000001
 40
1
 50
90.000000000000028
 51
180.00000000000005
  0
ARC
  8
_0-1_
  6
DASHED1
 62
    7
 10
925.75
 20
1373.6000000000001
 40
1
 50
270.00000000000005
 51
0.0000000000000508
  0
ARC
  8
_0-1_
  6
DASHED1
 62
    7
 10
914.75
 20
1379.8000000000001
 40
0.5
 50
270.00000000000005
 51
0.0000000000000508
  0
ARC
  8
_0-1_
  6
DASHED1
 62
    7
 10
916.25
 20
1387.7999999999999
 40
1
 50
180.00000000000005
 51
270.00000000000005
  0
ARC
  8
_0-1_
  6
DASHED1
 62
    7
 10
923.75
 20
1387.7999999999999
 40
1
 50
270.00000000000005
 51
0.0000000000000508
  0
ARC
  8
_0-1_
  6
DASHED1
 62
    7
 10
900.75
 20
1389.8000000000001
 40
1
 50
90.000000000000028
 51
180.00000000000005
  0
ARC
  8
_0-1_
  6
DASHED1
 62
    7
 10
913.75
 20
1389.8000000000001
 40
1
 50
0
 51
90.000000000000028
  0
ARC
  8
_0-1_
  6
DASHED1
 62
    7
 10
900.75
 20
1387.7999999999999
 40
1
 50
180.00000000000005
 51
270.00000000000005
  0
ARC
  8
_0-1_
  6
DASHED1
 62
    7
 10
913.75
 20
1387.7999999999999
 40
1
 50
270.00000000000005
 51
0.0000000000000508
  0
ARC
  8
_0-1_
  6
DASHED1
 62
    7
 10
905.25
 20
1381.8000000000001
 40
1
 50
180.00000000000005
 51
270.00000000000005
  0
ARC
  8
_0-1_
  6
DASHED1
 62
    7
 10
909.25
 20
1381.8000000000001
 40
1
 50
270.00000000000005
 51
0.0000000000000508
  0
ARC
  8
_0-1_
  6
DASHED1
 62
    7
 10
915.75
 20
1381.2999999999999
 40
0.5
 50
180.00000000000005
 51
270.00000000000005
  0
ARC
  8
_0-1_
  6
DASHED1
 62
    7
 10
916.75
 20
1381.2999999999999
 40
0.5
 50
270.00000000000005
 51
0.0000000000000508
  0
ARC
  8
_0-1_
  6
DASHED1
 62
    7
 10
906.54999999999995
 20
1362.5999999999999
 40
0.2999999999999998
 50
180.00000000000005
 51
270.00000000000005
  0
ARC
  8
_0-1_
  6
DASHED1
 62
    7
 10
907.95000000000027
 20
1362.5999999999999
 40
0.2999999999999998
 50
270.00000000000005
 51
0.0000000000000508
  0
ARC
  8
_0-1_
  6
DASHED1
 62
    7
 10
906.75
 20
1375.8000000000001
 40
0.5
 50
90.000000000000028
 51
180.00000000000005
  0
ARC
  8
_0-1_
  6
DASHED1
 62
    7
 10
907.75
 20
1375.8000000000001
 40
0.5
 50
0
 51
90.000000000000028
  0
LINE
  8
_0-1_
  6
DASHED1
 62
    7
 10
1004.25
 20
1362.3000000000001
 11
981.25
 21
1362.3000000000001
  0
LINE
  8
_0-1_
  6
DASHED1
 62
    7
 10
992.74999999999954
 20
1379.3000000000001
 11
985.24999999999954
 21
1379.3000000000001
  0
LINE
  8
_0-1_
  6
DASHED1
 62
    7
 10
982.74999999999954
 20
1386.8000000000001
 11
982.74999999999954
 21
1381.2999999999999
  0
LINE
  8
_0-1_
  6
DASHED1
 62
    7
 10
984.25
 20
1380.8000000000001
 11
983.25
 21
1380.8000000000001
  0
LINE
  8
_0-1_
  6
DASHED1
 62
    7
 10
1012.3299999999999
 20
1390.25
 11
1012.3499999999999
 21
1390.25
  0
LINE
  8
_0-1_
  6
DASHED1
 62
    7
 10
975.24999999999954
 20
1372.5999999999999
 11
974.25
 21
1372.5999999999999
  0
LINE
  8
_0-1_
  6
DASHED1
 62
    7
 10
976.25
 20
1386.8000000000001
 11
983.75
 21
1386.8000000000001
  0
LINE
  8
_0-1_
  6
DASHED1
 62
    7
 10
975.24999999999954
 20
1385.8000000000001
 11
975.24999999999954
 21
1368.2999999999997
  0
LINE
  8
_0-1_
  6
DASHED1
 62
    7
 10
973.25
 20
1392
 11
973.25
 21
1373.6000000000001
  0
LINE
  8
_0-1_
  6
DASHED1
 62
    7
 10
984.75
 20
1392
 11
973.25
 21
1392
  0
LINE
  8
_0-1_
  6
DASHED1
 62
    7
 10
975.24999999999954
 20
1392
 11
975.24999999999954
 21
1387.7999999999999
  0
LINE
  8
_0-1_
  6
DASHED1
 62
    7
 10
984.75
 20
1392
 11
984.75
 21
1379.8000000000001
  0
LINE
  8
_0-1_
  6
DASHED1
 62
    7
 10
1010.2499999999995
 20
1392
 11
1010.2499999999995
 21
1368.2999999999997
  0
LINE
  8
_0-1_
  6
DASHED1
 62
    7
 10
1000.7499999999995
 20
1392
 11
1012.25
 21
1392
  0
LINE
  8
_0-1_
  6
DASHED1
 62
    7
 10
1012.25
 20
1392
 11
1012.25
 21
1373.6000000000001
  0
LINE
  8
_0-1_
  6
DASHED1
 62
    7
 10
1010.2499999999995
 20
1372.5999999999999
 11
1011.25
 21
1372.5999999999999
  0
LINE
  8
_0-1_
  6
DASHED1
 62
    7
 10
984.75
 20
1391.1000000000001
 11
1000.7499999999995
 21
1391.1000000000001
  0
LINE
  8
_0-1_
  6
DASHED1
 62
    7
 10
1000.7499999999995
 20
1392
 11
1000.7499999999995
 21
1379.8000000000001
  0
LINE
  8
_0-1_
  6
DASHED1
 62
    7
 10
992.74999999999954
 20
1379.3000000000001
 11
1000.2499999999995
 21
1379.3000000000001
  0
LINE
  8
_0-1_
  6
DASHED1
 62
    7
 10
1009.25
 20
1386.8000000000001
 11
1001.75
 21
1386.8000000000001
  0
LINE
  8
_0-1_
  6
DASHED1
 62
    7
 10
999.25
 20
1390.8000000000001
 11
986.25
 21
1390.8000000000001
  0
LINE
  8
_0-1_
  6
DASHED1
 62
    7
 10
989.75
 20
1386.8000000000001
 11
989.75
 21
1381.8000000000001
  0
LINE
  8
_0-1_
  6
DASHED1
 62
    7
 10
994.75
 20
1380.8000000000001
 11
990.75
 21
1380.8000000000001
  0
LINE
  8
_0-1_
  6
DASHED1
 62
    7
 10
995.75
 20
1386.8000000000001
 11
995.75
 21
1381.8000000000001
  0
LINE
  8
_0-1_
  6
DASHED1
 62
    7
 10
999.25
 20
1386.8000000000001
 11
995.75
 21
1386.8000000000001
  0
LINE
  8
_0-1_
  6
DASHED1
 62
    7
 10
989.75
 20
1386.8000000000001
 11
986.25
 21
1386.8000000000001
  0
LINE
  8
_0-1_
  6
DASHED1
 62
    7
 10
987.25
 20
1380.4038500000001
 11
987.05339999999978
 21
1380.8636000000001
  0
LINE
  8
_0-1_
  6
DASHED1
 62
    7
 10
998.25
 20
1380.4038500000001
 11
998.44659999999976
 21
1380.8636000000001
  0
LINE
  8
_0-1_
  6
DASHED1
 62
    7
 10
1000.2499999999995
 20
1379.3000000000001
 11
1000.2499999999995
 21
1389.8000000000001
  0
LINE
  8
_0-1_
  6
DASHED1
 62
    7
 10
985.24999999999954
 20
1379.3000000000001
 11
985.24999999999954
 21
1389.8000000000001
  0
LINE
  8
_0-1_
  6
DASHED1
 62
    7
 10
1001.25
 20
1380.8000000000001
 11
1002.25
 21
1380.8000000000001
  0
LINE
  8
_0-1_
  6
DASHED1
 62
    7
 10
1002.7499999999995
 20
1386.8000000000001
 11
1002.7499999999995
 21
1381.2999999999999
  0
LINE
  8
_0-1_
  6
DASHED1
 62
    7
 10
984.75
 20
1384.8000000000001
 11
985.24999999999954
 21
1384.8000000000001
  0
LINE
  8
_0-1_
  6
DASHED1
 62
    7
 10
984.75
 20
1383.7999999999999
 11
985.24999999999954
 21
1383.7999999999999
  0
LINE
  8
_0-1_
  6
DASHED1
 62
    7
 10
1000.2499999999995
 20
1383.7999999999999
 11
1000.7499999999995
 21
1383.7999999999999
  0
LINE
  8
_0-1_
  6
DASHED1
 62
    7
 10
1000.2499999999995
 20
1384.8000000000001
 11
1000.7499999999995
 21
1384.8000000000001
  0
LINE
  8
_0-1_
  6
DASHED1
 62
    7
 10
984.75
 20
1391.5
 11
1000.7499999999995
 21
1391.5
  0
LINE
  8
_0-1_
  6
DASHED1
 62
    7
 10
992.74999999999954
 20
1362.3000000000001
 11
992.04999999999972
 21
1362.3000000000001
  0
LINE
  8
_0-1_
  6
DASHED1
 62
    7
 10
992.74999999999954
 20
1362.3000000000001
 11
993.45000000000004
 21
1362.3000000000001
  0
LINE
  8
_0-1_
  6
DASHED1
 62
    7
 10
992.25
 20
1376.2999999999999
 11
992.74999999999954
 21
1376.2999999999999
  0
LINE
  8
_0-1_
  6
DASHED1
 62
    7
 10
991.75
 20
1362.5999999999999
 11
991.75
 21
1375.8000000000001
  0
LINE
  8
_0-1_
  6
DASHED1
 62
    7
 10
993.75
 20
1362.5999999999999
 11
993.75
 21
1375.8000000000001
  0
LINE
  8
_0-1_
  6
DASHED1
 62
    7
 10
992.74999999999954
 20
1376.2999999999999
 11
993.25
 21
1376.2999999999999
  0
LINE
  8
_0-1_
  6
DASHED1
 62
    7
 10
980
 20
1393.8999999999998
 11
980
 21
1385.5
  0
LINE
  8
_0-1_
  6
DASHED1
 62
    7
 10
992.74999999999954
 20
1392.5999999999999
 11
992.74999999999954
 21
1359.6000000000001
  0
LINE
  8
_0-1_
  6
DASHED1
 62
    7
 10
1005.5
 20
1393.8999999999998
 11
1005.5
 21
1385.5
  0
ARC
  8
_0-1_
  6
DASHED1
 62
    7
 10
981.25
 20
1368.2999999999997
 40
6.0000000000000008
 50
180.00000000000005
 51
270.00000000000005
  0
ARC
  8
_0-1_
  6
DASHED1
 62
    7
 10
1004.25
 20
1368.2999999999997
 40
6.0000000000000008
 50
270.00000000000005
 51
0.0000000000000508
  0
ARC
  8
_0-1_
  6
DASHED1
 62
    7
 10
983.75
 20
1387.7999999999999
 40
1
 50
270.00000000000005
 51
0.0000000000000508
  0
ARC
  8
_0-1_
  6
DASHED1
 62
    7
 10
976.25
 20
1387.7999999999999
 40
1
 50
180.00000000000005
 51
270.00000000000005
  0
ARC
  8
_0-1_
  6
DASHED1
 62
    7
 10
985.24999999999954
 20
1379.8000000000001
 40
0.5
 50
180.00000000000005
 51
270.00000000000005
  0
ARC
  8
_0-1_
  6
DASHED1
 62
    7
 10
984.25
 20
1381.2999999999999
 40
0.5
 50
270.00000000000005
 51
0.0000000000000508
  0
ARC
  8
_0-1_
  6
DASHED1
 62
    7
 10
983.25
 20
1381.2999999999999
 40
0.5
 50
180.00000000000005
 51
270.00000000000005
  0
ARC
  8
_0-1_
  6
DASHED1
 62
    7
 10
974.25
 20
1373.6000000000001
 40
1
 50
180.00000000000005
 51
270.00000000000005
  0
ARC
  8
_0-1_
  6
DASHED1
 62
    7
 10
976.25
 20
1385.8000000000001
 40
1
 50
90.000000000000028
 51
180.00000000000005
  0
ARC
  8
_0-1_
  6
DASHED1
 62
    7
 10
1011.25
 20
1373.6000000000001
 40
1
 50
270.00000000000005
 51
0.0000000000000508
  0
ARC
  8
_0-1_
  6
DASHED1
 62
    7
 10
1000.2499999999995
 20
1379.8000000000001
 40
0.5
 50
270.00000000000005
 51
0.0000000000000508
  0
ARC
  8
_0-1_
  6
DASHED1
 62
    7
 10
1001.75
 20
1387.7999999999999
 40
1
 50
180.00000000000005
 51
270.00000000000005
  0
ARC
  8
_0-1_
  6
DASHED1
 62
    7
 10
1009.25
 20
1387.7999999999999
 40
1
 50
270.00000000000005
 51
0.0000000000000508
  0
ARC
  8
_0-1_
  6
DASHED1
 62
    7
 10
986.25
 20
1389.8000000000001
 40
1
 50
90.000000000000028
 51
180.00000000000005
  0
ARC
  8
_0-1_
  6
DASHED1
 62
    7
 10
999.25
 20
1389.8000000000001
 40
1
 50
0
 51
90.000000000000028
  0
ARC
  8
_0-1_
  6
DASHED1
 62
    7
 10
986.25
 20
1387.7999999999999
 40
1
 50
180.00000000000005
 51
270.00000000000005
  0
ARC
  8
_0-1_
  6
DASHED1
 62
    7
 10
999.25
 20
1387.7999999999999
 40
1
 50
270.00000000000005
 51
0.0000000000000508
  0
ARC
  8
_0-1_
  6
DASHED1
 62
    7
 10
990.75
 20
1381.8000000000001
 40
1
 50
180.00000000000005
 51
270.00000000000005
  0
ARC
  8
_0-1_
  6
DASHED1
 62
    7
 10
994.75
 20
1381.8000000000001
 40
1
 50
270.00000000000005
 51
0.0000000000000508
  0
ARC
  8
_0-1_
  6
DASHED1
 62
    7
 10
1001.25
 20
1381.2999999999999
 40
0.5
 50
180.00000000000005
 51
270.00000000000005
  0
ARC
  8
_0-1_
  6
DASHED1
 62
    7
 10
1002.25
 20
1381.2999999999999
 40
0.5
 50
270.00000000000005
 51
0.0000000000000508
  0
ARC
  8
_0-1_
  6
DASHED1
 62
    7
 10
992.04999999999972
 20
1362.5999999999999
 40
0.2999999999999998
 50
180.00000000000005
 51
270.00000000000005
  0
ARC
  8
_0-1_
  6
DASHED1
 62
    7
 10
993.45000000000004
 20
1362.5999999999999
 40
0.2999999999999998
 50
270.00000000000005
 51
0.0000000000000508
  0
ARC
  8
_0-1_
  6
DASHED1
 62
    7
 10
992.25
 20
1375.8000000000001
 40
0.5
 50
90.000000000000028
 51
180.00000000000005
  0
ARC
  8
_0-1_
  6
DASHED1
 62
    7
 10
993.25
 20
1375.8000000000001
 40
0.5
 50
0
 51
90.000000000000028
  0
CIRCLE
  8
_0-3_
  6
CONTINUOUS
 62
    7
 10
2242
 20
987
 40
2.5
  0
CIRCLE
  8
_0-3_
  6
CONTINUOUS
 62
    7
 10
2242
 20
1047
 40
2.5
  0
CIRCLE
  8
_0-3_
  6
CONTINUOUS
 62
    7
 10
2242
 20
1107
 40
2.5
  0
CIRCLE
  8
_0-3_
  6
CONTINUOUS
 62
    7
 10
2242
 20
1167
 40
2.5
  0
CIRCLE
  8
_0-3_
  6
CONTINUOUS
 62
    7
 10
2242
 20
1227
 40
2.5
  0
CIRCLE
  8
_0-3_
  6
CONTINUOUS
 62
    7
 10
2242
 20
1227
 40
2.5
  0
LINE
  8
_0-3_
  6
CENTER2
 62
    4
 10
2232
 20
1227
 11
2254.5
 21
1227
  0
LINE
  8
_0-3_
  6
CENTER2
 62
    4
 10
2242
 20
1237
 11
2242
 21
1217
  0
CIRCLE
  8
_0-3_
  6
CONTINUOUS
 62
    7
 10
2242
 20
1167
 40
2.5
  0
LINE
  8
_0-3_
  6
CENTER2
 62
    4
 10
2232
 20
1167
 11
2254.5
 21
1167
  0
LINE
  8
_0-3_
  6
CENTER2
 62
    4
 10
2242
 20
1177
 11
2242
 21
1157
  0
CIRCLE
  8
_0-3_
  6
CONTINUOUS
 62
    7
 10
2242
 20
1107
 40
2.5
  0
LINE
  8
_0-3_
  6
CENTER2
 62
    4
 10
2232
 20
1107
 11
2254.5
 21
1107
  0
LINE
  8
_0-3_
  6
CENTER2
 62
    4
 10
2242
 20
1117
 11
2242
 21
1097
  0
CIRCLE
  8
_0-3_
  6
CONTINUOUS
 62
    7
 10
2242
 20
1047
 40
2.5
  0
LINE
  8
_0-3_
  6
CENTER2
 62
    4
 10
2232
 20
1047
 11
2254.5
 21
1047
  0
LINE
  8
_0-3_
  6
CENTER2
 62
    4
 10
2242
 20
1057
 11
2242
 21
1037
  0
CIRCLE
  8
_0-3_
  6
CONTINUOUS
 62
    7
 10
2242
 20
987
 40
2.5
  0
LINE
  8
_0-3_
  6
CENTER2
 62
    4
 10
2232
 20
987
 11
2254.5
 21
987
  0
LINE
  8
_0-3_
  6
CENTER2
 62
    4
 10
2242
 20
997
 11
2242
 21
977
  0
ARC
  8
_0-0_
  6
CONTINUOUS
 62
    7
 10
2241.8871379288802
 20
1047
 40
7.0000000000000017
 50
45.585000000000007
 51
134.41500000000002
  0
ARC
  8
_0-0_
  6
CONTINUOUS
 62
    7
 10
2241.8871379288802
 20
1047
 40
11
 50
27.036000000000012
 51
152.96400000000005
  0
ARC
  8
_0-0_
  6
CONTINUOUS
 62
    7
 10
2242
 20
1167
 40
7.0000000000000017
 50
45.585000000000007
 51
134.41500000000002
  0
ARC
  8
_0-0_
  6
CONTINUOUS
 62
    7
 10
2242
 20
1167
 40
11
 50
27.036000000000012
 51
152.96400000000005
  0
TEXT
  8
_e-0_
 62
    7
 10
1660.8191489361702
 20
138.47851939943552
 40
45
 41
0.6666666666666666
 50
0
  1
ＳＴＯ－９０ＥＮ
  0
TEXT
  8
_e-0_
 62
    7
 10
3042.9999999999995
 20
142.5
 40
35
 41
0.5714285714285711
 50
0
  1
２０２３．０５．０１
  0
TEXT
  8
_e-0_
 62
    7
 10
3582
 20
145
 40
30
 41
0.733333333333333
 50
0
  1
Ｔ．Ｋ
  0
LINE
  8
_f-8_
  6
CONTINUOUS
 62
    7
 10
2243.7859302690862
 20
199.51965480360598
 11
2272.9339284698526
 21
210.12865853712995
  0
LINE
  8
_f-8_
  6
CONTINUOUS
 62
    7
 10
2237.6336615052869
 20
191.95952323799758
 11
2287.5529504706664
 21
210.12865853712895
  0
LINE
  8
_f-8_
  6
CONTINUOUS
 62
    7
 10
2234.2067375789874
 20
185.39133607135255
 11
2263.8643430051365
 21
196.18582166608263
  0
LINE
  8
_f-8_
  6
CONTINUOUS
 62
    7
 10
2232.2119570371696
 20
179.34440646785787
 11
2253.9586582709303
 21
187.25955841042662
  0
LINE
  8
_f-8_
  6
CONTINUOUS
 62
    7
 10
2231.2024514117433
 20
173.65608760649877
 11
2249.4574587956462
 21
180.3003669205492
  0
LINE
  8
_f-8_
  6
CONTINUOUS
 62
    7
 10
2230.9649088875535
 20
168.248740335938
 11
2249.3748102388385
 21
174.94939644358311
  0
LINE
  8
_f-8_
  6
CONTINUOUS
 62
    7
 10
2231.3837497438626
 20
163.08029707814966
 11
2249.8286640768283
 21
169.79369686893903
  0
LINE
  8
_f-8_
  6
CONTINUOUS
 62
    7
 10
2232.3950068941753
 20
158.12747571767488
 11
2251.269568818267
 21
164.99725444285843
  0
LINE
  8
_f-8_
  6
CONTINUOUS
 62
    7
 10
2233.9675550564961
 20
153.37894757832998
 11
2253.6625167678698
 21
160.54732740628253
  0
LINE
  8
_f-8_
  6
CONTINUOUS
 62
    7
 10
2236.0955302019183
 20
148.83257832814223
 11
2257.099910488102
 21
156.47754754152117
  0
LINE
  8
_f-8_
  6
CONTINUOUS
 62
    7
 10
2238.7970089264299
 20
144.49494730998821
 11
2261.880116002736
 21
152.89651120014326
  0
LINE
  8
_f-8_
  6
CONTINUOUS
 62
    7
 10
2242.1181877425701
 20
140.38286867935909
 11
2268.9468388985251
 21
150.14769912563821
  0
LINE
  8
_f-8_
  6
CONTINUOUS
 62
    7
 10
2246.1455691824353
 20
136.52782678312661
 11
2284.5651405528205
 21
150.51140717521263
  0
LINE
  8
_f-8_
  6
CONTINUOUS
 62
    7
 10
2251.0351047702797
 20
132.98658333410969
 11
2279.1844822576495
 21
143.2321188526356
  0
LINE
  8
_f-8_
  6
CONTINUOUS
 62
    7
 10
2279.5849322183671
 20
201.90764820482513
 11
2302.1719724714803
 21
210.12865853713066
  0
LINE
  8
_f-8_
  6
CONTINUOUS
 62
    7
 10
2260.5624543087296
 20
189.663143601351
 11
2313.0511299164636
 21
208.76745915862059
  0
LINE
  8
_f-8_
  6
CONTINUOUS
 62
    7
 10
2273.0696188494734
 20
188.89449034687174
 11
2313.0511299164636
 21
203.44657029624102
  0
LINE
  8
_f-8_
  6
CONTINUOUS
 62
    7
 10
2287.6886408502887
 20
188.89449034687174
 11
2313.0511299164636
 21
198.12568143386158
  0
LINE
  8
_f-8_
  6
CONTINUOUS
 62
    7
 10
2291.8751463425487
 20
185.09736486926669
 11
2313.0511299164636
 21
192.80479257148215
  0
LINE
  8
_f-8_
  6
CONTINUOUS
 62
    7
 10
2291.8751463425487
 20
179.77647600688726
 11
2313.0511299164636
 21
187.48390370910215
  0
LINE
  8
_f-8_
  6
CONTINUOUS
 62
    7
 10
2291.8751463425487
 20
174.45558714450783
 11
2313.0511299164636
 21
182.16301484672271
  0
LINE
  8
_f-8_
  6
CONTINUOUS
 62
    7
 10
2291.8751463425487
 20
169.13469828212839
 11
2313.0511299164636
 21
176.84212598434328
  0
LINE
  8
_f-8_
  6
CONTINUOUS
 62
    7
 10
2291.8008475696451
 20
163.78676687796939
 11
2313.0511299164636
 21
171.52123712196384
  0
LINE
  8
_f-8_
  6
CONTINUOUS
 62
    7
 10
2290.6539909363364
 20
158.04845633809463
 11
2313.0511299164636
 21
166.20034825958413
  0
LINE
  8
_f-8_
  6
CONTINUOUS
 62
    7
 10
2288.3949962857823
 20
151.90536066354695
 11
2313.0511299164636
 21
160.87945939720469
  0
LINE
  8
_f-8_
  6
CONTINUOUS
 62
    7
 10
2284.4003861827632
 20
145.13055262616916
 11
2311.8608666367176
 21
155.12535013005759
  0
LINE
  8
_f-8_
  6
CONTINUOUS
 62
    7
 10
2275.7463468865153
 20
136.65985105378524
 11
2309.0387712913652
 21
148.77730256370853
  0
LINE
  8
_f-8_
  6
CONTINUOUS
 62
    7
 10
2266.9791201478205
 20
128.14795262145821
 11
2304.1703780821812
 21
141.68446348448242
  0
LINE
  8
_f-8_
  6
CONTINUOUS
 62
    7
 10
2282.1376414569663
 20
128.34431431109749
 11
2292.7244583873175
 21
132.19760054937069
  0
LINE
  8
_f-8_
  6
CONTINUOUS
 62
    3
 10
2266.4464672734898
 20
197.56612819678281
 11
2262.3244734593249
 21
194.75680664380121
  0
LINE
  8
_f-8_
  6
CONTINUOUS
 62
    3
 10
2282.3868421919432
 20
128.14795262145651
 11
2266.9204010401704
 21
128.14795262145651
  0
ARC
  8
_f-8_
  6
CONTINUOUS
 62
    3
 10
2282.3868421919432
 20
133.14795262145651
 40
5
 50
270
 51
286.20399351045659
  0
LINE
  8
_f-8_
  6
CONTINUOUS
 62
    3
 10
2313.2288608412613
 20
210.12865853712895
 11
2313.2288608412613
 21
159.77346730566921
  0
ARC
  8
_f-8_
  6
CONTINUOUS
 62
    3
 10
2271.9221657766447
 20
169.15823653484835
 40
42.5
 50
286.20399351045648
 51
345.50707147989851
  0
ARC
  8
_f-8_
  6
CONTINUOUS
 62
    3
 10
2308.2288608412613
 20
159.77346730566921
 40
5
 50
345.50707147989879
 51
0.0000000000000159
  0
ARC
  8
_f-8_
  6
CONTINUOUS
 62
    3
 10
2250.0927387377205
 20
170.4956084628958
 40
40
 50
279.71265316664215
 51
332.69093929010892
  0
ARC
  8
_f-8_
  6
CONTINUOUS
 62
    3
 10
2255.9974857549714
 20
135.99729020443191
 40
5
 50
241.9452628118
 51
279.71265316664221
  0
ARC
  8
_f-8_
  6
CONTINUOUS
 62
    3
 10
2263.2643122966178
 20
205.12865853712895
 40
5
 50
90
 51
106.05338143786268
  0
LINE
  8
_f-8_
  6
CONTINUOUS
 62
    3
 10
2288.4334989152221
 20
210.12865853712881
 11
2278.2181989551913
 21
205.24067691222057
  0
LINE
  8
_f-8_
  6
CONTINUOUS
 62
    3
 10
2278.2181989551913
 20
205.24067691222057
 11
2272.2994583375816
 21
201.4444897898403
  0
LINE
  8
_f-8_
  6
CONTINUOUS
 62
    3
 10
2266.4464672734898
 20
197.56612819678252
 11
2272.2994583375816
 21
201.4444897898403
  0
ARC
  8
_f-8_
  6
CONTINUOUS
 62
    3
 10
2263.2643122966178
 20
205.12865853712895
 40
5
 50
90
 51
106.05338143786268
  0
ARC
  8
_f-8_
  6
CONTINUOUS
 62
    3
 10
2263.2643122966178
 20
205.12865853712895
 40
5
 50
90
 51
106.05338143786268
  0
LINE
  8
_f-8_
  6
CONTINUOUS
 62
    3
 10
2288.4334989152221
 20
210.12865853712895
 11
2263.2643122966178
 21
210.12865853712895
  0
ARC
  8
_f-8_
  6
CONTINUOUS
 62
    3
 10
2273.6342932765642
 20
169.09099082020304
 40
42.5
 50
106.05338143786268
 51
241.94526281180051
  0
ARC
  8
_f-8_
  6
CONTINUOUS
 62
    3
 10
2263.2643122966178
 20
205.12865853712895
 40
5
 50
90
 51
106.05338143786268
  0
LINE
  8
_f-8_
  6
CONTINUOUS
 62
    3
 10
2299.1719829458552
 20
210.12865853712895
 11
2313.2288608412613
 21
210.12865853712895
  0
ARC
  8
_f-8_
  6
CONTINUOUS
 62
    3
 10
2299.1719829458552
 20
205.12865853712895
 40
5
 50
90
 51
112.84552721528325
  0
LINE
  8
_f-8_
  6
CONTINUOUS
 62
    3
 10
2292.0528772673465
 20
188.89449034687004
 11
2269.0173546029673
 21
188.89449034687004
  0
ARC
  8
_f-8_
  6
CONTINUOUS
 62
    3
 10
2269.0173546029673
 20
183.89449034687004
 40
5
 50
90
 51
110.93110431809542
  0
ARC
  8
_f-8_
  6
CONTINUOUS
 62
    3
 10
2254.2292662802574
 20
177.70386452217394
 40
0.5
 50
165.368776721252
 51
224.67319701305797
  0
LINE
  8
_f-8_
  6
CONTINUOUS
 62
    3
 10
2253.8737020580624
 20
177.3523334653737
 11
2253.6837582739271
 21
177.54445650133447
  0
ARC
  8
_f-8_
  6
CONTINUOUS
 62
    3
 10
2276.1622566207875
 20
165.2142768803236
 40
25
 50
110.93110431809527
 51
150.17701829297229
  0
ARC
  8
_f-8_
  6
CONTINUOUS
 62
    3
 10
2254.0393224961217
 20
177.89598755813472
 40
0.5
 50
224.67319701305652
 51
330.17701829297561
  0
LINE
  8
_f-8_
  6
CONTINUOUS
 62
    3
 10
2297.2307430642558
 20
209.73643324104926
 11
2283.5233941157548
 21
203.96157353985984
  0
LINE
  8
_f-8_
  6
CONTINUOUS
 62
    3
 10
2283.5233941157548
 20
203.96157353985984
 11
2277.114528385443
 21
200.4613679180602
  0
ARC
  8
_f-8_
  6
CONTINUOUS
 62
    3
 10
2277.9347719955744
 20
171.51524603489747
 40
25
 50
126.05682261028302
 51
165.36877672125814
  0
ARC
  8
_f-8_
  6
CONTINUOUS
 62
    3
 10
2322.0287923520791
 20
111.11536133502738
 40
100
 50
116.68868989749238
 51
126.03335467187628
  0
LINE
  8
_f-8_
  6
CONTINUOUS
 62
    3
 10
2262.3244734593245
 20
194.75680664380149
 11
2254.3560414411385
 21
187.50185893935451
  0
LINE
  8
_f-8_
  6
CONTINUOUS
 62
    3
 10
2254.3560414411385
 20
187.50185893935451
 11
2252.5108960046536
 21
185.36863764275494
  0
ARC
  8
_f-8_
  6
CONTINUOUS
 62
    3
 10
2274.5493829743445
 20
174.5520307550089
 40
25
 50
169.07329675873063
 51
296.32138326661799
  0
LINE
  8
_f-8_
  6
CONTINUOUS
 62
    3
 10
2252.5108960046541
 20
185.36863764275494
 11
2250.002621066113
 21
179.29085759512361
  0
LINE
  8
_f-8_
  6
CONTINUOUS
 62
    3
 10
2292.0528772673465
 20
188.89449034687004
 11
2292.0528772673465
 21
164.42425885831653
  0
ARC
  8
_f-8_
  6
CONTINUOUS
 62
    3
 10
2277.2840925230507
 20
144.13090983307199
 40
5
 50
311.4163090429962
 51
326.13300916724881
  0
ARC
  8
_f-8_
  6
CONTINUOUS
 62
    3
 10
2252.285941088533
 20
168.73596234419835
 40
40
 50
316.78132524618342
 51
353.81191653224226
  0
ARC
  8
_f-8_
  6
CONTINUOUS
 62
    3
 10
2240.9001979970053
 20
185.376663785662
 40
60
 50
294.69555798319504
 51
311.41630904299643
  0
ARC
  8
_f-8_
  6
CONTINUOUS
 62
    3
 10
2271.9268153318698
 20
202.98067150791609
 40
75
 50
264.68313230529076
 51
266.17253517307824
  0
ARC
  8
_f-8_
  6
CONTINUOUS
 62
    3
 10
2265.0233680716155
 20
128.80121063143832
 40
0.5
 50
174.02086603460466
 51
264.68313230528985
  0
ARC
  8
_f-8_
  6
CONTINUOUS
 62
    3
 10
2267.0124878650103
 20
128.59287809071872
 40
2.5
 50
114.69555798319522
 51
174.02086603461154
  0
LINE
  8
_f-8_
  6
CONTINUOUS
 62
    7
 10
2376.8899919095943
 20
169.43032024062034
 11
2388.2618909747961
 21
173.56935300743344
  0
LINE
  8
_f-8_
  6
CONTINUOUS
 62
    3
 10
2436.2585234464268
 20
162.63312492519389
 11
2436.2585234464268
 21
136.49018622829544
  0
CIRCLE
  8
_f-8_
  6
CONTINUOUS
 62
    3
 10
2365.5167430510387
 20
162.46293449130519
 40
13.33773795583065
  0
CIRCLE
  8
_f-8_
  6
CONTINUOUS
 62
    3
 10
2365.2330256036634
 20
162.17921704393006
 40
25.691707563897665
  0
LINE
  8
_f-8_
  6
CONTINUOUS
 62
    3
 10
2399.4939617252575
 20
188.26250382114977
 11
2399.4939617252575
 21
136.49018622829544
  0
LINE
  8
_f-8_
  6
CONTINUOUS
 62
    3
 10
2399.4939617252575
 20
136.49018622829544
 11
2414.856930753669
 21
136.49018622829544
  0
LINE
  8
_f-8_
  6
CONTINUOUS
 62
    3
 10
2414.856930753669
 20
136.49018622829544
 11
2414.856930753669
 21
172.63312492519389
  0
LINE
  8
_f-8_
  6
CONTINUOUS
 62
    3
 10
2451.1774760289304
 20
136.49018622829544
 11
2436.2585234464268
 21
136.49018622829544
  0
LINE
  8
_f-8_
  6
CONTINUOUS
 62
    3
 10
2426.2585234464268
 20
172.63312492519389
 11
2414.856930753669
 21
172.63312492519389
  0
ARC
  8
_f-8_
  6
CONTINUOUS
 62
    3
 10
2426.2585234464268
 20
162.63312492519389
 40
10
 50
0
 51
90
  0
LINE
  8
_f-8_
  6
CONTINUOUS
 62
    3
 10
2426.1774760289299
 20
188.26250382114977
 11
2399.4939617252575
 21
188.26250382114977
  0
LINE
  8
_f-8_
  6
CONTINUOUS
 62
    3
 10
2451.1774760289304
 20
163.26250382114977
 11
2451.1774760289304
 21
136.49018622829544
  0
ARC
  8
_f-8_
  6
CONTINUOUS
 62
    3
 10
2426.1774760289299
 20
163.26250382114977
 40
25
 50
0
 51
90
  0
ARC
  8
_f-8_
  6
CONTINUOUS
 62
    3
 10
2486.2452606175233
 20
162.17653762406428
 40
13.33773795583065
 50
23.422555400004949
 51
97.191484740792631
  0
LINE
  8
_f-8_
  6
CONTINUOUS
 62
    3
 10
2474.0065761310629
 20
167.47841048365671
 11
2498.4839451039833
 21
167.47841048365671
  0
ARC
  8
_f-8_
  6
CONTINUOUS
 62
    3
 10
2486.2452606175233
 20
162.17653762406428
 40
13.33773795583065
 50
92.530763017635237
 51
156.57744459999506
  0
ARC
  8
_f-8_
  6
CONTINUOUS
 62
    3
 10
2486.2452606175233
 20
162.17653762406428
 40
13.33773795583065
 50
204.21097500392608
 51
316.0067678116265
  0
LINE
  8
_f-8_
  6
CONTINUOUS
 62
    3
 10
2474.0806890359867
 20
156.70676139316753
 11
2511.5200753562385
 21
156.70676139316753
  0
LINE
  8
_f-8_
  6
CONTINUOUS
 62
    3
 10
2495.8407207162626
 20
152.91249966689292
 11
2508.7092412098891
 21
149.78943472664496
  0
ARC
  8
_f-8_
  6
CONTINUOUS
 62
    3
 10
2486.5655867677851
 20
162.8171899245882
 40
25.691707563897665
 50
346.24110979921471
 51
329.53046432565093
  0
ARC
  8
_f-8_
  6
CONTINUOUS
 62
    3
 10
2546.5135590423406
 20
162.14309845353909
 40
11.089756641867943
 50
94.502189492040685
 51
357.22978420280037
  0
LINE
  8
_f-8_
  6
CONTINUOUS
 62
    3
 10
2556.5903561511468
 20
173.19863581905565
 11
2545.6430442891501
 21
173.19863581905565
  0
LINE
  8
_f-8_
  6
CONTINUOUS
 62
    3
 10
2557.5903561511468
 20
172.19863581905599
 11
2557.5903561511468
 21
161.60712439988742
  0
ARC
  8
_f-8_
  6
CONTINUOUS
 62
    3
 10
2556.5903561511468
 20
172.19863581905599
 40
1
 50
0
 51
90
  0
LINE
  8
_f-8_
  6
CONTINUOUS
 62
    3
 10
2548.9703457355517
 20
188.29058742736094
 11
2557.3930775458175
 21
188.29058742736094
  0
ARC
  8
_f-8_
  6
CONTINUOUS
 62
    3
 10
2546.9662856612039
 20
162.67716163604518
 40
25.691707563897665
 50
85.526146014136969
 51
347.40557840019874
  0
LINE
  8
_f-8_
  6
CONTINUOUS
 62
    3
 10
2557.3930775458175
 20
209.12865853712901
 11
2557.3930775458175
 21
188.29058742736094
  0
ARC
  8
_f-8_
  6
CONTINUOUS
 62
    3
 10
2558.3930775458175
 20
209.12865853712901
 40
1
 50
90
 51
180
  0
LINE
  8
_f-8_
  6
CONTINUOUS
 62
    3
 10
2572.0397992563612
 20
209.12865853712901
 11
2572.0397992563612
 21
157.07513043814088
  0
LINE
  8
_f-8_
  6
CONTINUOUS
 62
    3
 10
2571.0397992563616
 20
210.12865853712895
 11
2558.3930775458175
 21
210.12865853712895
  0
ARC
  8
_f-8_
  6
CONTINUOUS
 62
    3
 10
2571.0397992563616
 20
209.12865853712901
 40
1
 50
0
 51
90
  0
CIRCLE
  8
_f-8_
  6
CONTINUOUS
 62
    3
 10
2607.4932845795829
 20
162.61858771142584
 40
13.33773795583065
  0
CIRCLE
  8
_f-8_
  6
CONTINUOUS
 62
    3
 10
2607.2095671322085
 20
162.334870264051
 40
25.691707563897665
  0
ARC
  8
_f-8_
  6
CONTINUOUS
 62
    3
 10
2361.3056445788688
 20
183.56108960512415
 40
5
 50
90
 51
106.05338143786268
  0
ARC
  8
_f-8_
  6
CONTINUOUS
 62
    3
 10
2361.3056445788688
 20
183.56108960512415
 40
5
 50
90
 51
106.05338143786268
  0
ARC
  8
_f-8_
  6
CONTINUOUS
 62
    3
 10
2361.3056445788688
 20
183.56108960512415
 40
5
 50
90
 51
106.05338143786268
  0
ARC
  8
_f-8_
  6
CONTINUOUS
 62
    3
 10
2361.3056445788688
 20
183.56108960512415
 40
5
 50
90
 51
106.05338143786268
  0
LINE
  8
_f-8_
  6
CONTINUOUS
 62
    7
 10
2346.3470804331013
 20
179.59716504486777
 11
2368.5044577934554
 21
187.66179087344028
  0
LINE
  8
_f-8_
  6
CONTINUOUS
 62
    7
 10
2361.2415063076145
 20
179.69740385729494
 11
2376.5205845613304
 21
185.25853354867166
  0
LINE
  8
_f-8_
  6
CONTINUOUS
 62
    7
 10
2341.7511550984831
 20
172.60349616177705
 11
2361.2415063076145
 21
179.69740385729494
  0
LINE
  8
_f-8_
  6
CONTINUOUS
 62
    7
 10
2339.9278406436087
 20
166.61897511011602
 11
2357.2356669233163
 21
172.91850869577984
  0
LINE
  8
_f-8_
  6
CONTINUOUS
 62
    7
 10
2339.5613566552269
 20
161.16469698463049
 11
2352.6357267551816
 21
165.92337853279389
  0
LINE
  8
_f-8_
  6
CONTINUOUS
 62
    7
 10
2340.2704529847874
 20
156.10189807943811
 11
2352.3257797311662
 21
160.489678179473
  0
LINE
  8
_f-8_
  6
CONTINUOUS
 62
    7
 10
2341.9204823498939
 20
151.38157079162255
 11
2353.9794571535694
 21
155.77067867592631
  0
LINE
  8
_f-8_
  6
CONTINUOUS
 62
    7
 10
2344.504128974107
 20
147.00105239631881
 11
2357.564943671171
 21
151.75480018131679
  0
LINE
  8
_f-8_
  6
CONTINUOUS
 62
    7
 10
2348.1361647674011
 20
143.00211645248765
 11
2364.9879954656798
 21
149.13568121955449
  0
LINE
  8
_f-8_
  6
CONTINUOUS
 62
    7
 10
2353.1501292054063
 20
139.50616140121155
 11
2375.2534753949121
 21
147.55112149187283
  0
LINE
  8
_f-8_
  6
CONTINUOUS
 62
    7
 10
2360.6217579801264
 20
136.90472301431668
 11
2375.3071030149835
 21
142.24975148693374
  0
LINE
  8
_f-8_
  6
CONTINUOUS
 62
    7
 10
2375.3071030149835
 20
142.24975148693374
 11
2385.0115931457403
 21
145.78189703325932
  0
LINE
  8
_f-8_
  6
CONTINUOUS
 62
    7
 10
2374.4001538198344
 20
147.24053783828736
 11
2389.063020487204
 21
152.57738485422379
  0
LINE
  8
_f-8_
  6
CONTINUOUS
 62
    7
 10
2374.4883804748506
 20
152.59353857696169
 11
2390.6567834919524
 21
158.47835601080646
  0
LINE
  8
_f-8_
  6
CONTINUOUS
 62
    7
 10
2378.4912308361026
 20
159.37134582305873
 11
2390.8686178519897
 21
163.87634627483464
  0
LINE
  8
_f-8_
  6
CONTINUOUS
 62
    7
 10
2378.6565159204478
 20
164.75239353630797
 11
2390.0320630429459
 21
168.89275408738967
  0
LINE
  8
_f-8_
  6
CONTINUOUS
 62
    7
 10
2365.1397018509305
 20
175.7953421400316
 11
2381.7641004494612
 21
181.84612839247364
  0
LINE
  8
_f-8_
  6
CONTINUOUS
 62
    7
 10
2373.159843452322
 20
173.39354609515908
 11
2385.5507858710998
 21
177.90348031010012
  0
LINE
  8
_f-8_
  6
CONTINUOUS
 62
    7
 10
2399.4939617252575
 20
182.97838129215278
 11
2414.0119690553087
 21
188.26250382114977
  0
LINE
  8
_f-8_
  6
CONTINUOUS
 62
    7
 10
2399.4939617252575
 20
177.65749242977335
 11
2428.3670442872125
 21
188.16643505383524
  0
LINE
  8
_f-8_
  6
CONTINUOUS
 62
    7
 10
2399.4939617252575
 20
172.33660356739392
 11
2436.7743097980664
 21
185.90554058897964
  0
LINE
  8
_f-8_
  6
CONTINUOUS
 62
    7
 10
2399.4939617252575
 20
167.01571470501448
 11
2442.1110032081055
 21
182.52704927725858
  0
LINE
  8
_f-8_
  6
CONTINUOUS
 62
    7
 10
2399.4939617252575
 20
161.69482584263505
 11
2414.856930753669
 21
167.28648927893004
  0
LINE
  8
_f-8_
  6
CONTINUOUS
 62
    7
 10
2428.7090082786239
 20
172.32823318076128
 11
2445.9244086202584
 21
178.5941264760919
  0
LINE
  8
_f-8_
  6
CONTINUOUS
 62
    7
 10
2399.4939617252575
 20
156.37393698025562
 11
2414.856930753669
 21
161.96560041655061
  0
LINE
  8
_f-8_
  6
CONTINUOUS
 62
    7
 10
2403.3398935234458
 20
136.49018622829544
 11
2414.856930753669
 21
140.68204496703231
  0
LINE
  8
_f-8_
  6
CONTINUOUS
 62
    7
 10
2399.4939617252575
 20
140.41127039311675
 11
2414.856930753669
 21
146.00293382941202
  0
LINE
  8
_f-8_
  6
CONTINUOUS
 62
    7
 10
2399.4939617252575
 20
145.73215925549646
 11
2414.856930753669
 21
151.32382269179146
  0
LINE
  8
_f-8_
  6
CONTINUOUS
 62
    7
 10
2399.4939617252575
 20
151.0530481178759
 11
2414.856930753669
 21
156.64471155417118
  0
LINE
  8
_f-8_
  6
CONTINUOUS
 62
    7
 10
2436.2585234464268
 20
159.113365397844
 11
2451.1774760289304
 21
164.5434200643038
  0
LINE
  8
_f-8_
  6
CONTINUOUS
 62
    7
 10
2436.2585234464268
 20
153.79247653546485
 11
2451.1774760289304
 21
159.22253120192465
  0
LINE
  8
_f-8_
  6
CONTINUOUS
 62
    7
 10
2436.105047565391
 20
164.37839360784892
 11
2450.3687179376247
 21
169.56994505472636
  0
LINE
  8
_f-8_
  6
CONTINUOUS
 62
    7
 10
2436.2585234464268
 20
148.47158767308542
 11
2451.1774760289304
 21
153.90164233954521
  0
LINE
  8
_f-8_
  6
CONTINUOUS
 62
    7
 10
2436.2585234464268
 20
143.1506988107057
 11
2451.1774760289304
 21
148.5807534771655
  0
LINE
  8
_f-8_
  6
CONTINUOUS
 62
    7
 10
2436.2585234464268
 20
137.82980994832598
 11
2451.1774760289304
 21
143.25986461478606
  0
LINE
  8
_f-8_
  6
CONTINUOUS
 62
    7
 10
2447.1969595258929
 20
136.49018622829544
 11
2451.1774760289304
 21
137.93897575240634
  0
LINE
  8
_f-8_
  6
CONTINUOUS
 62
    7
 10
2434.0189024056153
 20
168.93998772771169
 11
2448.6296862431445
 21
174.25787814386978
  0
LINE
  8
_f-8_
  6
CONTINUOUS
 62
    7
 10
2469.1883842563338
 20
181.74063227593791
 11
2487.7135419125711
 21
188.48323824789645
  0
LINE
  8
_f-8_
  6
CONTINUOUS
 62
    7
 10
2463.6316388937825
 20
174.39725350219305
 11
2496.6904887083792
 21
186.42969081378254
  0
LINE
  8
_f-8_
  6
CONTINUOUS
 62
    7
 10
2461.4628990865917
 20
168.28700790412767
 11
2502.2794299488264
 21
183.14301020398858
  0
LINE
  8
_f-8_
  6
CONTINUOUS
 62
    7
 10
2461.4992419870632
 20
162.97934677574687
 11
2473.9894671720021
 21
167.52541696234658
  0
LINE
  8
_f-8_
  6
CONTINUOUS
 62
    7
 10
2492.1508316310541
 20
174.13561303910114
 11
2506.2885679576884
 21
179.28132824190015
  0
LINE
  8
_f-8_
  6
CONTINUOUS
 62
    7
 10
2496.6927278595248
 20
170.46783921101109
 11
2509.1784918759253
 21
175.01228566505261
  0
LINE
  8
_f-8_
  6
CONTINUOUS
 62
    7
 10
2463.2093427036916
 20
158.28088367181749
 11
2488.4793399340492
 21
167.47841048365671
  0
LINE
  8
_f-8_
  6
CONTINUOUS
 62
    7
 10
2462.8888794596255
 20
152.84335572742151
 11
2511.1140538755621
 21
170.39588375711787
  0
LINE
  8
_f-8_
  6
CONTINUOUS
 62
    7
 10
2465.300291731432
 20
148.400149154524
 11
2476.9283430630944
 21
152.63241372176821
  0
LINE
  8
_f-8_
  6
CONTINUOUS
 62
    7
 10
2488.1225212892722
 20
156.70676139316753
 11
2512.1228430370119
 21
165.44216412215632
  0
LINE
  8
_f-8_
  6
CONTINUOUS
 62
    7
 10
2502.7415432900879
 20
156.70676139316753
 11
2512.1151621126959
 21
160.11847963195407
  0
LINE
  8
_f-8_
  6
CONTINUOUS
 62
    7
 10
2468.7281740890052
 20
144.32690743686691
 11
2482.5550140975401
 21
149.35946563393486
  0
LINE
  8
_f-8_
  6
CONTINUOUS
 62
    7
 10
2473.4508580764295
 20
140.72493497175571
 11
2502.4973614552445
 21
151.29699761115659
  0
LINE
  8
_f-8_
  6
CONTINUOUS
 62
    7
 10
2480.3069495598269
 20
137.89945933273884
 11
2507.3767895083869
 21
147.75207532036432
  0
LINE
  8
_f-8_
  6
CONTINUOUS
 62
    7
 10
2552.6231690921717
 20
137.61596638527407
 11
2558.7418873346696
 21
139.84299769740459
  0
LINE
  8
_f-8_
  6
CONTINUOUS
 62
    7
 10
2539.4012676014826
 20
138.12447666464265
 11
2568.5435873921023
 21
148.73141362589478
  0
LINE
  8
_f-8_
  6
CONTINUOUS
 62
    7
 10
2532.9976800904732
 20
141.11465028049622
 11
2571.5269734698549
 21
155.13816621790056
  0
LINE
  8
_f-8_
  6
CONTINUOUS
 62
    7
 10
2522.081864354775
 20
169.06695144424446
 11
2572.0397992563612
 21
187.25015271383
  0
LINE
  8
_f-8_
  6
CONTINUOUS
 62
    7
 10
2524.5896829795606
 20
175.30061163898437
 11
2572.0397992563612
 21
192.57104157620943
  0
LINE
  8
_f-8_
  6
CONTINUOUS
 62
    7
 10
2557.3930775458175
 20
208.52362629350906
 11
2561.8028673926596
 21
210.12865853712895
  0
LINE
  8
_f-8_
  6
CONTINUOUS
 62
    7
 10
2557.3930775458175
 20
203.20273743112977
 11
2572.0397992563612
 21
208.53370816334788
  0
LINE
  8
_f-8_
  6
CONTINUOUS
 62
    7
 10
2557.3930775458175
 20
197.88184856875005
 11
2572.0397992563612
 21
203.21281930096859
  0
LINE
  8
_f-8_
  6
CONTINUOUS
 62
    7
 10
2557.3930775458175
 20
192.56095970637034
 11
2572.0397992563612
 21
197.89193043858915
  0
LINE
  8
_f-8_
  6
CONTINUOUS
 62
    7
 10
2531.3600319802562
 20
183.08570601321093
 11
2545.8030101140193
 21
188.34252014805827
  0
LINE
  8
_f-8_
  6
CONTINUOUS
 62
    7
 10
2548.0525958796984
 20
173.19863581905565
 11
2572.0397992563612
 21
181.92926385145057
  0
LINE
  8
_f-8_
  6
CONTINUOUS
 62
    7
 10
2521.2864022906337
 20
163.45653806802943
 11
2538.3752084417083
 21
169.67635484616607
  0
LINE
  8
_f-8_
  6
CONTINUOUS
 62
    7
 10
2521.6554107736333
 20
158.26995730965364
 11
2535.4846691325356
 21
163.30339571427089
  0
LINE
  8
_f-8_
  6
CONTINUOUS
 62
    7
 10
2522.9940114609526
 20
153.43627925302655
 11
2536.1404517985765
 21
158.22119222247806
  0
LINE
  8
_f-8_
  6
CONTINUOUS
 62
    7
 10
2525.2563435788042
 20
148.93881194156961
 11
2539.0354883761397
 21
153.95401050144357
  0
LINE
  8
_f-8_
  6
CONTINUOUS
 62
    7
 10
2528.5117312327797
 20
144.80278728623488
 11
2545.7561370732087
 21
151.07923771975691
  0
LINE
  8
_f-8_
  6
CONTINUOUS
 62
    7
 10
2554.2054905278623
 20
154.15455087604527
 11
2572.0397992563612
 21
160.64570840193255
  0
LINE
  8
_f-8_
  6
CONTINUOUS
 62
    7
 10
2557.505937791675
 20
160.67670430221767
 11
2572.0397992563612
 21
165.96659726431198
  0
LINE
  8
_f-8_
  6
CONTINUOUS
 62
    7
 10
2557.5903561511468
 20
166.02831893467055
 11
2572.0397992563612
 21
171.28748612669141
  0
LINE
  8
_f-8_
  6
CONTINUOUS
 62
    7
 10
2557.5903561511468
 20
171.34920779704998
 11
2572.0397992563612
 21
176.60837498907085
  0
LINE
  8
_f-8_
  6
CONTINUOUS
 62
    7
 10
2595.1467628188602
 20
185.01862193009401
 11
2601.869376832742
 21
187.46545332760774
  0
LINE
  8
_f-8_
  6
CONTINUOUS
 62
    7
 10
2585.5936460434281
 20
176.22068291698809
 11
2614.8426950414304
 21
186.86646613285404
  0
LINE
  8
_f-8_
  6
CONTINUOUS
 62
    7
 10
2608.5181174973608
 20
136.67650840108905
 11
2622.7000364868072
 21
141.83830477802189
  0
LINE
  8
_f-8_
  6
CONTINUOUS
 62
    7
 10
2598.2444761483161
 20
138.25809761488983
 11
2629.5534764025951
 21
149.65364177207987
  0
LINE
  8
_f-8_
  6
CONTINUOUS
 62
    7
 10
2582.6330921261528
 20
169.82224055178022
 11
2621.2234503919626
 21
183.86798229020314
  0
LINE
  8
_f-8_
  6
CONTINUOUS
 62
    7
 10
2592.2968185805402
 20
141.41421615899105
 11
2632.0809325371146
 21
155.89444943583799
  0
LINE
  8
_f-8_
  6
CONTINUOUS
 62
    7
 10
2588.0695495912832
 20
145.19650493704432
 11
2602.246111940276
 21
150.35635165629656
  0
LINE
  8
_f-8_
  6
CONTINUOUS
 62
    7
 10
2585.0094293819529
 20
149.40360112995108
 11
2597.3909335115822
 21
153.91010008858017
  0
LINE
  8
_f-8_
  6
CONTINUOUS
 62
    7
 10
2582.919829983693
 20
153.96393800982366
 11
2594.8695180063709
 21
158.31326875884542
  0
LINE
  8
_f-8_
  6
CONTINUOUS
 62
    7
 10
2581.7538748691904
 20
158.86045391603374
 11
2594.1774270088017
 21
163.38225709870641
  0
LINE
  8
_f-8_
  6
CONTINUOUS
 62
    7
 10
2581.5798124660104
 20
164.11798924475078
 11
2595.9853391150813
 21
169.36117215394091
  0
LINE
  8
_f-8_
  6
CONTINUOUS
 62
    7
 10
2611.9748325174678
 20
175.18087181340547
 11
2625.6969314853622
 21
180.17530738937352
  0
LINE
  8
_f-8_
  6
CONTINUOUS
 62
    7
 10
2617.2029460570038
 20
171.76286066078091
 11
2628.9430705154381
 21
176.03591651023151
  0
LINE
  8
_f-8_
  6
CONTINUOUS
 62
    7
 10
2619.9310564926913
 20
167.43492279278257
 11
2631.1973168341919
 21
171.53550620858254
  0
LINE
  8
_f-8_
  6
CONTINUOUS
 62
    7
 10
2620.8298424207368
 20
162.44116525518904
 11
2632.5279188691888
 21
166.69891688059578
  0
LINE
  8
_f-8_
  6
CONTINUOUS
 62
    7
 10
2619.394865425299
 20
156.5979874796136
 11
2632.8880000931144
 21
161.50908686564349
  0
TEXT
  8
_f-8_
 62
    7
 10
2642.8586825750176
 20
180.56247057449553
 40
35
 41
0.5714285714285711
 50
0
  1
ワンド
  0
TEXT
  8
_f-8_
 62
    7
 10
2649.7045100149039
 20
147.0179161190498
 40
30
 41
0.6666666666666666
 50
0
  1
株式
  0
TEXT
  8
_f-8_
 62
    7
 10
2649.0199272709155
 20
118.95002361551377
 40
30
 41
0.6666666666666666
 50
0
  1
会社
  0
LINE
  8
_0-3_
  6
CONTINUOUS
 62
    4
 10
515
 20
2495
 11
1385
 21
2495
  0
LINE
  8
_0-3_
  6
DASHED1
 62
    2
 10
1385
 20
1407
 11
1385
 21
807
  0
LINE
  8
_0-3_
  6
DASHED1
 62
    2
 10
515
 20
1407
 11
515
 21
807
  0
LINE
  8
_0-3_
  6
DASHED1
 62
    2
 10
515
 20
1392
 11
1388
 21
1392
  0
LINE
  8
_0-3_
  6
DASHED1
 62
    2
 10
515
 20
822
 11
1388
 21
822
  0
LINE
  8
_0-0_
  6
DASHED1
 62
    7
 10
1383.9999999999997
 20
1172
 11
1375
 21
1172
  0
LINE
  8
_0-0_
  6
DASHED1
 62
    7
 10
1385
 20
1172
 11
1375
 21
1172
  0
LINE
  8
_0-0_
  6
DASHED1
 62
    7
 10
1394.9946999999997
 20
1167
 11
1372.7137749999997
 21
1167
  0
LINE
  8
_0-0_
  6
DASHED1
 62
    7
 10
1385
 20
1163.4
 11
1385
 21
1170.5999999999999
  0
LINE
  8
_0-0_
  6
DASHED1
 62
    7
 10
1384.1999999999995
 20
1169.5
 11
1384.1999999999995
 21
1164.5
  0
LINE
  8
_0-0_
  6
DASHED1
 62
    7
 10
1376.2
 20
1165
 11
1383.7
 21
1165
  0
LINE
  8
_0-0_
  6
DASHED1
 62
    7
 10
1384.1999999999995
 20
1164.5
 11
1384.1999999999995
 21
1163.4
  0
LINE
  8
_0-0_
  6
DASHED1
 62
    7
 10
1385.4999999999995
 20
1164.6000000000001
 11
1393.4999999999995
 21
1164.6000000000001
  0
LINE
  8
_0-0_
  6
DASHED1
 62
    7
 10
1393.9999999999997
 20
1165.1000000000001
 11
1393.9999999999997
 21
1168.9
  0
LINE
  8
_0-0_
  6
DASHED1
 62
    7
 10
1393.4999999999995
 20
1169.4
 11
1385.4999999999995
 21
1169.4
  0
LINE
  8
_0-0_
  6
DASHED1
 62
    7
 10
1384.1999999999995
 20
1170.5999999999999
 11
1384.1999999999995
 21
1169.5
  0
LINE
  8
_0-0_
  6
DASHED1
 62
    7
 10
1383.7
 20
1169
 11
1376.2
 21
1169
  0
LINE
  8
_0-0_
  6
DASHED1
 62
    7
 10
1376.2
 20
1169
 11
1376.2
 21
1165
  0
LINE
  8
_0-0_
  6
DASHED1
 62
    7
 10
1375.7999999999997
 20
1168.5
 11
1375.7999999999997
 21
1169
  0
LINE
  8
_0-0_
  6
DASHED1
 62
    7
 10
1375
 20
1171.1000000000001
 11
1375
 21
1162.5
  0
LINE
  8
_0-0_
  6
DASHED1
 62
    7
 10
1375.7999999999997
 20
1168.5
 11
1375
 21
1168.5
  0
LINE
  8
_0-0_
  6
DASHED1
 62
    7
 10
1375.7999999999997
 20
1165.5
 11
1375
 21
1165.5
  0
LINE
  8
_0-0_
  6
DASHED1
 62
    7
 10
1385
 20
1165
 11
1376.2
 21
1165
  0
LINE
  8
_0-0_
  6
DASHED1
 62
    7
 10
1385
 20
1162.5
 11
1385
 21
1165
  0
LINE
  8
_0-0_
  6
DASHED1
 62
    7
 10
1376.2
 20
1165
 11
1375.7999999999997
 21
1165
  0
LINE
  8
_0-0_
  6
DASHED1
 62
    7
 10
1385
 20
1169
 11
1375.7999999999997
 21
1169
  0
LINE
  8
_0-0_
  6
DASHED1
 62
    7
 10
1375.7999999999997
 20
1165
 11
1375.7999999999997
 21
1165.5
  0
LINE
  8
_0-0_
  6
DASHED1
 62
    7
 10
1385
 20
1169.9336500000001
 11
1375
 21
1169.9336500000001
  0
LINE
  8
_0-0_
  6
DASHED1
 62
    7
 10
1375.7999999999997
 20
1169
 11
1375
 21
1169
  0
LINE
  8
_0-0_
  6
DASHED1
 62
    7
 10
1375
 20
1172
 11
1375
 21
1171.1000000000001
  0
LINE
  8
_0-0_
  6
DASHED1
 62
    7
 10
1385
 20
1165
 11
1385
 21
1172
  0
LINE
  8
_0-0_
  6
DASHED1
 62
    7
 10
1384.5
 20
1192.5
 11
1375.4999999999995
 21
1192.5
  0
LINE
  8
_0-0_
  6
DASHED1
 62
    7
 10
1375.4999999999995
 20
1162
 11
1384.5
 21
1162
  0
LINE
  8
_0-0_
  6
DASHED1
 62
    7
 10
1386.4773999999999
 20
1167
 11
1373.4035749999998
 21
1167
  0
LINE
  8
_0-0_
  6
DASHED1
 62
    7
 10
1375
 20
1192
 11
1375
 21
1172
  0
ARC
  8
_0-0_
  6
DASHED1
 62
    7
 10
1385.4999999999995
 20
1169.9
 40
0.5
 50
179.99999999999991
 51
269.99999999999994
  0
ARC
  8
_0-0_
  6
DASHED1
 62
    7
 10
1385.4999999999995
 20
1164.0999999999999
 40
0.5
 50
89.999999999999971
 51
180
  0
ARC
  8
_0-0_
  6
DASHED1
 62
    7
 10
1383.7
 20
1164.5
 40
0.5
 50
359.99999999999994
 51
89.999999999999943
  0
ARC
  8
_0-0_
  6
DASHED1
 62
    7
 10
1383.7
 20
1169.5
 40
0.5
 50
269.99999999999988
 51
359.99999999999988
  0
ARC
  8
_0-0_
  6
DASHED1
 62
    7
 10
1393.4999999999995
 20
1168.9
 40
0.5
 50
359.99999999999994
 51
89.999999999999943
  0
ARC
  8
_0-0_
  6
DASHED1
 62
    7
 10
1393.4999999999995
 20
1165.1000000000001
 40
0.5
 50
269.99999999999988
 51
359.99999999999988
  0
ARC
  8
_0-0_
  6
DASHED1
 62
    7
 10
1384.5999999999999
 20
1163.4
 40
0.4
 50
179.99999999999991
 51
269.99999999999994
  0
ARC
  8
_0-0_
  6
DASHED1
 62
    7
 10
1384.5999999999999
 20
1163.4
 40
0.4
 50
269.99999999999988
 51
359.99999999999988
  0
ARC
  8
_0-0_
  6
DASHED1
 62
    7
 10
1384.5999999999999
 20
1170.5999999999999
 40
0.4
 50
359.99999999999994
 51
89.999999999999943
  0
ARC
  8
_0-0_
  6
DASHED1
 62
    7
 10
1384.5999999999999
 20
1170.5999999999999
 40
0.4
 50
89.999999999999971
 51
180
  0
ARC
  8
_0-0_
  6
DASHED1
 62
    7
 10
1384.5
 20
1192
 40
0.5
 50
359.99999999999994
 51
89.999999999999943
  0
ARC
  8
_0-0_
  6
DASHED1
 62
    7
 10
1375.4999999999995
 20
1192
 40
0.5
 50
89.999999999999971
 51
180
  0
ARC
  8
_0-0_
  6
DASHED1
 62
    7
 10
1375.4999999999995
 20
1162.5
 40
0.5
 50
179.99999999999991
 51
269.99999999999994
  0
ARC
  8
_0-0_
  6
DASHED1
 62
    7
 10
1384.5
 20
1162.5
 40
0.5
 50
269.99999999999988
 51
359.99999999999988
  0
LINE
  8
_0-0_
  6
DASHED1
 62
    7
 10
1385
 20
1172
 11
1385
 21
1192
  0
LINE
  8
_0-0_
  6
DASHED1
 62
    7
 10
1383.9999999999997
 20
1052
 11
1375
 21
1052
  0
LINE
  8
_0-0_
  6
DASHED1
 62
    7
 10
1385
 20
1052
 11
1375
 21
1052
  0
LINE
  8
_0-0_
  6
DASHED1
 62
    7
 10
1394.9946999999997
 20
1047
 11
1372.7137749999997
 21
1047
  0
LINE
  8
_0-0_
  6
DASHED1
 62
    7
 10
1385
 20
1043.4
 11
1385
 21
1050.5999999999999
  0
LINE
  8
_0-0_
  6
DASHED1
 62
    7
 10
1384.1999999999995
 20
1049.5
 11
1384.1999999999995
 21
1044.5
  0
LINE
  8
_0-0_
  6
DASHED1
 62
    7
 10
1376.2
 20
1045
 11
1383.7
 21
1045
  0
LINE
  8
_0-0_
  6
DASHED1
 62
    7
 10
1384.1999999999995
 20
1044.5
 11
1384.1999999999995
 21
1043.4
  0
LINE
  8
_0-0_
  6
DASHED1
 62
    7
 10
1385.4999999999995
 20
1044.6000000000001
 11
1393.4999999999995
 21
1044.6000000000001
  0
LINE
  8
_0-0_
  6
DASHED1
 62
    7
 10
1393.9999999999997
 20
1045.1000000000001
 11
1393.9999999999997
 21
1048.9
  0
LINE
  8
_0-0_
  6
DASHED1
 62
    7
 10
1393.4999999999995
 20
1049.4
 11
1385.4999999999995
 21
1049.4
  0
LINE
  8
_0-0_
  6
DASHED1
 62
    7
 10
1384.1999999999995
 20
1050.5999999999999
 11
1384.1999999999995
 21
1049.5
  0
LINE
  8
_0-0_
  6
DASHED1
 62
    7
 10
1383.7
 20
1049
 11
1376.2
 21
1049
  0
LINE
  8
_0-0_
  6
DASHED1
 62
    7
 10
1376.2
 20
1049
 11
1376.2
 21
1045
  0
LINE
  8
_0-0_
  6
DASHED1
 62
    7
 10
1375.7999999999997
 20
1048.5
 11
1375.7999999999997
 21
1049
  0
LINE
  8
_0-0_
  6
DASHED1
 62
    7
 10
1375
 20
1051.0999999999999
 11
1375
 21
1042.5
  0
LINE
  8
_0-0_
  6
DASHED1
 62
    7
 10
1375.7999999999997
 20
1048.5
 11
1375
 21
1048.5
  0
LINE
  8
_0-0_
  6
DASHED1
 62
    7
 10
1375.7999999999997
 20
1045.5
 11
1375
 21
1045.5
  0
LINE
  8
_0-0_
  6
DASHED1
 62
    7
 10
1385
 20
1045
 11
1376.2
 21
1045
  0
LINE
  8
_0-0_
  6
DASHED1
 62
    7
 10
1385
 20
1042.5
 11
1385
 21
1045
  0
LINE
  8
_0-0_
  6
DASHED1
 62
    7
 10
1376.2
 20
1045
 11
1375.7999999999997
 21
1045
  0
LINE
  8
_0-0_
  6
DASHED1
 62
    7
 10
1385
 20
1049
 11
1375.7999999999997
 21
1049
  0
LINE
  8
_0-0_
  6
DASHED1
 62
    7
 10
1375.7999999999997
 20
1045
 11
1375.7999999999997
 21
1045.5
  0
LINE
  8
_0-0_
  6
DASHED1
 62
    7
 10
1385
 20
1049.9336499999999
 11
1375
 21
1049.9336499999999
  0
LINE
  8
_0-0_
  6
DASHED1
 62
    7
 10
1375.7999999999997
 20
1049
 11
1375
 21
1049
  0
LINE
  8
_0-0_
  6
DASHED1
 62
    7
 10
1375
 20
1052
 11
1375
 21
1051.0999999999999
  0
LINE
  8
_0-0_
  6
DASHED1
 62
    7
 10
1385
 20
1045
 11
1385
 21
1052
  0
LINE
  8
_0-0_
  6
DASHED1
 62
    7
 10
1384.5
 20
1072.5
 11
1375.4999999999995
 21
1072.5
  0
LINE
  8
_0-0_
  6
DASHED1
 62
    7
 10
1375.4999999999995
 20
1042
 11
1384.5
 21
1042
  0
LINE
  8
_0-0_
  6
DASHED1
 62
    7
 10
1386.4773999999999
 20
1047
 11
1373.4035749999998
 21
1047
  0
LINE
  8
_0-0_
  6
DASHED1
 62
    7
 10
1375
 20
1072
 11
1375
 21
1052
  0
ARC
  8
_0-0_
  6
DASHED1
 62
    7
 10
1385.4999999999995
 20
1049.8999999999998
 40
0.5
 50
179.99999999999991
 51
269.99999999999994
  0
ARC
  8
_0-0_
  6
DASHED1
 62
    7
 10
1385.4999999999995
 20
1044.0999999999999
 40
0.5
 50
89.999999999999971
 51
180
  0
ARC
  8
_0-0_
  6
DASHED1
 62
    7
 10
1383.7
 20
1044.5
 40
0.5
 50
359.99999999999994
 51
89.999999999999943
  0
ARC
  8
_0-0_
  6
DASHED1
 62
    7
 10
1383.7
 20
1049.5
 40
0.5
 50
269.99999999999988
 51
359.99999999999988
  0
ARC
  8
_0-0_
  6
DASHED1
 62
    7
 10
1393.4999999999995
 20
1048.9
 40
0.5
 50
359.99999999999994
 51
89.999999999999943
  0
ARC
  8
_0-0_
  6
DASHED1
 62
    7
 10
1393.4999999999995
 20
1045.1000000000001
 40
0.5
 50
269.99999999999988
 51
359.99999999999988
  0
ARC
  8
_0-0_
  6
DASHED1
 62
    7
 10
1384.5999999999999
 20
1043.4
 40
0.4
 50
179.99999999999991
 51
269.99999999999994
  0
ARC
  8
_0-0_
  6
DASHED1
 62
    7
 10
1384.5999999999999
 20
1043.4
 40
0.4
 50
269.99999999999988
 51
359.99999999999988
  0
ARC
  8
_0-0_
  6
DASHED1
 62
    7
 10
1384.5999999999999
 20
1050.5999999999999
 40
0.4
 50
359.99999999999994
 51
89.999999999999943
  0
ARC
  8
_0-0_
  6
DASHED1
 62
    7
 10
1384.5999999999999
 20
1050.5999999999999
 40
0.4
 50
89.999999999999971
 51
180
  0
ARC
  8
_0-0_
  6
DASHED1
 62
    7
 10
1384.5
 20
1072
 40
0.5
 50
359.99999999999994
 51
89.999999999999943
  0
ARC
  8
_0-0_
  6
DASHED1
 62
    7
 10
1375.4999999999995
 20
1072
 40
0.5
 50
89.999999999999971
 51
180
  0
ARC
  8
_0-0_
  6
DASHED1
 62
    7
 10
1375.4999999999995
 20
1042.5
 40
0.5
 50
179.99999999999991
 51
269.99999999999994
  0
ARC
  8
_0-0_
  6
DASHED1
 62
    7
 10
1384.5
 20
1042.5
 40
0.5
 50
269.99999999999988
 51
359.99999999999988
  0
LINE
  8
_0-0_
  6
DASHED1
 62
    7
 10
1385
 20
1052
 11
1385
 21
1072
  0
LINE
  8
_0-0_
  6
DASHED1
 62
    7
 10
515.99999999999965
 20
1172
 11
525
 21
1172
  0
LINE
  8
_0-0_
  6
DASHED1
 62
    7
 10
515
 20
1172
 11
525
 21
1172
  0
LINE
  8
_0-0_
  6
DASHED1
 62
    7
 10
505.00529999999969
 20
1167
 11
527.28622499999971
 21
1167
  0
LINE
  8
_0-0_
  6
DASHED1
 62
    7
 10
515
 20
1163.4
 11
515
 21
1170.5999999999999
  0
LINE
  8
_0-0_
  6
DASHED1
 62
    7
 10
515.79999999999984
 20
1169.5
 11
515.79999999999984
 21
1164.5
  0
LINE
  8
_0-0_
  6
DASHED1
 62
    7
 10
523.79999999999995
 20
1165
 11
516.29999999999995
 21
1165
  0
LINE
  8
_0-0_
  6
DASHED1
 62
    7
 10
515.79999999999984
 20
1164.5
 11
515.79999999999984
 21
1163.4
  0
LINE
  8
_0-0_
  6
DASHED1
 62
    7
 10
514.49999999999988
 20
1164.6000000000001
 11
506.49999999999977
 21
1164.6000000000001
  0
LINE
  8
_0-0_
  6
DASHED1
 62
    7
 10
505.99999999999965
 20
1165.1000000000001
 11
505.99999999999965
 21
1168.9
  0
LINE
  8
_0-0_
  6
DASHED1
 62
    7
 10
506.49999999999977
 20
1169.4
 11
514.49999999999988
 21
1169.4
  0
LINE
  8
_0-0_
  6
DASHED1
 62
    7
 10
515.79999999999984
 20
1170.5999999999999
 11
515.79999999999984
 21
1169.5
  0
LINE
  8
_0-0_
  6
DASHED1
 62
    7
 10
516.29999999999995
 20
1169
 11
523.79999999999995
 21
1169
  0
LINE
  8
_0-0_
  6
DASHED1
 62
    7
 10
523.79999999999995
 20
1169
 11
523.79999999999995
 21
1165
  0
LINE
  8
_0-0_
  6
DASHED1
 62
    7
 10
524.19999999999959
 20
1168.5
 11
524.19999999999959
 21
1169
  0
LINE
  8
_0-0_
  6
DASHED1
 62
    7
 10
525
 20
1171.1000000000001
 11
525
 21
1162.5
  0
LINE
  8
_0-0_
  6
DASHED1
 62
    7
 10
524.19999999999959
 20
1168.5
 11
525
 21
1168.5
  0
LINE
  8
_0-0_
  6
DASHED1
 62
    7
 10
524.19999999999959
 20
1165.5
 11
525
 21
1165.5
  0
LINE
  8
_0-0_
  6
DASHED1
 62
    7
 10
515
 20
1165
 11
523.79999999999995
 21
1165
  0
LINE
  8
_0-0_
  6
DASHED1
 62
    7
 10
515
 20
1162.5
 11
515
 21
1165
  0
LINE
  8
_0-0_
  6
DASHED1
 62
    7
 10
523.79999999999995
 20
1165
 11
524.19999999999959
 21
1165
  0
LINE
  8
_0-0_
  6
DASHED1
 62
    7
 10
515
 20
1169
 11
524.19999999999959
 21
1169
  0
LINE
  8
_0-0_
  6
DASHED1
 62
    7
 10
524.19999999999959
 20
1165
 11
524.19999999999959
 21
1165.5
  0
LINE
  8
_0-0_
  6
DASHED1
 62
    7
 10
515
 20
1169.9336500000001
 11
525
 21
1169.9336500000001
  0
LINE
  8
_0-0_
  6
DASHED1
 62
    7
 10
524.19999999999959
 20
1169
 11
525
 21
1169
  0
LINE
  8
_0-0_
  6
DASHED1
 62
    7
 10
525
 20
1172
 11
525
 21
1171.1000000000001
  0
LINE
  8
_0-0_
  6
DASHED1
 62
    7
 10
515
 20
1165
 11
515
 21
1172
  0
LINE
  8
_0-0_
  6
DASHED1
 62
    7
 10
515.49999999999954
 20
1192.5
 11
524.49999999999988
 21
1192.5
  0
LINE
  8
_0-0_
  6
DASHED1
 62
    7
 10
524.49999999999988
 20
1162
 11
515.49999999999954
 21
1162
  0
LINE
  8
_0-0_
  6
DASHED1
 62
    7
 10
513.52260000000001
 20
1167
 11
526.59642499999961
 21
1167
  0
LINE
  8
_0-0_
  6
DASHED1
 62
    7
 10
525
 20
1192
 11
525
 21
1172
  0
ARC
  8
_0-0_
  6
DASHED1
 62
    7
 10
514.49999999999988
 20
1169.9
 40
0.5
 50
270.00000000000005
 51
0.0000000000000508
  0
ARC
  8
_0-0_
  6
DASHED1
 62
    7
 10
514.49999999999988
 20
1164.0999999999999
 40
0.5
 50
0
 51
90.000000000000028
  0
ARC
  8
_0-0_
  6
DASHED1
 62
    7
 10
516.29999999999995
 20
1164.5
 40
0.5
 50
90.000000000000028
 51
180.00000000000005
  0
ARC
  8
_0-0_
  6
DASHED1
 62
    7
 10
516.29999999999995
 20
1169.5
 40
0.5
 50
180.00000000000005
 51
270.00000000000005
  0
ARC
  8
_0-0_
  6
DASHED1
 62
    7
 10
506.49999999999977
 20
1168.9
 40
0.5
 50
90.000000000000028
 51
180.00000000000005
  0
ARC
  8
_0-0_
  6
DASHED1
 62
    7
 10
506.49999999999977
 20
1165.1000000000001
 40
0.5
 50
180.00000000000005
 51
270.00000000000005
  0
ARC
  8
_0-0_
  6
DASHED1
 62
    7
 10
515.39999999999963
 20
1163.4
 40
0.4
 50
270.00000000000005
 51
0.0000000000000508
  0
ARC
  8
_0-0_
  6
DASHED1
 62
    7
 10
515.39999999999963
 20
1163.4
 40
0.4
 50
180.00000000000005
 51
270.00000000000005
  0
ARC
  8
_0-0_
  6
DASHED1
 62
    7
 10
515.39999999999963
 20
1170.5999999999999
 40
0.4
 50
90.000000000000028
 51
180.00000000000005
  0
ARC
  8
_0-0_
  6
DASHED1
 62
    7
 10
515.39999999999963
 20
1170.5999999999999
 40
0.4
 50
0
 51
90.000000000000028
  0
ARC
  8
_0-0_
  6
DASHED1
 62
    7
 10
515.49999999999954
 20
1192
 40
0.5
 50
90.000000000000028
 51
180.00000000000005
  0
ARC
  8
_0-0_
  6
DASHED1
 62
    7
 10
524.49999999999988
 20
1192
 40
0.5
 50
0
 51
90.000000000000028
  0
ARC
  8
_0-0_
  6
DASHED1
 62
    7
 10
524.49999999999988
 20
1162.5
 40
0.5
 50
270.00000000000005
 51
0.0000000000000508
  0
ARC
  8
_0-0_
  6
DASHED1
 62
    7
 10
515.49999999999954
 20
1162.5
 40
0.5
 50
180.00000000000005
 51
270.00000000000005
  0
LINE
  8
_0-0_
  6
DASHED1
 62
    7
 10
515
 20
1172
 11
515
 21
1192
  0
LINE
  8
_0-0_
  6
DASHED1
 62
    7
 10
515.99999999999965
 20
1052
 11
525
 21
1052
  0
LINE
  8
_0-0_
  6
DASHED1
 62
    7
 10
515
 20
1052
 11
525
 21
1052
  0
LINE
  8
_0-0_
  6
DASHED1
 62
    7
 10
505.00529999999969
 20
1047
 11
527.28622499999971
 21
1047
  0
LINE
  8
_0-0_
  6
DASHED1
 62
    7
 10
515
 20
1043.4
 11
515
 21
1050.5999999999999
  0
LINE
  8
_0-0_
  6
DASHED1
 62
    7
 10
515.79999999999984
 20
1049.5
 11
515.79999999999984
 21
1044.5
  0
LINE
  8
_0-0_
  6
DASHED1
 62
    7
 10
523.79999999999995
 20
1045
 11
516.29999999999995
 21
1045
  0
LINE
  8
_0-0_
  6
DASHED1
 62
    7
 10
515.79999999999984
 20
1044.5
 11
515.79999999999984
 21
1043.4
  0
LINE
  8
_0-0_
  6
DASHED1
 62
    7
 10
514.49999999999988
 20
1044.6000000000001
 11
506.49999999999977
 21
1044.6000000000001
  0
LINE
  8
_0-0_
  6
DASHED1
 62
    7
 10
505.99999999999965
 20
1045.1000000000001
 11
505.99999999999965
 21
1048.9
  0
LINE
  8
_0-0_
  6
DASHED1
 62
    7
 10
506.49999999999977
 20
1049.4
 11
514.49999999999988
 21
1049.4
  0
LINE
  8
_0-0_
  6
DASHED1
 62
    7
 10
515.79999999999984
 20
1050.5999999999999
 11
515.79999999999984
 21
1049.5
  0
LINE
  8
_0-0_
  6
DASHED1
 62
    7
 10
516.29999999999995
 20
1049
 11
523.79999999999995
 21
1049
  0
LINE
  8
_0-0_
  6
DASHED1
 62
    7
 10
523.79999999999995
 20
1049
 11
523.79999999999995
 21
1045
  0
LINE
  8
_0-0_
  6
DASHED1
 62
    7
 10
524.19999999999959
 20
1048.5
 11
524.19999999999959
 21
1049
  0
LINE
  8
_0-0_
  6
DASHED1
 62
    7
 10
525
 20
1051.0999999999999
 11
525
 21
1042.5
  0
LINE
  8
_0-0_
  6
DASHED1
 62
    7
 10
524.19999999999959
 20
1048.5
 11
525
 21
1048.5
  0
LINE
  8
_0-0_
  6
DASHED1
 62
    7
 10
524.19999999999959
 20
1045.5
 11
525
 21
1045.5
  0
LINE
  8
_0-0_
  6
DASHED1
 62
    7
 10
515
 20
1045
 11
523.79999999999995
 21
1045
  0
LINE
  8
_0-0_
  6
DASHED1
 62
    7
 10
515
 20
1042.5
 11
515
 21
1045
  0
LINE
  8
_0-0_
  6
DASHED1
 62
    7
 10
523.79999999999995
 20
1045
 11
524.19999999999959
 21
1045
  0
LINE
  8
_0-0_
  6
DASHED1
 62
    7
 10
515
 20
1049
 11
524.19999999999959
 21
1049
  0
LINE
  8
_0-0_
  6
DASHED1
 62
    7
 10
524.19999999999959
 20
1045
 11
524.19999999999959
 21
1045.5
  0
LINE
  8
_0-0_
  6
DASHED1
 62
    7
 10
515
 20
1049.9336499999999
 11
525
 21
1049.9336499999999
  0
LINE
  8
_0-0_
  6
DASHED1
 62
    7
 10
524.19999999999959
 20
1049
 11
525
 21
1049
  0
LINE
  8
_0-0_
  6
DASHED1
 62
    7
 10
525
 20
1052
 11
525
 21
1051.0999999999999
  0
LINE
  8
_0-0_
  6
DASHED1
 62
    7
 10
515
 20
1045
 11
515
 21
1052
  0
LINE
  8
_0-0_
  6
DASHED1
 62
    7
 10
515.49999999999954
 20
1072.5
 11
524.49999999999988
 21
1072.5
  0
LINE
  8
_0-0_
  6
DASHED1
 62
    7
 10
524.49999999999988
 20
1042
 11
515.49999999999954
 21
1042
  0
LINE
  8
_0-0_
  6
DASHED1
 62
    7
 10
513.52260000000001
 20
1047
 11
526.59642499999961
 21
1047
  0
LINE
  8
_0-0_
  6
DASHED1
 62
    7
 10
525
 20
1072
 11
525
 21
1052
  0
ARC
  8
_0-0_
  6
DASHED1
 62
    7
 10
514.49999999999988
 20
1049.8999999999998
 40
0.5
 50
270.00000000000005
 51
0.0000000000000508
  0
ARC
  8
_0-0_
  6
DASHED1
 62
    7
 10
514.49999999999988
 20
1044.0999999999999
 40
0.5
 50
0
 51
90.000000000000028
  0
ARC
  8
_0-0_
  6
DASHED1
 62
    7
 10
516.29999999999995
 20
1044.5
 40
0.5
 50
90.000000000000028
 51
180.00000000000005
  0
ARC
  8
_0-0_
  6
DASHED1
 62
    7
 10
516.29999999999995
 20
1049.5
 40
0.5
 50
180.00000000000005
 51
270.00000000000005
  0
ARC
  8
_0-0_
  6
DASHED1
 62
    7
 10
506.49999999999977
 20
1048.9
 40
0.5
 50
90.000000000000028
 51
180.00000000000005
  0
ARC
  8
_0-0_
  6
DASHED1
 62
    7
 10
506.49999999999977
 20
1045.1000000000001
 40
0.5
 50
180.00000000000005
 51
270.00000000000005
  0
ARC
  8
_0-0_
  6
DASHED1
 62
    7
 10
515.39999999999963
 20
1043.4
 40
0.4
 50
270.00000000000005
 51
0.0000000000000508
  0
ARC
  8
_0-0_
  6
DASHED1
 62
    7
 10
515.39999999999963
 20
1043.4
 40
0.4
 50
180.00000000000005
 51
270.00000000000005
  0
ARC
  8
_0-0_
  6
DASHED1
 62
    7
 10
515.39999999999963
 20
1050.5999999999999
 40
0.4
 50
90.000000000000028
 51
180.00000000000005
  0
ARC
  8
_0-0_
  6
DASHED1
 62
    7
 10
515.39999999999963
 20
1050.5999999999999
 40
0.4
 50
0
 51
90.000000000000028
  0
ARC
  8
_0-0_
  6
DASHED1
 62
    7
 10
515.49999999999954
 20
1072
 40
0.5
 50
90.000000000000028
 51
180.00000000000005
  0
ARC
  8
_0-0_
  6
DASHED1
 62
    7
 10
524.49999999999988
 20
1072
 40
0.5
 50
0
 51
90.000000000000028
  0
ARC
  8
_0-0_
  6
DASHED1
 62
    7
 10
524.49999999999988
 20
1042.5
 40
0.5
 50
270.00000000000005
 51
0.0000000000000508
  0
ARC
  8
_0-0_
  6
DASHED1
 62
    7
 10
515.49999999999954
 20
1042.5
 40
0.5
 50
180.00000000000005
 51
270.00000000000005
  0
LINE
  8
_0-0_
  6
DASHED1
 62
    7
 10
515
 20
1052
 11
515
 21
1072
  0
LINE
  8
_0-6_
  6
DASHED1
 62
    7
 10
1384.0000000000004
 20
1187
 11
1384.0000000000004
 21
1172
  0
LINE
  8
_0-6_
  6
DASHED1
 62
    7
 10
1384.0000000000004
 20
1067
 11
1384.0000000000004
 21
1052
  0
LINE
  8
_0-6_
  6
DASHED1
 62
    7
 10
1384.0000000000004
 20
1067
 11
516
 21
1067
  0
LINE
  8
_0-6_
  6
DASHED1
 62
    7
 10
516
 20
1067
 11
516
 21
1052
  0
LINE
  8
_0-6_
  6
DASHED1
 62
    7
 10
1384.0000000000004
 20
1052
 11
516
 21
1052
  0
LINE
  8
_0-6_
  6
DASHED1
 62
    7
 10
1384.0000000000004
 20
1187
 11
515.99999999999965
 21
1187
  0
LINE
  8
_0-6_
  6
DASHED1
 62
    7
 10
515.99999999999965
 20
1172
 11
515.99999999999965
 21
1187
  0
LINE
  8
_0-6_
  6
DASHED1
 62
    7
 10
1384.0000000000004
 20
1172
 11
515.99999999999965
 21
1172
  0
LINE
  8
_0-3_
  6
CONTINUOUS
 62
    5
 10
3740
 20
1407
 11
3740
 21
807
  0
LINE
  8
_0-3_
  6
CONTINUOUS
 62
    5
 10
2870
 20
1407
 11
2870
 21
807
  0
LINE
  8
_0-3_
  6
CONTINUOUS
 62
    4
 10
2870
 20
1322
 11
3740
 21
1322
  0
LINE
  8
_0-3_
  6
CONTINUOUS
 62
    5
 10
2870
 20
813.5
 11
3740
 21
813.5
  0
LINE
  8
_0-3_
  6
CONTINUOUS
 62
    4
 10
2870
 20
858.5
 11
3740
 21
858.5
  0
LINE
  8
_0-a_
  6
CONTINUOUS
 62
    4
 10
2870
 20
1391.9033200812118
 11
2885.0966799187904
 21
1407.0000000000022
  0
LINE
  8
_0-a_
  6
CONTINUOUS
 62
    4
 10
2870
 20
1363.6190488337633
 11
2913.3809511662402
 21
1407.0000000000036
  0
LINE
  8
_0-a_
  6
CONTINUOUS
 62
    4
 10
2870
 20
1335.3347775862966
 11
2941.6652224137042
 21
1407.0000000000009
  0
LINE
  8
_0-a_
  6
CONTINUOUS
 62
    4
 10
2870
 20
835.92352261675114
 11
2892.5764773832474
 21
858.49999999999852
  0
LINE
  8
_0-a_
  6
CONTINUOUS
 62
    4
 10
3657.2034611053295
 20
1322.0000000000015
 11
3740
 21
1404.7965388946722
  0
LINE
  8
_0-a_
  6
CONTINUOUS
 62
    4
 10
3685.4877323527935
 20
1321.9999999999986
 11
3740
 21
1376.5122676472055
  0
LINE
  8
_0-a_
  6
CONTINUOUS
 62
    4
 10
3713.7720036002474
 20
1321.9999999999956
 11
3740
 21
1348.227996399748
  0
LINE
  8
_0-a_
  6
CONTINUOUS
 62
    4
 10
3704.6832585697852
 20
813.49999999999693
 11
3740
 21
848.81674143021143
  0
LINE
  8
_0-a_
  6
CONTINUOUS
 62
    4
 10
3732.9675298172551
 20
813.49999999999965
 11
3740
 21
820.53247018274475
  0
POINT
  8
_0-9_
 62
    3
 10
2870
 20
617
  0
POINT
  8
_0-9_
 62
    3
 10
3740
 20
617
  0
LINE
  8
_0-9_
  6
CONTINUOUS
 62
    4
 10
2870
 20
607
 11
2870
 21
777
  0
LINE
  8
_0-9_
  6
CONTINUOUS
 62
    4
 10
3740
 20
607
 11
3740
 21
777
  0
LINE
  8
_0-9_
  6
CONTINUOUS
 62
    4
 10
2870
 20
617
 11
3740
 21
617
  0
TEXT
  8
_0-9_
 62
    7
 10
3271.9
 20
622
 40
35
 41
0.6285714285714286
 50
0
  1
８７０
  0
POINT
  8
_0-9_
 62
    3
 10
2260.5
 20
1272.8513807152558
  0
LINE
  8
_0-9_
  6
CONTINUOUS
 62
    4
 10
2260.5
 20
1282.8513807152558
 11
2260.5
 21
1205.7339520144862
  0
LINE
  8
_0-9_
  6
CONTINUOUS
 62
    7
 10
2965
 20
2635
 11
4115
 21
2635
  0
TEXT
  8
_0-9_
 62
    7
 10
3445
 20
2792.5
 40
35
 41
0.8571428571428568
 50
0
  1
仕　　　　様
  0
TEXT
  8
_0-9_
 62
    7
 10
3052.0000000000004
 20
2722.5
 40
35
 41
0.8571428571428568
 50
0
  1
側　　板
  0
TEXT
  8
_0-9_
 62
    7
 10
3290.0000000000009
 20
2722.5
 40
35
 41
0.8571428571428568
 50
0
  1
メラミン化粧パーティクルボード　１５ｔ
  0
LINE
  8
_0-9_
  6
CONTINUOUS
 62
    7
 10
2965
 20
2780
 11
4115
 21
2780
  0
LINE
  8
_0-9_
  6
CONTINUOUS
 62
    7
 10
2965
 20
2775
 11
4115
 21
2775
  0
LINE
  8
_0-9_
  6
CONTINUOUS
 62
    3
 10
2965
 20
2845
 11
4115
 21
2845
  0
LINE
  8
_0-9_
  6
CONTINUOUS
 62
    3
 10
2965
 20
2285
 11
4115
 21
2285
  0
LINE
  8
_0-9_
  6
CONTINUOUS
 62
    7
 10
2965
 20
2495
 11
4115
 21
2495
  0
LINE
  8
_0-9_
  6
CONTINUOUS
 62
    7
 10
2965
 20
2425
 11
4115
 21
2425
  0
TEXT
  8
_0-9_
 62
    7
 10
3052
 20
2652.5
 40
35
 41
0.8571428571428568
 50
0
  1
天　　板
  0
TEXT
  8
_0-9_
 62
    7
 10
3289.9999999999995
 20
2652.5
 40
35
 41
0.8571428571428568
 50
0
  1
片面化粧パーティクルボード　１５ｔ
  0
TEXT
  8
_0-9_
 62
    7
 10
3052.0000000000004
 20
2582.5
 40
35
 41
0.8571428571428568
 50
0
  1
見　上　板
  0
TEXT
  8
_0-9_
 62
    7
 10
3289.9999999999995
 20
2582.5
 40
35
 41
0.8571428571428568
 50
0
  1
メラミン化粧パーティクルボード　１５ｔ
  0
LINE
  8
_0-9_
  6
CONTINUOUS
 62
    7
 10
2965
 20
2355
 11
4115
 21
2355
  0
TEXT
  8
_0-9_
 62
    7
 10
3052.0000000000004
 20
2512.5
 40
35
 41
0.8571428571428568
 50
0
  1
背　　板
  0
TEXT
  8
_0-9_
 62
    7
 10
3290
 20
2512.5
 40
35
 41
0.8571428571428568
 50
0
  1
カラーＭＤＦ・落とし込み
  0
TEXT
  8
_0-9_
 62
    7
 10
3100
 20
2442.5
 40
35
 41
0.8571428571428568
 50
0
  1
扉
  0
TEXT
  8
_0-9_
 62
    7
 10
3290.0000000000004
 20
2442.5
 40
35
 41
0.8571428571428568
 50
0
  1
メラミン化粧パーティクルボード　１５ｔ　耐震ラッチ付
  0
TEXT
  8
_0-9_
 62
    7
 10
3052.0000000000004
 20
2372.5
 40
35
 41
0.8571428571428568
 50
0
  1
丁　　番
  0
TEXT
  8
_0-9_
 62
    7
 10
3289.999999999999
 20
2372.5
 40
35
 41
0.8571428571428568
 50
0
  1
ワンタッチスライド式丁番
  0
TEXT
  8
_0-9_
 62
    7
 10
3052
 20
2302.5
 40
35
 41
0.8571428571428568
 50
0
  1
棚　　板
  0
TEXT
  8
_0-9_
 62
    7
 10
3289.9999999999995
 20
2302.5
 40
35
 41
0.8571428571428568
 50
0
  1
両面化粧パーティクルボード　１５ｔ　可動式
  0
TEXT
  8
_0-9_
 62
    7
 10
3860.6210602131609
 20
2220
 40
35
 41
0.8571428571428568
 50
0
  1
扉　色
  0
TEXT
  8
_0-9_
 62
    7
 10
3715.7122200188973
 20
2152.5
 40
35
 41
0.8571428571428568
 50
0
  1
ＳＷ
  0
TEXT
  8
_0-9_
 62
    7
 10
3830.2421204263209
 20
2152.5
 40
35
 41
0.8571428571428568
 50
0
  1
ホワイト
  0
TEXT
  8
_0-9_
 62
    7
 10
3720.7036754285845
 20
2093.0893268157801
 40
35
 41
0.8571428571428568
 50
0
  1
ＬＧ
  0
TEXT
  8
_0-9_
 62
    7
 10
3830.3411143313564
 20
2093.0893268157801
 40
35
 41
0.8571428571428568
 50
0
  1
木　　目
  0
TEXT
  8
_0-9_
 62
    7
 10
3715.7122200188973
 20
2027.5
 40
35
 41
0.8571428571428568
 50
0
  1
ＵＷ
  0
LINE
  8
_0-9_
  6
CONTINUOUS
 62
    3
 10
4115
 20
2270
 11
4115
 21
1774.9999999999995
  0
LINE
  8
_0-9_
  6
CONTINUOUS
 62
    7
 10
3800.2421204263209
 20
2200
 11
3800.2421204263209
 21
2080
  0
TEXT
  8
_0-9_
 62
    7
 10
3830.24212042632
 20
2027.5
 40
35
 41
0.8571428571428568
 50
0
  1
ｳﾙﾄﾗﾎﾜｲﾄ（艶有）
  0
TEXT
  8
_0-9_
 62
    7
 10
3720.7036754285845
 20
1968.0893268157801
 40
35
 41
0.8571428571428568
 50
0
  1
ＷＮ
  0
LINE
  8
_0-9_
  6
CONTINUOUS
 62
    3
 10
3700.2421204263209
 20
2270
 11
3700.2421204263209
 21
1774.9999999999995
  0
LINE
  8
_0-9_
  6
CONTINUOUS
 62
    7
 10
3800.2421204263209
 20
2075
 11
3800.2421204263209
 21
1774.9999999999995
  0
TEXT
  8
_0-9_
 62
    7
 10
3830.2421204263209
 20
1967.4999999999997
 40
35
 41
0.8571428571428568
 50
0
  1
ｳｨﾝｻﾞｰﾅｯﾄ（艶有）
  0
TEXT
  8
_0-9_
 62
    7
 10
3720.7036754285845
 20
1908.0893268157797
 40
35
 41
0.8571428571428568
 50
0
  1
ＢＳ
  0
TEXT
  8
_0-9_
 62
    7
 10
3830.341114331356
 20
1908.0893268157797
 40
35
 41
0.8571428571428568
 50
0
  1
ブラックストーン
  0
TEXT
  8
_0-9_
 62
    7
 10
3720.7036754285845
 20
1848.0893268157797
 40
35
 41
0.8571428571428568
 50
0
  1
ＰＭ
  0
LINE
  8
_0-9_
  6
CONTINUOUS
 62
    3
 10
4115
 20
2270
 11
3700.2421204263209
 21
2270
  0
LINE
  8
_0-9_
  6
CONTINUOUS
 62
    3
 10
4115
 20
1774.9999999999995
 11
3700.2421204263209
 21
1774.9999999999995
  0
LINE
  8
_0-9_
  6
CONTINUOUS
 62
    7
 10
3700.2421204263209
 20
2140
 11
4115
 21
2140
  0
LINE
  8
_0-9_
  6
CONTINUOUS
 62
    7
 10
4115
 20
2140
 11
3700.2421204263209
 21
2140
  0
LINE
  8
_0-9_
  6
CONTINUOUS
 62
    3
 10
4115
 20
2140
 11
3700.2421204263209
 21
2140
  0
LINE
  8
_0-9_
  6
CONTINUOUS
 62
    3
 10
4115
 20
2080
 11
3700.2421204263209
 21
2080
  0
LINE
  8
_0-9_
  6
CONTINUOUS
 62
    7
 10
4115
 20
2015
 11
3700.2421204263209
 21
2015
  0
LINE
  8
_0-9_
  6
CONTINUOUS
 62
    3
 10
4115
 20
2015
 11
3700.2421204263209
 21
2015
  0
LINE
  8
_0-9_
  6
CONTINUOUS
 62
    3
 10
4115
 20
1954.9999999999997
 11
3700.2421204263209
 21
1954.9999999999997
  0
LINE
  8
_0-9_
  6
CONTINUOUS
 62
    7
 10
3700.2421204263209
 20
2015
 11
4115
 21
2015
  0
LINE
  8
_0-9_
  6
CONTINUOUS
 62
    7
 10
4115
 20
2080
 11
3700.2421204263209
 21
2080
  0
LINE
  8
_0-9_
  6
CONTINUOUS
 62
    7
 10
4115
 20
2075
 11
3700.2421204263209
 21
2075
  0
LINE
  8
_0-9_
  6
CONTINUOUS
 62
    7
 10
4115
 20
1954.9999999999997
 11
3700.2421204263209
 21
1954.9999999999997
  0
LINE
  8
_0-9_
  6
CONTINUOUS
 62
    3
 10
4115
 20
1954.9999999999997
 11
3700.2421204263209
 21
1954.9999999999997
  0
LINE
  8
_0-9_
  6
CONTINUOUS
 62
    3
 10
4115
 20
1894.9999999999995
 11
3700.2421204263209
 21
1894.9999999999995
  0
LINE
  8
_0-9_
  6
CONTINUOUS
 62
    7
 10
3700.2421204263209
 20
1954.9999999999997
 11
4115
 21
1954.9999999999997
  0
LINE
  8
_0-9_
  6
CONTINUOUS
 62
    7
 10
4115
 20
1894.9999999999995
 11
3700.2421204263209
 21
1894.9999999999995
  0
LINE
  8
_0-9_
  6
CONTINUOUS
 62
    3
 10
4115
 20
1894.9999999999995
 11
3700.2421204263209
 21
1894.9999999999995
  0
LINE
  8
_0-9_
  6
CONTINUOUS
 62
    3
 10
4115
 20
1834.9999999999995
 11
3700.2421204263209
 21
1834.9999999999995
  0
LINE
  8
_0-9_
  6
CONTINUOUS
 62
    7
 10
3700.2421204263209
 20
1894.9999999999995
 11
4115
 21
1894.9999999999995
  0
LINE
  8
_0-9_
  6
CONTINUOUS
 62
    7
 10
4115
 20
1834.9999999999995
 11
3700.2421204263209
 21
1834.9999999999995
  0
LINE
  8
_0-9_
  6
CONTINUOUS
 62
    3
 10
4115
 20
1834.9999999999995
 11
3700.2421204263209
 21
1834.9999999999995
  0
LINE
  8
_0-9_
  6
CONTINUOUS
 62
    7
 10
3700.2421204263209
 20
1834.9999999999995
 11
4115
 21
1834.9999999999995
  0
LINE
  8
_0-9_
  6
CONTINUOUS
 62
    7
 10
4115
 20
2200
 11
3700.2421204263209
 21
2200
  0
LINE
  8
_0-9_
  6
CONTINUOUS
 62
    7
 10
4115
 20
2205
 11
3700.2421204263209
 21
2205
  0
LINE
  8
_0-9_
  6
CONTINUOUS
 62
    7
 10
2965
 20
2705
 11
4115
 21
2705
  0
LINE
  8
_0-9_
  6
CONTINUOUS
 62
    7
 10
2965
 20
2565
 11
4115
 21
2565
  0
LINE
  8
_0-9_
  6
CONTINUOUS
 62
    3
 10
2965
 20
2845
 11
2965
 21
2285
  0
LINE
  8
_0-9_
  6
CONTINUOUS
 62
    3
 10
3265
 20
2775
 11
3265
 21
2285
  0
LINE
  8
_0-9_
  6
CONTINUOUS
 62
    3
 10
4115
 20
2845
 11
4115
 21
2285
  0
TEXT
  8
_0-9_
 62
    7
 10
3830.3411143313569
 20
1848.0893268157797
 40
35
 41
0.8571428571428568
 50
0
  1
ペールグレイン
  0
TEXT
  8
_0-9_
 62
    7
 10
3720.7036754285845
 20
1788.0893268157797
 40
35
 41
0.8571428571428568
 50
0
  1
ＭＤ
  0
TEXT
  8
_0-9_
 62
    7
 10
3830.3411143313569
 20
1788.0893268157797
 40
35
 41
0.8571428571428568
 50
0
  1
ダークグレイン
  0
LINE
  8
_0-3_
  6
CONTINUOUS
 62
    5
 10
2101
 20
822
 11
2101
 21
807
  0
LINE
  8
_0-3_
  6
DASHED1
 62
    4
 10
2101
 20
1392
 11
2101
 21
1394.5
  0
LINE
  8
_0-3_
  6
CONTINUOUS
 62
    5
 10
2101
 20
1407
 11
2101
 21
1392
  0
LINE
  8
_0-3_
  6
CONTINUOUS
 62
    4
 10
2101
 20
1392
 11
2101
 21
822
  0
LINE
  8
_0-3_
  6
CONTINUOUS
 62
    7
 10
2101
 20
1407
 11
2101
 21
807
  0
LINE
  8
_0-1_
  6
DASHED1
 62
    7
 10
2174
 20
1389.4235499999995
 11
2172.8933500000002
 21
1390.0624999999995
  0
LINE
  8
_0-1_
  6
DASHED1
 62
    7
 10
2174
 20
1388.5575499999999
 11
2172
 21
1389.7122499999998
  0
LINE
  8
_0-1_
  6
DASHED1
 62
    7
 10
2174
 20
1387.6914999999996
 11
2172
 21
1388.8461999999999
  0
LINE
  8
_0-1_
  6
DASHED1
 62
    7
 10
2174
 20
1386.8254999999996
 11
2172
 21
1387.9801999999997
  0
LINE
  8
_0-1_
  6
DASHED1
 62
    7
 10
2174
 20
1385.9594499999998
 11
2172
 21
1387.1141499999998
  0
LINE
  8
_0-1_
  6
DASHED1
 62
    7
 10
2174
 20
1385.0934499999996
 11
2172
 21
1386.2481499999998
  0
LINE
  8
_0-1_
  6
DASHED1
 62
    7
 10
2174
 20
1384.2273999999997
 11
2172
 21
1385.3820999999995
  0
LINE
  8
_0-1_
  6
DASHED1
 62
    7
 10
2174
 20
1383.3613999999997
 11
2172
 21
1384.5160999999995
  0
LINE
  8
_0-1_
  6
DASHED1
 62
    7
 10
2174
 20
1382.4953499999996
 11
2172
 21
1383.6500499999997
  0
LINE
  8
_0-1_
  6
DASHED1
 62
    7
 10
2174
 20
1381.6293499999997
 11
2172
 21
1382.7840499999997
  0
LINE
  8
_0-1_
  6
DASHED1
 62
    7
 10
2174
 20
1380.7632999999998
 11
2172
 21
1381.9179999999996
  0
LINE
  8
_0-1_
  6
DASHED1
 62
    7
 10
2174
 20
1379.8972999999998
 11
2172
 21
1381.0519999999996
  0
LINE
  8
_0-1_
  6
DASHED1
 62
    7
 10
2174
 20
1379.03125
 11
2172
 21
1380.1859499999998
  0
LINE
  8
_0-1_
  6
DASHED1
 62
    7
 10
2174
 20
1378.1652499999997
 11
2172
 21
1379.3199499999996
  0
LINE
  8
_0-1_
  6
DASHED1
 62
    7
 10
2174
 20
1377.2991999999997
 11
2172
 21
1378.4538999999997
  0
LINE
  8
_0-1_
  6
DASHED1
 62
    7
 10
2174
 20
1376.4331999999994
 11
2172
 21
1377.5878999999997
  0
LINE
  8
_0-1_
  6
DASHED1
 62
    7
 10
2174
 20
1375.5671499999996
 11
2172
 21
1376.7218499999999
  0
LINE
  8
_0-1_
  6
DASHED1
 62
    7
 10
2174
 20
1374.7011499999996
 11
2172
 21
1375.8558499999999
  0
LINE
  8
_0-1_
  6
DASHED1
 62
    7
 10
2174
 20
1373.8350999999997
 11
2172
 21
1374.9897999999996
  0
LINE
  8
_0-1_
  6
DASHED1
 62
    7
 10
2174
 20
1372.9690999999997
 11
2172
 21
1374.1237999999998
  0
LINE
  8
_0-1_
  6
DASHED1
 62
    7
 10
2174
 20
1372.1030499999997
 11
2172
 21
1373.2577499999997
  0
LINE
  8
_0-1_
  6
DASHED1
 62
    7
 10
2174
 20
1371.2370499999997
 11
2172
 21
1372.3917499999997
  0
LINE
  8
_0-1_
  6
DASHED1
 62
    7
 10
2174
 20
1370.3709999999998
 11
2172
 21
1371.5256999999996
  0
LINE
  8
_0-1_
  6
DASHED1
 62
    7
 10
2174
 20
1369.5049999999996
 11
2172
 21
1370.6596999999997
  0
LINE
  8
_0-1_
  6
DASHED1
 62
    7
 10
2174
 20
1368.6389499999997
 11
2172
 21
1369.7936499999996
  0
LINE
  8
_0-1_
  6
DASHED1
 62
    7
 10
2173.8899500000002
 20
1367.8364999999996
 11
2172
 21
1368.9276499999996
  0
LINE
  8
_0-1_
  6
DASHED1
 62
    7
 10
2173.7692000000001
 20
1367.0401499999998
 11
2171.9279000000001
 21
1368.1032499999996
  0
LINE
  8
_0-1_
  6
DASHED1
 62
    7
 10
2173.49645
 20
1366.3315999999997
 11
2171.7399
 21
1367.3457499999997
  0
LINE
  8
_0-1_
  6
DASHED1
 62
    7
 10
2173.1516000000001
 20
1365.6646999999998
 11
2171.4396000000001
 21
1366.6530999999997
  0
LINE
  8
_0-1_
  6
DASHED1
 62
    7
 10
2172.8067500000001
 20
1364.9977499999997
 11
2170.8915500000002
 21
1366.1034999999997
  0
LINE
  8
_0-1_
  6
DASHED1
 62
    7
 10
2172.3042
 20
1364.4218999999998
 11
2170.3965499999999
 21
1365.5232499999997
  0
LINE
  8
_0-1_
  6
DASHED1
 62
    7
 10
2171.7265999999999
 20
1363.8892999999995
 11
2169.1750000000001
 21
1365.3624999999997
  0
LINE
  8
_0-1_
  6
DASHED1
 62
    7
 10
2171.0576500000001
 20
1363.4094999999997
 11
2167.6750000000001
 21
1365.3624999999997
  0
LINE
  8
_0-1_
  6
DASHED1
 62
    7
 10
2170.1692499999999
 20
1363.0563999999999
 11
2166.1750000000001
 21
1365.3624999999997
  0
LINE
  8
_0-1_
  6
DASHED1
 62
    7
 10
2169.25495
 20
1362.7182499999998
 11
2164.6750000000001
 21
1365.3624999999997
  0
LINE
  8
_0-1_
  6
DASHED1
 62
    7
 10
2166.52475
 20
1362.5624999999995
 11
2162.2099500000003
 21
1365.0536499999998
  0
LINE
  8
_0-1_
  6
DASHED1
 62
    7
 10
2167.9746
 20
1362.5914499999998
 11
2163.2345
 21
1365.3281499999998
  0
LINE
  8
_0-1_
  6
DASHED1
 62
    7
 10
2165.02475
 20
1362.5624999999995
 11
2161.1854499999999
 21
1364.7790999999997
  0
LINE
  8
_0-1_
  6
DASHED1
 62
    7
 10
2162.02475
 20
1362.5624999999995
 11
2159.1364000000003
 21
1364.2300499999998
  0
LINE
  8
_0-1_
  6
DASHED1
 62
    7
 10
2163.52475
 20
1362.5624999999995
 11
2160.1609499999999
 21
1364.5045999999997
  0
LINE
  8
_0-1_
  6
DASHED1
 62
    7
 10
2160.52475
 20
1362.5624999999995
 11
2157.7483999999999
 21
1364.1653999999996
  0
LINE
  8
_0-1_
  6
DASHED1
 62
    7
 10
2159.02475
 20
1362.5624999999995
 11
2156.3045999999999
 21
1364.1329999999995
  0
LINE
  8
_0-1_
  6
DASHED1
 62
    7
 10
2157.52475
 20
1362.5624999999995
 11
2154.4489000000003
 21
1364.3382999999996
  0
LINE
  8
_0-1_
  6
DASHED1
 62
    7
 10
2156.02475
 20
1362.5624999999995
 11
2152.0749
 21
1364.8429499999997
  0
LINE
  8
_0-1_
  6
DASHED1
 62
    7
 10
2154.52475
 20
1362.5624999999995
 11
2149.7008999999998
 21
1365.3475499999995
  0
LINE
  8
_0-1_
  6
DASHED1
 62
    7
 10
2153.02475
 20
1362.5624999999995
 11
2147.3269
 21
1365.8521499999997
  0
LINE
  8
_0-1_
  6
DASHED1
 62
    7
 10
2151.52475
 20
1362.5624999999995
 11
2144.9528500000001
 21
1366.3567499999996
  0
LINE
  8
_0-1_
  6
DASHED1
 62
    7
 10
2150.02475
 20
1362.5624999999995
 11
2142.5788500000003
 21
1366.8613999999997
  0
LINE
  8
_0-1_
  6
DASHED1
 62
    7
 10
2148.52475
 20
1362.5624999999995
 11
2130.6846
 21
1372.8624999999997
  0
LINE
  8
_0-1_
  6
DASHED1
 62
    7
 10
2147.02475
 20
1362.5624999999995
 11
2128
 21
1373.5464499999998
  0
LINE
  8
_0-1_
  6
DASHED1
 62
    7
 10
2145.52475
 20
1362.5624999999995
 11
2128
 21
1372.6803999999997
  0
LINE
  8
_0-1_
  6
DASHED1
 62
    7
 10
2144.02475
 20
1362.5624999999995
 11
2128
 21
1371.8143999999997
  0
LINE
  8
_0-1_
  6
DASHED1
 62
    7
 10
2141
 20
1378.1652499999997
 11
2139
 21
1379.3199499999996
  0
LINE
  8
_0-1_
  6
DASHED1
 62
    7
 10
2141
 20
1377.2991999999997
 11
2139
 21
1378.4538999999997
  0
LINE
  8
_0-1_
  6
DASHED1
 62
    7
 10
2141
 20
1376.4331999999994
 11
2139
 21
1377.5878999999997
  0
LINE
  8
_0-1_
  6
DASHED1
 62
    7
 10
2141
 20
1375.5671499999996
 11
2138.7292000000002
 21
1376.8781999999998
  0
LINE
  8
_0-1_
  6
DASHED1
 62
    7
 10
2141
 20
1374.7011499999996
 11
2137.6916000000001
 21
1376.6112499999996
  0
LINE
  8
_0-1_
  6
DASHED1
 62
    7
 10
2141
 20
1373.8350999999997
 11
2136.2759999999998
 21
1376.5624999999997
  0
LINE
  8
_0-1_
  6
DASHED1
 62
    7
 10
2141
 20
1372.9690999999997
 11
2134.7759999999998
 21
1376.5624999999997
  0
LINE
  8
_0-1_
  6
DASHED1
 62
    7
 10
2141
 20
1372.1030499999997
 11
2133.2760000000002
 21
1376.5624999999997
  0
LINE
  8
_0-1_
  6
DASHED1
 62
    7
 10
2141
 20
1371.2370499999997
 11
2138.1846
 21
1372.8624999999997
  0
LINE
  8
_0-1_
  6
DASHED1
 62
    7
 10
2141
 20
1370.3709999999998
 11
2136.6846
 21
1372.8624999999997
  0
LINE
  8
_0-1_
  6
DASHED1
 62
    7
 10
2141
 20
1369.5049999999996
 11
2135.1846
 21
1372.8624999999997
  0
LINE
  8
_0-1_
  6
DASHED1
 62
    7
 10
2141.0034
 20
1368.6369999999997
 11
2133.6846
 21
1372.8624999999997
  0
LINE
  8
_0-1_
  6
DASHED1
 62
    7
 10
2141.13515
 20
1367.6948999999995
 11
2132.1846
 21
1372.8624999999997
  0
LINE
  8
_0-1_
  6
DASHED1
 62
    7
 10
2138.1846
 20
1372.8624999999997
 11
2131.7760000000002
 21
1376.5624999999997
  0
LINE
  8
_0-1_
  6
DASHED1
 62
    7
 10
2136.6846
 20
1372.8624999999997
 11
2130.2759999999998
 21
1376.5624999999997
  0
LINE
  8
_0-1_
  6
DASHED1
 62
    7
 10
2135.1846
 20
1372.8624999999997
 11
2129
 21
1376.4331999999994
  0
LINE
  8
_0-1_
  6
DASHED1
 62
    7
 10
2133.6846
 20
1372.8624999999997
 11
2128
 21
1376.1444999999998
  0
LINE
  8
_0-1_
  6
DASHED1
 62
    7
 10
2132.1846
 20
1372.8624999999997
 11
2128
 21
1375.2784999999996
  0
LINE
  8
_0-1_
  6
DASHED1
 62
    7
 10
2130.6846
 20
1372.8624999999997
 11
2128
 21
1374.4124499999998
  0
LINE
  8
_0-1_
  6
DASHED1
 62
    7
 10
2174
 20
1390.1735499999997
 11
2173
 21
1390.7509
  0
LINE
  8
_0-1_
  6
DASHED1
 62
    7
 10
2174
 20
1390.1735499999997
 11
2172.8933500000002
 21
1390.8124999999997
  0
LINE
  8
_0-1_
  6
DASHED1
 62
    7
 10
2174
 20
1390.9235499999997
 11
2173.2397500000001
 21
1391.3624999999997
  0
LINE
  8
_0-1_
  6
DASHED1
 62
    7
 10
2139
 20
1381.0625
 11
2139
 21
1383.0624999999997
  0
LINE
  8
_0-1_
  6
DASHED1
 62
    7
 10
2159
 20
1364.1934999999998
 11
2156.5
 21
1364.0624999999997
  0
LINE
  8
_0-1_
  6
DASHED1
 62
    7
 10
2163.3627000000001
 20
1365.3624999999997
 11
2159
 21
1364.1934999999998
  0
LINE
  8
_0-1_
  6
DASHED1
 62
    7
 10
2141
 20
1378.4077999999997
 11
2139
 21
1379.5624999999997
  0
LINE
  8
_0-1_
  6
DASHED1
 62
    7
 10
2141
 20
1368.6706999999998
 11
2141
 21
1378.4077999999997
  0
LINE
  8
_0-1_
  6
DASHED1
 62
    7
 10
2164.0500000000001
 20
1390.0624999999995
 11
2164.0500000000001
 21
1389.0624999999997
  0
LINE
  8
_0-1_
  6
DASHED1
 62
    7
 10
2137.2679499999999
 20
1383.5625
 11
2139
 21
1380.5624999999997
  0
LINE
  8
_0-1_
  6
DASHED1
 62
    7
 10
2155.5
 20
1364.1148999999998
 11
2156.5
 21
1364.0624999999997
  0
LINE
  8
_0-1_
  6
DASHED1
 62
    7
 10
2141.3079999999999
 20
1367.1314999999999
 11
2155.5
 21
1364.1148999999998
  0
LINE
  8
_0-1_
  6
DASHED1
 62
    7
 10
2172
 20
1390.0624999999995
 11
2172
 21
1368.6601999999995
  0
LINE
  8
_0-1_
  6
DASHED1
 62
    7
 10
2163.3627000000001
 20
1365.3624999999997
 11
2170.2639000000003
 21
1365.3624999999997
  0
LINE
  8
_0-1_
  6
DASHED1
 62
    7
 10
2131.5
 20
1385.2624999999998
 11
2131.5
 21
1392.8624999999997
  0
LINE
  8
_0-1_
  6
DASHED1
 62
    7
 10
2146.3000000000001
 20
1389.0624999999997
 11
2164.0500000000001
 21
1389.0624999999997
  0
LINE
  8
_0-1_
  6
DASHED1
 62
    7
 10
2174
 20
1368.5625
 11
2174
 21
1391.3624999999997
  0
LINE
  8
_0-1_
  6
DASHED1
 62
    7
 10
2173
 20
1390.0624999999995
 11
2173
 21
1391.3791499999997
  0
LINE
  8
_0-1_
  6
DASHED1
 62
    7
 10
2174
 20
1391.3624999999997
 11
2114
 21
1392.2624999999995
  0
LINE
  8
_0-1_
  6
DASHED1
 62
    7
 10
2115
 20
1392.2624999999995
 11
2115
 21
1390.9624999999996
  0
LINE
  8
_0-1_
  6
DASHED1
 62
    7
 10
2136.2595500000002
 20
1390.9624999999996
 11
2140.5
 21
1390.9624999999996
  0
LINE
  8
_0-1_
  6
DASHED1
 62
    7
 10
2124.17855
 20
1390.9624999999996
 11
2115.1000000000003
 21
1390.9624999999996
  0
LINE
  8
_0-1_
  6
DASHED1
 62
    7
 10
2140.5
 20
1389.0624999999997
 11
2141.7000000000002
 21
1389.0624999999997
  0
LINE
  8
_0-1_
  6
DASHED1
 62
    7
 10
2105.0000500000001
 20
1381.0625
 11
2103.0000500000001
 21
1383.0624999999997
  0
LINE
  8
_0-1_
  6
DASHED1
 62
    7
 10
2103.0000500000001
 20
1383.0624999999997
 11
2103.0000500000001
 21
1390.0624999999995
  0
LINE
  8
_0-1_
  6
DASHED1
 62
    7
 10
2108.0000500000001
 20
1387.0624999999997
 11
2108.0000500000001
 21
1385.7624999999998
  0
LINE
  8
_0-1_
  6
DASHED1
 62
    7
 10
2144
 20
1386.9624999999996
 11
2144
 21
1375.7624999999995
  0
LINE
  8
_0-1_
  6
DASHED1
 62
    7
 10
2103.0000500000001
 20
1387.0624999999997
 11
2132.9284000000002
 21
1387.0624999999997
  0
LINE
  8
_0-1_
  6
DASHED1
 62
    7
 10
2134.34265
 20
1386.4766999999997
 11
2141.8784
 21
1378.9408999999998
  0
LINE
  8
_0-1_
  6
DASHED1
 62
    7
 10
2136.1710499999999
 20
1391.0625
 11
2104.0000500000001
 21
1391.0625
  0
LINE
  8
_0-1_
  6
DASHED1
 62
    7
 10
2139.7065999999999
 20
1389.5980499999996
 11
2143.48475
 21
1385.8198499999998
  0
LINE
  8
_0-1_
  6
DASHED1
 62
    7
 10
2138.8000000000001
 20
1381.0625
 11
2148.1100000000001
 21
1381.0625
  0
LINE
  8
_0-1_
  6
DASHED1
 62
    7
 10
2157.5
 20
1370.1324999999997
 11
2157.5
 21
1390.8524999999997
  0
LINE
  8
_0-1_
  6
DASHED1
 62
    7
 10
2113.5000500000001
 20
1387.0624999999997
 11
2113.5000500000001
 21
1391.0625
  0
LINE
  8
_0-1_
  6
DASHED1
 62
    7
 10
2108.0000500000001
 20
1391.0625
 11
2108.0000500000001
 21
1387.0624999999997
  0
LINE
  8
_0-1_
  6
DASHED1
 62
    7
 10
2105.0000500000001
 20
1381.0625
 11
2112.0000500000001
 21
1381.0625
  0
LINE
  8
_0-1_
  6
DASHED1
 62
    7
 10
2112.0000500000001
 20
1382.2224999999998
 11
2112.0000500000001
 21
1381.0625
  0
LINE
  8
_0-1_
  6
DASHED1
 62
    7
 10
2112.0000500000001
 20
1382.2224999999998
 11
2108.0000500000001
 21
1385.7624999999998
  0
LINE
  8
_0-1_
  6
DASHED1
 62
    7
 10
2170.4291000000002
 20
1375.3406499999996
 11
2171.3894
 21
1383.1618999999998
  0
LINE
  8
_0-1_
  6
DASHED1
 62
    7
 10
2171.39415
 20
1383.1603499999996
 11
2165.7091500000001
 21
1385.0624999999995
  0
LINE
  8
_0-1_
  6
DASHED1
 62
    7
 10
2155.5
 20
1384.0624999999997
 11
2144
 21
1384.0624999999997
  0
LINE
  8
_0-1_
  6
DASHED1
 62
    7
 10
2155.5
 20
1384.0624999999997
 11
2155.5
 21
1385.0624999999995
  0
LINE
  8
_0-1_
  6
DASHED1
 62
    7
 10
2155.5
 20
1385.0624999999995
 11
2165.7091500000001
 21
1385.0624999999995
  0
LINE
  8
_0-1_
  6
DASHED1
 62
    7
 10
2152.39415
 20
1378.1486999999997
 11
2152.39415
 21
1377.4468499999998
  0
LINE
  8
_0-1_
  6
DASHED1
 62
    7
 10
2152.39415
 20
1378.1486999999997
 11
2155.89415
 21
1381.0260999999995
  0
LINE
  8
_0-1_
  6
DASHED1
 62
    7
 10
2162.89415
 20
1380.1781999999998
 11
2162.89415
 21
1376.5588499999998
  0
LINE
  8
_0-1_
  6
DASHED1
 62
    7
 10
2152.39415
 20
1377.4468499999998
 11
2155.89415
 21
1380.6078999999997
  0
LINE
  8
_0-1_
  6
DASHED1
 62
    7
 10
2162.89415
 20
1376.5588499999998
 11
2162.89415
 21
1377.0773999999996
  0
LINE
  8
_0-1_
  6
DASHED1
 62
    7
 10
2146.3000000000001
 20
1389.0624999999997
 11
2146.3000000000001
 21
1384.2347499999996
  0
LINE
  8
_0-1_
  6
DASHED1
 62
    7
 10
2141.7000000000002
 20
1389.0624999999997
 11
2141.7000000000002
 21
1387.6045999999996
  0
LINE
  8
_0-1_
  6
DASHED1
 62
    7
 10
2141.7000000000002
 20
1387.6045999999996
 11
2141.7000000000002
 21
1380.3999499999997
  0
LINE
  8
_0-1_
  6
DASHED1
 62
    7
 10
2146.3000000000001
 20
1384.2347499999996
 11
2146.3000000000001
 21
1381.0625
  0
LINE
  8
_0-1_
  6
DASHED1
 62
    7
 10
2140.5
 20
1388.8045999999997
 11
2140.5
 21
1391.8649999999997
  0
LINE
  8
_0-1_
  6
DASHED1
 62
    7
 10
2140.5
 20
1378.6964999999997
 11
2140.5
 21
1380.3193499999997
  0
LINE
  8
_0-1_
  6
DASHED1
 62
    7
 10
2140.5
 20
1388.8045999999997
 11
2140.5
 21
1380.3193499999997
  0
LINE
  8
_0-1_
  6
DASHED1
 62
    7
 10
2137
 20
1385.0624999999995
 11
2137
 21
1384.5624999999997
  0
LINE
  8
_0-1_
  6
DASHED1
 62
    7
 10
2132.9284000000002
 20
1387.0624999999997
 11
2115
 21
1387.0624999999997
  0
LINE
  8
_0-1_
  6
DASHED1
 62
    7
 10
2135
 20
1387.0624999999997
 11
2133.4
 21
1387.0624999999997
  0
LINE
  8
_0-1_
  6
DASHED1
 62
    7
 10
2124.17855
 20
1390.9624999999996
 11
2128.6000000000003
 21
1390.9624999999996
  0
LINE
  8
_0-1_
  6
DASHED1
 62
    7
 10
2128.6069999999999
 20
1392.0190499999998
 11
2128.6011000000003
 21
1390.9624999999996
  0
LINE
  8
_0-1_
  6
DASHED1
 62
    7
 10
2134.3935000000001
 20
1391.9225999999998
 11
2134.3989000000001
 21
1390.9624999999996
  0
LINE
  8
_0-1_
  6
DASHED1
 62
    7
 10
2134.4
 20
1390.9624999999996
 11
2136.2595500000002
 21
1390.9624999999996
  0
LINE
  8
_0-1_
  6
DASHED1
 62
    7
 10
2133.4
 20
1387.0624999999997
 11
2133.4
 21
1391.9714999999996
  0
LINE
  8
_0-1_
  6
DASHED1
 62
    7
 10
2129.5999999999999
 20
1387.0624999999997
 11
2129.5999999999999
 21
1392.0030499999998
  0
LINE
  8
_0-1_
  6
DASHED1
 62
    7
 10
2156.5
 20
1387.5624999999995
 11
2156.5
 21
1392.5624999999995
  0
LINE
  8
_0-1_
  6
DASHED1
 62
    7
 10
2146.3000000000001
 20
1389.0624999999997
 11
2146.3000000000001
 21
1384.2624999999998
  0
LINE
  8
_0-1_
  6
DASHED1
 62
    7
 10
2159.8000000000001
 20
1389.0624999999997
 11
2140.5999999999999
 21
1389.0624999999997
  0
LINE
  8
_0-1_
  6
DASHED1
 62
    7
 10
2142.6000000000003
 20
1389.0624999999997
 11
2142.6000000000003
 21
1384.0624999999997
  0
LINE
  8
_0-1_
  6
DASHED1
 62
    7
 10
2142.6000000000003
 20
1384.0624999999997
 11
2142
 21
1384.0624999999997
  0
LINE
  8
_0-1_
  6
DASHED1
 62
    7
 10
2159.8000000000001
 20
1389.0624999999997
 11
2162
 21
1390.0624999999995
  0
LINE
  8
_0-1_
  6
DASHED1
 62
    7
 10
2171.3000000000001
 20
1390.0624999999995
 11
2171.3000000000001
 21
1388.0624999999997
  0
LINE
  8
_0-1_
  6
DASHED1
 62
    7
 10
2173
 20
1390.0624999999995
 11
2162
 21
1390.0624999999995
  0
LINE
  8
_0-1_
  6
DASHED1
 62
    7
 10
2173
 20
1391.2624999999998
 11
2140.5999999999999
 21
1391.7624999999998
  0
LINE
  8
_0-1_
  6
DASHED1
 62
    7
 10
2173
 20
1391.2624999999998
 11
2173
 21
1390.0624999999995
  0
LINE
  8
_0-1_
  6
DASHED1
 62
    7
 10
2172
 20
1388.0624999999997
 11
2171.3000000000001
 21
1388.0624999999997
  0
LINE
  8
_0-1_
  6
DASHED1
 62
    7
 10
2140.5999999999999
 20
1384.0624999999997
 11
2142
 21
1384.0624999999997
  0
LINE
  8
_0-1_
  6
DASHED1
 62
    7
 10
2140.5999999999999
 20
1391.7624999999998
 11
2140.5999999999999
 21
1388.7045999999998
  0
LINE
  8
_0-1_
  6
DASHED1
 62
    7
 10
2142
 20
1389.0624999999997
 11
2142
 21
1387.3045999999997
  0
LINE
  8
_0-1_
  6
DASHED1
 62
    7
 10
2142
 20
1387.3045999999997
 11
2142
 21
1384.2624999999998
  0
LINE
  8
_0-1_
  6
DASHED1
 62
    7
 10
2140.5999999999999
 20
1388.7045999999998
 11
2140.5999999999999
 21
1384.0624999999997
  0
LINE
  8
_0-1_
  6
DASHED1
 62
    7
 10
2145.3000000000001
 20
1383.2624999999998
 11
2143
 21
1383.2624999999998
  0
LINE
  8
_0-1_
  6
DASHED1
 62
    7
 10
2172
 20
1390.9624999999996
 11
2141.6000000000003
 21
1390.9624999999996
  0
LINE
  8
_0-1_
  6
DASHED1
 62
    7
 10
2141.6000000000003
 20
1390.9624999999996
 11
2141.6000000000003
 21
1391.7439999999996
  0
LINE
  8
_0-1_
  6
DASHED1
 62
    7
 10
2164.0500000000001
 20
1390.0624999999995
 11
2173
 21
1390.0624999999995
  0
LINE
  8
_0-1_
  6
DASHED1
 62
    7
 10
2172
 20
1390.9624999999996
 11
2172
 21
1391.2779499999996
  0
LINE
  8
_0-1_
  6
DASHED1
 62
    7
 10
2140.6602500000003
 20
1391.7613999999998
 11
2140.5999999999999
 21
1391.7265999999997
  0
LINE
  8
_0-1_
  6
DASHED1
 62
    7
 10
2148.27655
 20
1390.9624999999996
 11
2144.98565
 21
1389.0624999999997
  0
LINE
  8
_0-1_
  6
DASHED1
 62
    7
 10
2146.77655
 20
1390.9624999999996
 11
2143.48565
 21
1389.0624999999997
  0
LINE
  8
_0-1_
  6
DASHED1
 62
    7
 10
2145.27655
 20
1390.9624999999996
 11
2141.98565
 21
1389.0624999999997
  0
LINE
  8
_0-1_
  6
DASHED1
 62
    7
 10
2143.77655
 20
1390.9624999999996
 11
2140.5999999999999
 21
1389.1284999999995
  0
LINE
  8
_0-1_
  6
DASHED1
 62
    7
 10
2142.27655
 20
1390.9624999999996
 11
2140.5999999999999
 21
1389.9945499999998
  0
LINE
  8
_0-1_
  6
DASHED1
 62
    7
 10
2141.6000000000003
 20
1391.4378999999996
 11
2140.5999999999999
 21
1390.8605499999998
  0
LINE
  8
_0-1_
  6
DASHED1
 62
    7
 10
2161.77655
 20
1390.9624999999996
 11
2158.48565
 21
1389.0624999999997
  0
LINE
  8
_0-1_
  6
DASHED1
 62
    7
 10
2160.27655
 20
1390.9624999999996
 11
2156.98565
 21
1389.0624999999997
  0
LINE
  8
_0-1_
  6
DASHED1
 62
    7
 10
2158.77655
 20
1390.9624999999996
 11
2155.48565
 21
1389.0624999999997
  0
LINE
  8
_0-1_
  6
DASHED1
 62
    7
 10
2157.27655
 20
1390.9624999999996
 11
2153.98565
 21
1389.0624999999997
  0
LINE
  8
_0-1_
  6
DASHED1
 62
    7
 10
2155.77655
 20
1390.9624999999996
 11
2152.48565
 21
1389.0624999999997
  0
LINE
  8
_0-1_
  6
DASHED1
 62
    7
 10
2154.27655
 20
1390.9624999999996
 11
2150.98565
 21
1389.0624999999997
  0
LINE
  8
_0-1_
  6
DASHED1
 62
    7
 10
2152.77655
 20
1390.9624999999996
 11
2149.48565
 21
1389.0624999999997
  0
LINE
  8
_0-1_
  6
DASHED1
 62
    7
 10
2151.27655
 20
1390.9624999999996
 11
2147.98565
 21
1389.0624999999997
  0
LINE
  8
_0-1_
  6
DASHED1
 62
    7
 10
2149.77655
 20
1390.9624999999996
 11
2146.48565
 21
1389.0624999999997
  0
LINE
  8
_0-1_
  6
DASHED1
 62
    7
 10
2163.27655
 20
1390.9624999999996
 11
2160.6728499999999
 21
1389.4592499999998
  0
LINE
  8
_0-1_
  6
DASHED1
 62
    7
 10
2164.77655
 20
1390.9624999999996
 11
2163.2177000000001
 21
1390.0624999999995
  0
LINE
  8
_0-1_
  6
DASHED1
 62
    7
 10
2166.27655
 20
1390.9624999999996
 11
2164.7177000000001
 21
1390.0624999999995
  0
LINE
  8
_0-1_
  6
DASHED1
 62
    7
 10
2167.77655
 20
1390.9624999999996
 11
2166.2177000000001
 21
1390.0624999999995
  0
LINE
  8
_0-1_
  6
DASHED1
 62
    7
 10
2169.27655
 20
1390.9624999999996
 11
2167.7177000000001
 21
1390.0624999999995
  0
LINE
  8
_0-1_
  6
DASHED1
 62
    7
 10
2170.77655
 20
1390.9624999999996
 11
2169.2177000000001
 21
1390.0624999999995
  0
LINE
  8
_0-1_
  6
DASHED1
 62
    7
 10
2172.8014499999999
 20
1391.2655499999996
 11
2170.7177000000001
 21
1390.0624999999995
  0
LINE
  8
_0-1_
  6
DASHED1
 62
    7
 10
2173
 20
1390.5141499999995
 11
2172.2177000000001
 21
1390.0624999999995
  0
LINE
  8
_0-1_
  6
DASHED1
 62
    7
 10
2114
 20
1392.2624999999995
 11
2114
 21
1391.0625
  0
LINE
  8
_0-1_
  6
DASHED1
 62
    7
 10
2114
 20
1391.0625
 11
2114
 21
1388.0624999999997
  0
LINE
  8
_0-1_
  6
DASHED1
 62
    7
 10
2142.52475
 20
1362.5624999999995
 11
2128
 21
1370.9483499999998
  0
LINE
  8
_0-1_
  6
DASHED1
 62
    7
 10
2141.02475
 20
1362.5624999999995
 11
2128
 21
1370.0823499999999
  0
LINE
  8
_0-1_
  6
DASHED1
 62
    7
 10
2139.52475
 20
1362.5624999999995
 11
2127.9756500000003
 21
1369.2303999999999
  0
LINE
  8
_0-1_
  6
DASHED1
 62
    7
 10
2138.02475
 20
1362.5624999999995
 11
2128
 21
1368.3502999999996
  0
LINE
  8
_0-1_
  6
DASHED1
 62
    7
 10
2136.52475
 20
1362.5624999999995
 11
2128
 21
1367.4842499999997
  0
LINE
  8
_0-1_
  6
DASHED1
 62
    7
 10
2135.02475
 20
1362.5624999999995
 11
2128
 21
1366.6182499999995
  0
LINE
  8
_0-1_
  6
DASHED1
 62
    7
 10
2133.52475
 20
1362.5624999999995
 11
2128
 21
1365.7521999999996
  0
LINE
  8
_0-1_
  6
DASHED1
 62
    7
 10
2132.02475
 20
1362.5624999999995
 11
2128
 21
1364.8861999999996
  0
LINE
  8
_0-1_
  6
DASHED1
 62
    7
 10
2130.52475
 20
1362.5624999999995
 11
2128.0904
 21
1363.9679499999997
  0
LINE
  8
_0-1_
  6
DASHED1
 62
    7
 10
2139
 20
1381.0625
 11
2139
 21
1377.5624999999995
  0
LINE
  8
_0-1_
  6
DASHED1
 62
    7
 10
2128
 20
1364.5624999999997
 11
2128
 21
1387.0624999999997
  0
LINE
  8
_0-1_
  6
DASHED1
 62
    7
 10
2130
 20
1362.5624999999995
 11
2168
 21
1362.5624999999995
  0
LINE
  8
_0-1_
  6
DASHED1
 62
    7
 10
2138
 20
1376.5624999999997
 11
2128
 21
1376.5624999999997
  0
LINE
  8
_0-1_
  6
DASHED1
 62
    7
 10
2168.2088000000003
 20
1364.6761499999997
 11
2159
 21
1364.1934999999998
  0
LINE
  8
_0-1_
  6
DASHED1
 62
    7
 10
2144.7906500000003
 20
1364.6761499999997
 11
2155.5
 21
1364.1148999999998
  0
LINE
  8
_0-1_
  6
DASHED1
 62
    7
 10
2155.89415
 20
1381.0260999999995
 11
2155.89415
 21
1380.6078999999997
  0
LINE
  8
_0-1_
  6
DASHED1
 62
    7
 10
2169.8617000000003
 20
1376.4254499999997
 11
2157.5
 21
1383.5625
  0
LINE
  8
_0-1_
  6
DASHED1
 62
    7
 10
2170.8533999999999
 20
1378.7962999999995
 11
2160
 21
1385.0624999999995
  0
LINE
  8
_0-1_
  6
DASHED1
 62
    7
 10
2142.0924000000004
 20
1379.4340499999998
 11
2157.5
 21
1383.5625
  0
LINE
  8
_0-1_
  6
DASHED1
 62
    7
 10
2139
 20
1372.8624999999997
 11
2130
 21
1372.8624999999997
  0
LINE
  8
_0-1_
  6
DASHED1
 62
    7
 10
2139
 20
1372.8624999999997
 11
2139
 21
1368.5625
  0
LINE
  8
_0-1_
  6
DASHED1
 62
    7
 10
2139
 20
1372.8624999999997
 11
2139
 21
1377.5624999999995
  0
LINE
  8
_0-1_
  6
DASHED1
 62
    7
 10
2106.7500500000001
 20
1383.5625
 11
2104.2500500000001
 21
1383.5625
  0
LINE
  8
_0-1_
  6
DASHED1
 62
    7
 10
2104.2500500000001
 20
1391.0625
 11
2104.2500500000001
 21
1383.5625
  0
LINE
  8
_0-1_
  6
DASHED1
 62
    7
 10
2106.7500500000001
 20
1391.0625
 11
2106.7500500000001
 21
1383.5625
  0
LINE
  8
_0-1_
  6
DASHED1
 62
    7
 10
2105.5000500000001
 20
1381.9724999999996
 11
2105.5000500000001
 21
1393.0624999999997
  0
ARC
  8
_0-1_
  6
DASHED1
 62
    7
 10
2168
 20
1368.5625
 40
6.0000000000000008
 50
269.99999999999988
 51
359.99999999999988
  0
ARC
  8
_0-1_
  6
DASHED1
 62
    7
 10
2145
 20
1368.6706999999998
 40
4
 50
179.99999999999991
 51
202.63099999999988
  0
ARC
  8
_0-1_
  6
DASHED1
 62
    7
 10
2168
 20
1368.6601999999995
 40
4
 50
304.46999999999991
 51
0.0000000000000318
  0
ARC
  8
_0-1_
  6
DASHED1
 62
    7
 10
2135
 20
1383.0624999999997
 40
4
 50
84.812999999999973
 51
89.999999999999971
  0
ARC
  8
_0-1_
  6
DASHED1
 62
    7
 10
2135
 20
1383.0624999999997
 40
4
 50
359.99999999999994
 51
84.813000000000002
  0
CIRCLE
  8
_0-1_
  6
DASHED1
 62
    7
 10
2144
 20
1381.0625
 40
2.1
  0
CIRCLE
  8
_0-1_
  6
DASHED1
 62
    7
 10
2144
 20
1381.0625
 40
3.0000000000000004
  0
ARC
  8
_0-1_
  6
DASHED1
 62
    7
 10
2104.0000500000001
 20
1390.0624999999995
 40
1
 50
89.999999999999971
 51
180
  0
ARC
  8
_0-1_
  6
DASHED1
 62
    7
 10
2146.1676500000003
 20
1383.1364499999997
 40
6.0000000000000008
 50
223.73399999999995
 51
281.21399999999994
  0
CIRCLE
  8
_0-1_
  6
DASHED1
 62
    7
 10
2144
 20
1381.0625
 40
3.0000000000000004
  0
CIRCLE
  8
_0-1_
  6
DASHED1
 62
    7
 10
2144
 20
1381.0625
 40
2.1
  0
ARC
  8
_0-1_
  6
DASHED1
 62
    7
 10
2132.9284000000002
 20
1385.0624999999995
 40
2
 50
44.999999999999964
 51
89.999999999999971
  0
ARC
  8
_0-1_
  6
DASHED1
 62
    7
 10
2136.1710499999999
 20
1386.0625
 40
5
 50
44.999999999999964
 51
89.999999999999971
  0
ARC
  8
_0-1_
  6
DASHED1
 62
    7
 10
2147.7273999999997
 20
1390.0624999999995
 40
6.0000000000000008
 50
224.99999999999994
 51
269.99999999999994
  0
ARC
  8
_0-1_
  6
DASHED1
 62
    7
 10
2141.8336000000003
 20
1380.3999499999997
 40
1
 50
224.99999999999991
 51
284.99999999999994
  0
ARC
  8
_0-1_
  6
DASHED1
 62
    7
 10
2171.3659499999998
 20
1384.2532499999997
 40
10
 50
240.93599999999992
 51
257.62099999999992
  0
ARC
  8
_0-1_
  6
DASHED1
 62
    7
 10
2169.4365499999998
 20
1375.4624999999998
 40
1
 50
257.62099999999986
 51
352.99999999999994
  0
ARC
  8
_0-1_
  6
DASHED1
 62
    7
 10
2155.5999999999999
 20
1335.5624999999997
 40
42.00685
 50
86.96199999999996
 51
94.376999999999995
  0
ARC
  8
_0-1_
  6
DASHED1
 62
    7
 10
2156.7924499999999
 20
1358.0308999999997
 40
19.50685
 50
71.771999999999977
 51
86.961999999999974
  0
ARC
  8
_0-1_
  6
DASHED1
 62
    7
 10
2155.5999999999999
 20
1335.5624999999997
 40
42.706699999999997
 50
86.96199999999996
 51
94.304999999999992
  0
ARC
  8
_0-1_
  6
DASHED1
 62
    7
 10
2156.7924499999999
 20
1358.0308999999997
 40
20.206700000000004
 50
72.423999999999978
 51
86.961999999999974
  0
ARC
  8
_0-1_
  6
DASHED1
 62
    7
 10
2155.5999999999999
 20
1335.5624999999997
 40
42.5
 50
86.96199999999996
 51
101.21399999999999
  0
ARC
  8
_0-1_
  6
DASHED1
 62
    7
 10
2156.7924499999999
 20
1358.0308999999997
 40
20
 50
60.935999999999985
 51
87.972999999999984
  0
ARC
  8
_0-1_
  6
DASHED1
 62
    7
 10
2170.1117000000003
 20
1376.8584999999995
 40
0.5
 50
239.99999999999994
 51
352.99999999999994
  0
ARC
  8
_0-1_
  6
DASHED1
 62
    7
 10
2144
 20
1381.0625
 40
2.2999999999999998
 50
179.99999999999985
 51
359.99999999999988
  0
ARC
  8
_0-1_
  6
DASHED1
 62
    7
 10
2135
 20
1385.0624999999995
 40
2
 50
359.99999999999994
 51
89.999999999999943
  0
ARC
  8
_0-1_
  6
DASHED1
 62
    7
 10
2139
 20
1384.5624999999997
 40
2
 50
179.99999999999985
 51
209.99999999999991
  0
ARC
  8
_0-1_
  6
DASHED1
 62
    7
 10
2143
 20
1384.2624999999998
 40
1
 50
179.99999999999991
 51
269.99999999999994
  0
ARC
  8
_0-1_
  6
DASHED1
 62
    7
 10
2145.3000000000001
 20
1384.2624999999998
 40
1
 50
269.99999999999988
 51
359.99999999999988
  0
ARC
  8
_0-1_
  6
DASHED1
 62
    7
 10
2115
 20
1388.0624999999997
 40
1
 50
179.99999999999991
 51
269.99999999999994
  0
ARC
  8
_0-1_
  6
DASHED1
 62
    7
 10
2157.0600000000004
 20
1372.8524999999995
 40
8.7300000000000004
 50
146.57599999999996
 51
22.665999999999996
  0
ARC
  8
_0-1_
  6
DASHED1
 62
    7
 10
2130
 20
1373.8624999999997
 40
1
 50
179.99999999999991
 51
269.99999999999994
  0
ARC
  8
_0-1_
  6
DASHED1
 62
    7
 10
2138
 20
1377.5624999999995
 40
1
 50
269.99999999999988
 51
359.99999999999988
  0
ARC
  8
_0-1_
  6
DASHED1
 62
    7
 10
2130
 20
1364.5624999999997
 40
2
 50
179.99999999999991
 51
269.99999999999994
  0
ARC
  8
_0-1_
  6
DASHED1
 62
    7
 10
2168
 20
1368.6601999999995
 40
4
 50
273
 51
304.46999999999991
  0
ARC
  8
_0-1_
  6
DASHED1
 62
    7
 10
2145
 20
1368.6706999999998
 40
4
 50
202.63099999999991
 51
266.99999999999994
  0
ARC
  8
_0-1_
  6
DASHED1
 62
    7
 10
2155.5999999999999
 20
1335.5624999999997
 40
45.472499999999996
 50
86.96199999999996
 51
89.629000000000004
  0
ARC
  8
_0-1_
  6
DASHED1
 62
    7
 10
2155.5999999999999
 20
1335.5624999999997
 40
45.046349999999996
 50
86.96199999999996
 51
89.625999999999976
  0
ARC
  8
_0-1_
  6
DASHED1
 62
    7
 10
2156.7924499999999
 20
1358.0308999999997
 40
22.54635
 50
74.297999999999973
 51
86.961999999999974
  0
ARC
  8
_0-1_
  6
DASHED1
 62
    7
 10
2156.7924499999999
 20
1358.0308999999997
 40
22.9725
 50
74.596999999999965
 51
86.96199999999996
  0
ARC
  8
_0-1_
  6
DASHED1
 62
    7
 10
2157.0600000000004
 20
1372.8524999999995
 40
8.7300000000000004
 50
22.665999999999975
 51
146.57599999999999
  0
ARC
  8
_0-1_
  6
DASHED1
 62
    7
 10
2145
 20
1368.5625
 40
6.0000000000000008
 50
179.99999999999991
 51
269.99999999999994
  0
LINE
  8
_0-1_
  6
DASHED1
 62
    7
 10
2156.5
 20
1393.1624999999996
 11
2156.5
 21
1358.7624999999998
  0
CIRCLE
  8
_0-0_
  6
CONTINUOUS
 62
    7
 10
2133
 20
1047
 40
1.5000000000000002
  0
LINE
  8
_0-0_
  6
CONTINUOUS
 62
    7
 10
2138
 20
1048.0688749999999
 11
2138
 21
1049
  0
LINE
  8
_0-0_
  6
CONTINUOUS
 62
    7
 10
2138
 20
1049
 11
2138.9287749999998
 21
1049.066325
  0
LINE
  8
_0-0_
  6
CONTINUOUS
 62
    7
 10
2128
 20
1047
 11
2128
 21
1048
  0
LINE
  8
_0-0_
  6
CONTINUOUS
 62
    7
 10
2127
 20
1049
 11
2114.5
 21
1049
  0
LINE
  8
_0-0_
  6
CONTINUOUS
 62
    7
 10
2138
 20
1047
 11
2138
 21
1048.0688749999999
  0
LINE
  8
_0-0_
  6
CONTINUOUS
 62
    7
 10
2138.9287749999998
 20
1049.066325
 11
2151.0712499999999
 21
1049.9336499999999
  0
LINE
  8
_0-0_
  6
CONTINUOUS
 62
    7
 10
2152
 20
1050.9311
 11
2152
 21
1051
  0
LINE
  8
_0-0_
  6
CONTINUOUS
 62
    7
 10
2119.6339749999997
 20
1069
 11
2117.7575999999999
 21
1072.25
  0
LINE
  8
_0-0_
  6
CONTINUOUS
 62
    7
 10
2151
 20
1052
 11
2115.5
 21
1052
  0
LINE
  8
_0-0_
  6
CONTINUOUS
 62
    7
 10
2118.7679499999999
 20
1067.5
 11
2115.5
 21
1067.5
  0
LINE
  8
_0-0_
  6
CONTINUOUS
 62
    7
 10
2114.5
 20
1066.5
 11
2114.5
 21
1053
  0
ARC
  8
_0-0_
  6
CONTINUOUS
 62
    7
 10
2114.5
 20
1052.7999999999999
 40
3.7999999999999998
 50
177.46800000000004
 51
270.00000000000005
  0
ARC
  8
_0-0_
  6
CONTINUOUS
 62
    7
 10
2133
 20
1047
 40
5
 50
180.00000000000005
 51
0.0000000000001017
  0
CIRCLE
  8
_0-0_
  6
PHANTOM2
 62
    7
 10
2133
 20
1047
 40
4.0999999999999996
  0
CIRCLE
  8
_0-0_
  6
PHANTOM2
 62
    7
 10
2133
 20
1047
 40
1.925
  0
ARC
  8
_0-0_
  6
CONTINUOUS
 62
    7
 10
2112.6567749999999
 20
1071.5
 40
1
 50
90.000000000000028
 51
177.46800000000004
  0
ARC
  8
_0-0_
  6
CONTINUOUS
 62
    7
 10
2117.324575
 20
1072
 40
0.5
 50
30.000000000000003
 51
90.000000000000028
  0
ARC
  8
_0-0_
  6
CONTINUOUS
 62
    7
 10
2127
 20
1048
 40
1
 50
0
 51
90.000000000000028
  0
ARC
  8
_0-0_
  6
CONTINUOUS
 62
    7
 10
2139
 20
1048.0688749999999
 40
1
 50
94.086000000000041
 51
180.00000000000005
  0
ARC
  8
_0-0_
  6
CONTINUOUS
 62
    7
 10
2151
 20
1050.9311
 40
1
 50
274.08600000000006
 51
0.0000000000000508
  0
ARC
  8
_0-0_
  6
CONTINUOUS
 62
    7
 10
2151
 20
1051
 40
1
 50
0
 51
90.000000000000028
  0
ARC
  8
_0-0_
  6
CONTINUOUS
 62
    7
 10
2118.7679499999999
 20
1068.5
 40
1
 50
270.00000000000005
 51
30.000000000000042
  0
ARC
  8
_0-0_
  6
CONTINUOUS
 62
    7
 10
2115.5
 20
1066.5
 40
1
 50
90.000000000000028
 51
180.00000000000005
  0
ARC
  8
_0-0_
  6
CONTINUOUS
 62
    7
 10
2115.5
 20
1053
 40
1
 50
180.00000000000005
 51
270.00000000000005
  0
LINE
  8
_0-0_
  6
CONTINUOUS
 62
    7
 10
2112.6567749999999
 20
1072.5
 11
2117.324575
 21
1072.5
  0
LINE
  8
_0-0_
  6
CONTINUOUS
 62
    7
 10
2110.7037249999998
 20
1052.9678499999999
 11
2111.6584719492489
 21
1071.5582324553936
  0
LINE
  8
_0-0_
  6
CENTER1
 62
    7
 10
2133
 20
1047
 11
2133
 21
1040.8852721223418
  0
LINE
  8
_0-0_
  6
CENTER1
 62
    7
 10
2133
 20
1047
 11
2133
 21
1053.0974029520527
  0
LINE
  8
_0-0_
  6
CENTER1
 62
    7
 10
2133.1128620711197
 20
1047
 11
2130.4332236491877
 21
1047
  0
LINE
  8
_0-0_
  6
CENTER1
 62
    7
 10
2133.1128620711197
 20
1047
 11
2135.7781451757646
 21
1047
  0
CIRCLE
  8
_0-0_
  6
CONTINUOUS
 62
    7
 10
2133
 20
1167
 40
1.5000000000000002
  0
LINE
  8
_0-0_
  6
CONTINUOUS
 62
    7
 10
2138
 20
1168.0688749999999
 11
2138
 21
1169
  0
LINE
  8
_0-0_
  6
CONTINUOUS
 62
    7
 10
2138
 20
1169
 11
2138.9287749999998
 21
1169.066325
  0
LINE
  8
_0-0_
  6
CONTINUOUS
 62
    7
 10
2128
 20
1167
 11
2128
 21
1168
  0
LINE
  8
_0-0_
  6
CONTINUOUS
 62
    7
 10
2127
 20
1169
 11
2114.5
 21
1169
  0
LINE
  8
_0-0_
  6
CONTINUOUS
 62
    7
 10
2138
 20
1167
 11
2138
 21
1168.0688749999999
  0
LINE
  8
_0-0_
  6
CONTINUOUS
 62
    7
 10
2138.9287749999998
 20
1169.066325
 11
2151.0712499999999
 21
1169.9336499999999
  0
LINE
  8
_0-0_
  6
CONTINUOUS
 62
    7
 10
2152
 20
1170.9311
 11
2152
 21
1171
  0
LINE
  8
_0-0_
  6
CONTINUOUS
 62
    7
 10
2119.6339749999997
 20
1189
 11
2117.7575999999999
 21
1192.25
  0
LINE
  8
_0-0_
  6
CONTINUOUS
 62
    7
 10
2151
 20
1172
 11
2115.5
 21
1172
  0
LINE
  8
_0-0_
  6
CONTINUOUS
 62
    7
 10
2118.7679499999999
 20
1187.5
 11
2115.5
 21
1187.5
  0
LINE
  8
_0-0_
  6
CONTINUOUS
 62
    7
 10
2114.5
 20
1186.5
 11
2114.5
 21
1173
  0
ARC
  8
_0-0_
  6
CONTINUOUS
 62
    7
 10
2114.5
 20
1172.7999999999999
 40
3.7999999999999998
 50
177.46800000000004
 51
270.00000000000005
  0
ARC
  8
_0-0_
  6
CONTINUOUS
 62
    7
 10
2133
 20
1167
 40
5
 50
180.00000000000005
 51
0.0000000000001017
  0
CIRCLE
  8
_0-0_
  6
PHANTOM2
 62
    7
 10
2133
 20
1167
 40
4.0999999999999996
  0
CIRCLE
  8
_0-0_
  6
PHANTOM2
 62
    7
 10
2133
 20
1167
 40
1.925
  0
ARC
  8
_0-0_
  6
CONTINUOUS
 62
    7
 10
2112.6567749999999
 20
1191.5
 40
1
 50
90.000000000000028
 51
177.46800000000004
  0
ARC
  8
_0-0_
  6
CONTINUOUS
 62
    7
 10
2117.324575
 20
1192
 40
0.5
 50
30.000000000000003
 51
90.000000000000028
  0
ARC
  8
_0-0_
  6
CONTINUOUS
 62
    7
 10
2127
 20
1168
 40
1
 50
0
 51
90.000000000000028
  0
ARC
  8
_0-0_
  6
CONTINUOUS
 62
    7
 10
2139
 20
1168.0688749999999
 40
1
 50
94.086000000000041
 51
180.00000000000005
  0
ARC
  8
_0-0_
  6
CONTINUOUS
 62
    7
 10
2151
 20
1170.9311
 40
1
 50
274.08600000000006
 51
0.0000000000000508
  0
ARC
  8
_0-0_
  6
CONTINUOUS
 62
    7
 10
2151
 20
1171
 40
1
 50
0
 51
90.000000000000028
  0
ARC
  8
_0-0_
  6
CONTINUOUS
 62
    7
 10
2118.7679499999999
 20
1188.5
 40
1
 50
270.00000000000005
 51
30.000000000000042
  0
ARC
  8
_0-0_
  6
CONTINUOUS
 62
    7
 10
2115.5
 20
1186.5
 40
1
 50
90.000000000000028
 51
180.00000000000005
  0
ARC
  8
_0-0_
  6
CONTINUOUS
 62
    7
 10
2115.5
 20
1173
 40
1
 50
180.00000000000005
 51
270.00000000000005
  0
LINE
  8
_0-0_
  6
CONTINUOUS
 62
    7
 10
2112.6567749999999
 20
1192.5
 11
2117.324575
 21
1192.5
  0
LINE
  8
_0-0_
  6
CONTINUOUS
 62
    7
 10
2110.7037249999998
 20
1172.9678499999999
 11
2111.6584719492489
 21
1191.5582324553936
  0
LINE
  8
_0-0_
  6
CENTER1
 62
    7
 10
2133
 20
1167
 11
2133
 21
1160.8852721223418
  0
LINE
  8
_0-0_
  6
CENTER1
 62
    7
 10
2133
 20
1167
 11
2133
 21
1173.0974029520527
  0
LINE
  8
_0-0_
  6
CENTER1
 62
    7
 10
2133.1128620711197
 20
1167
 11
2130.4332236491877
 21
1167
  0
LINE
  8
_0-0_
  6
CENTER1
 62
    7
 10
2133.1128620711197
 20
1167
 11
2135.7781451757646
 21
1167
  0
LINE
  8
_0-6_
  6
CONTINUOUS
 62
    7
 10
2114.5
 20
1187
 11
2114.5
 21
1172
  0
LINE
  8
_0-6_
  6
CONTINUOUS
 62
    7
 10
2114.5
 20
1067
 11
2114.5
 21
1052
  0
LINE
  8
_0-9_
  6
CONTINUOUS
 62
    4
 10
2101
 20
1637
 11
2101
 21
1437
  0
POINT
  8
_0-9_
 62
    3
 10
2101
 20
1637
  0
POINT
  8
_0-9_
 62
    3
 10
2101
 20
1637
  0
POINT
  8
_0-9_
 62
    3
 10
2101
 20
1637
  0
LINE
  8
_0-7_
  6
DASHED1
 62
    7
 10
2098.1999999999998
 20
1379.9
 11
2134
 21
1379.9
  0
ARC
  8
_0-7_
  6
DASHED1
 62
    7
 10
2098.1999999999998
 20
1379.9
 40
1.1999999999999999
 50
90.000000000000028
 51
180.00000000000005
  0
ARC
  8
_0-7_
  6
DASHED1
 62
    7
 10
2098.1999999999998
 20
1379.9
 40
1.1999999999999999
 50
90.000000000000028
 51
180.00000000000005
  0
LINE
  8
_0-7_
  6
DASHED1
 62
    7
 10
2098.1999999999998
 20
1381.1000000000001
 11
2134
 21
1381.1000000000001
  0
LINE
  8
_0-7_
  6
DASHED1
 62
    7
 10
2097
 20
1376.9
 11
2098.1999999999998
 21
1376.9
  0
LINE
  8
_0-7_
  6
DASHED1
 62
    7
 10
2098.1999999999998
 20
1379.9
 11
2098.1999999999998
 21
1359.9
  0
LINE
  8
_0-7_
  6
DASHED1
 62
    7
 10
2097
 20
1359.9
 11
2098.1999999999998
 21
1359.9
  0
LINE
  8
_0-7_
  6
DASHED1
 62
    7
 10
2097
 20
1379.9
 11
2097
 21
1359.9
  0
LINE
  8
_0-7_
  6
DASHED1
 62
    7
 10
2098.1999999999998
 20
1379.4
 11
2098.1999999999998
 21
1364.2592999999999
  0
LINE
  8
_0-7_
  6
DASHED1
 62
    7
 10
2098.6999999999998
 20
1379.9
 11
2113.8407000000001
 21
1379.9
  0
LINE
  8
_0-7_
  6
DASHED1
 62
    7
 10
2134
 20
1381.1000000000001
 11
2134
 21
1379.9
  0
LINE
  8
_0-7_
  6
DASHED1
 62
    7
 10
2128
 20
1379.9
 11
2128
 21
1381.1000000000001
  0
CIRCLE
  8
_0-3_
  6
CONTINUOUS
 62
    7
 10
2133
 20
987
 40
2.5
  0
CIRCLE
  8
_0-3_
  6
CONTINUOUS
 62
    7
 10
2133
 20
1047
 40
2.5
  0
CIRCLE
  8
_0-3_
  6
CONTINUOUS
 62
    7
 10
2133
 20
1107
 40
2.5
  0
CIRCLE
  8
_0-3_
  6
CONTINUOUS
 62
    7
 10
2133
 20
1167
 40
2.5
  0
CIRCLE
  8
_0-3_
  6
CONTINUOUS
 62
    7
 10
2133
 20
1227
 40
2.5
  0
CIRCLE
  8
_0-3_
  6
CONTINUOUS
 62
    7
 10
2133
 20
1227
 40
2.5
  0
LINE
  8
_0-3_
  6
CENTER2
 62
    4
 10
2123
 20
1227
 11
2145.5
 21
1227
  0
LINE
  8
_0-3_
  6
CENTER2
 62
    4
 10
2133
 20
1237
 11
2133
 21
1217
  0
CIRCLE
  8
_0-3_
  6
CONTINUOUS
 62
    7
 10
2133
 20
1167
 40
2.5
  0
LINE
  8
_0-3_
  6
CENTER2
 62
    4
 10
2123
 20
1167
 11
2145.5
 21
1167
  0
LINE
  8
_0-3_
  6
CENTER2
 62
    4
 10
2133
 20
1177
 11
2133
 21
1157
  0
CIRCLE
  8
_0-3_
  6
CONTINUOUS
 62
    7
 10
2133
 20
1107
 40
2.5
  0
LINE
  8
_0-3_
  6
CENTER2
 62
    4
 10
2123
 20
1107
 11
2145.5
 21
1107
  0
LINE
  8
_0-3_
  6
CENTER2
 62
    4
 10
2133
 20
1117
 11
2133
 21
1097
  0
CIRCLE
  8
_0-3_
  6
CONTINUOUS
 62
    7
 10
2133
 20
1047
 40
2.5
  0
LINE
  8
_0-3_
  6
CENTER2
 62
    4
 10
2123
 20
1047
 11
2145.5
 21
1047
  0
LINE
  8
_0-3_
  6
CENTER2
 62
    4
 10
2133
 20
1057
 11
2133
 21
1037
  0
CIRCLE
  8
_0-3_
  6
CONTINUOUS
 62
    7
 10
2133
 20
987
 40
2.5
  0
LINE
  8
_0-3_
  6
CENTER2
 62
    4
 10
2123
 20
987
 11
2145.5
 21
987
  0
LINE
  8
_0-3_
  6
CENTER2
 62
    4
 10
2133
 20
997
 11
2133
 21
977
  0
ARC
  8
_0-0_
  6
CONTINUOUS
 62
    7
 10
2133
 20
1047
 40
7.0000000000000017
 50
45.585000000000007
 51
134.41500000000002
  0
ARC
  8
_0-0_
  6
CONTINUOUS
 62
    7
 10
2133
 20
1047
 40
11
 50
27.036000000000012
 51
152.96400000000005
  0
ARC
  8
_0-0_
  6
CONTINUOUS
 62
    7
 10
2133.1128620711197
 20
1167
 40
7.0000000000000017
 50
45.585000000000007
 51
134.41500000000002
  0
ARC
  8
_0-0_
  6
CONTINUOUS
 62
    7
 10
2133.1128620711197
 20
1167
 40
11
 50
27.036000000000012
 51
152.96400000000005
  0
LINE
  8
_0-9_
  6
CONTINUOUS
 62
    4
 10
2177.7372163781119
 20
792
 11
2177.7372163781119
 21
740.63454668967165
  0
POINT
  8
_0-9_
 62
    3
 10
2177.7372163781119
 20
792
  0
POINT
  8
_0-9_
 62
    3
 10
2177.7372163781119
 20
807
  0
LINE
  8
_0-9_
  6
CONTINUOUS
 62
    4
 10
2187.7372163781119
 20
792
 11
2115.6937263202908
 21
792
  0
LINE
  8
_0-9_
  6
CONTINUOUS
 62
    4
 10
2177.7372163781119
 20
792
 11
2177.7372163781119
 21
807
  0
TEXT
  8
_0-9_
 62
    7
 10
2177.7372163781119
 20
745.92306232200246
 40
35
 41
0.6285714285714286
 50
90
  1
１５
  0
POINT
  8
_0-9_
 62
    3
 10
2114.5
 20
1272.8513807152558
  0
LINE
  8
_0-9_
  6
CONTINUOUS
 62
    4
 10
2114.5
 20
1282.8513807152558
 11
2114.5
 21
1205.7339520144862
  0
POINT
  8
_0-9_
 62
    3
 10
2101
 20
1637
  0
POINT
  8
_0-9_
 62
    3
 10
2283
 20
1637
  0
LINE
  8
_0-9_
  6
CONTINUOUS
 62
    4
 10
2101
 20
1637
 11
2283
 21
1637
  0
TEXT
  8
_0-9_
 62
    7
 10
2158.9
 20
1642
 40
35
 41
0.6285714285714286
 50
0
  1
１８２
  0
POINT
  8
_0-9_
 62
    3
 10
2114.5
 20
1272.8513807152558
  0
POINT
  8
_0-9_
 62
    3
 10
2260.5
 20
1272.8513807152558
  0
LINE
  8
_0-9_
  6
CONTINUOUS
 62
    4
 10
2114.5
 20
1272.8513807152558
 11
2260.5
 21
1272.8513807152558
  0
TEXT
  8
_0-9_
 62
    7
 10
2154.4
 20
1277.8513807152558
 40
35
 41
0.6285714285714286
 50
0
  1
１４６
  0
LINE
  8
_0-3_
  6
CONTINUOUS
 62
    7
 10
2283
 20
1407
 11
2101
 21
1407
  0
LINE
  8
_0-3_
  6
CONTINUOUS
 62
    5
 10
2101
 20
1392
 11
2265.5
 21
1392
  0
LINE
  8
_0-3_
  6
CONTINUOUS
 62
    5
 10
2101
 20
822
 11
2265
 21
822
  0
LINE
  8
_0-3_
  6
CONTINUOUS
 62
    7
 10
2101
 20
807
 11
2283
 21
807
  0
LINE
  8
_0-4_
  6
DASHED1
 62
    9
 10
2097
 20
886.50000659839531
 11
2097
 21
837.49999340160445
  0
LINE
  8
_0-4_
  6
DASHED1
 62
    9
 10
2097
 20
1356.5000065983952
 11
2097
 21
1307.4999934016045
  0
LINE
  8
_0-4_
  6
CONTINUOUS
 62
    3
 10
2082
 20
1402
 11
2097
 21
1402
  0
LINE
  8
_0-4_
  6
CONTINUOUS
 62
    3
 10
2082
 20
792
 11
2097
 21
792
  0
LINE
  8
_0-4_
  6
CONTINUOUS
 62
    3
 10
2097
 20
1402
 11
2097
 21
792
  0
LINE
  8
_0-3_
  6
CONTINUOUS
 62
    4
 10
500
 20
2328
 11
1400
 21
2328
  0
LINE
  8
_0-1_
  6
DASHED1
 62
    7
 10
918.5
 20
2341
 11
918
 21
2341
  0
LINE
  8
_0-1_
  6
DASHED1
 62
    7
 10
895.5
 20
2341
 11
896
 21
2341
  0
LINE
  8
_0-1_
  6
DASHED1
 62
    7
 10
898.5
 20
2401
 11
915.5
 21
2401
  0
LINE
  8
_0-1_
  6
DASHED1
 62
    7
 10
898.99999999999954
 20
2366
 11
915
 21
2366
  0
LINE
  8
_0-1_
  6
DASHED1
 62
    7
 10
918.5
 20
2341
 11
918
 21
2341
  0
LINE
  8
_0-1_
  6
DASHED1
 62
    7
 10
924.5
 20
2368
 11
925.5
 21
2368
  0
LINE
  8
_0-1_
  6
DASHED1
 62
    7
 10
924.5
 20
2392
 11
924.5
 21
2368
  0
LINE
  8
_0-1_
  6
DASHED1
 62
    7
 10
889.5
 20
2368
 11
888.5
 21
2368
  0
LINE
  8
_0-1_
  6
DASHED1
 62
    7
 10
889.5
 20
2392
 11
889.5
 21
2368
  0
LINE
  8
_0-1_
  6
DASHED1
 62
    7
 10
888.10999999999967
 20
2371
 11
895.5
 21
2371
  0
LINE
  8
_0-1_
  6
DASHED1
 62
    7
 10
918.5
 20
2371
 11
926.5999999999999
 21
2371
  0
LINE
  8
_0-1_
  6
DASHED1
 62
    7
 10
897
 20
2366
 11
897
 21
2363.1999999999998
  0
LINE
  8
_0-1_
  6
DASHED1
 62
    7
 10
898.5
 20
2364.5999999999999
 11
897.5
 21
2364.5999999999999
  0
LINE
  8
_0-1_
  6
DASHED1
 62
    7
 10
915.5
 20
2364.5999999999999
 11
916.5
 21
2364.5999999999999
  0
LINE
  8
_0-1_
  6
DASHED1
 62
    7
 10
917
 20
2366
 11
917
 21
2363.1999999999998
  0
LINE
  8
_0-1_
  6
DASHED1
 62
    7
 10
915
 20
2366
 11
915
 21
2344
  0
LINE
  8
_0-1_
  6
DASHED1
 62
    7
 10
899
 20
2366
 11
899
 21
2344
  0
LINE
  8
_0-1_
  6
DASHED1
 62
    7
 10
904.76395000000002
 20
2339.0000500000001
 11
909.23604999999997
 21
2339.0000500000001
  0
LINE
  8
_0-1_
  6
DASHED1
 62
    7
 10
910.5
 20
2337.0000499999996
 11
910.5
 21
2335.0000500000001
  0
LINE
  8
_0-1_
  6
DASHED1
 62
    7
 10
903.5
 20
2337.0000499999996
 11
903.5
 21
2335.0000500000001
  0
LINE
  8
_0-1_
  6
DASHED1
 62
    7
 10
903.5
 20
2335.0000500000001
 11
904
 21
2335.0000500000001
  0
LINE
  8
_0-1_
  6
DASHED1
 62
    7
 10
910
 20
2335.0000500000001
 11
910.5
 21
2335.0000500000001
  0
LINE
  8
_0-1_
  6
DASHED1
 62
    7
 10
910.5
 20
2330.0000500000001
 11
903.5
 21
2330.0000500000001
  0
LINE
  8
_0-1_
  6
DASHED1
 62
    7
 10
910.54595000000017
 20
2330.0460000000002
 11
910.5
 21
2330.0000500000001
  0
LINE
  8
_0-1_
  6
DASHED1
 62
    7
 10
903.45405000000005
 20
2330.0460000000002
 11
903.5
 21
2330.0000500000001
  0
LINE
  8
_0-1_
  6
DASHED1
 62
    7
 10
910
 20
2337.0000499999996
 11
910
 21
2331.0000500000001
  0
LINE
  8
_0-1_
  6
DASHED1
 62
    7
 10
904
 20
2337.0000499999996
 11
904
 21
2331.0000500000001
  0
LINE
  8
_0-1_
  6
DASHED1
 62
    7
 10
904
 20
2335.0000500000001
 11
910
 21
2335.0000500000001
  0
LINE
  8
_0-1_
  6
DASHED1
 62
    7
 10
902.42894999999998
 20
2331.0710999999996
 11
903.45405000000005
 21
2330.0460000000002
  0
LINE
  8
_0-1_
  6
DASHED1
 62
    7
 10
911.57105000000001
 20
2331.0710999999996
 11
910.54595000000017
 21
2330.0460000000002
  0
LINE
  8
_0-1_
  6
DASHED1
 62
    7
 10
914.5
 20
2338.1421500000001
 11
914.5
 21
2366
  0
LINE
  8
_0-1_
  6
DASHED1
 62
    7
 10
899.5
 20
2338.1421500000001
 11
899.5
 21
2366
  0
LINE
  8
_0-1_
  6
DASHED1
 62
    7
 10
893.82454999999981
 20
2357.7626
 11
893.61304999999993
 21
2358.0380999999997
  0
LINE
  8
_0-1_
  6
DASHED1
 62
    7
 10
893.82454999999981
 20
2357.7626
 11
894.5
 21
2358.5
  0
LINE
  8
_0-1_
  6
DASHED1
 62
    7
 10
893.61304999999993
 20
2358.0380999999997
 11
894.5
 21
2358.5
  0
LINE
  8
_0-1_
  6
DASHED1
 62
    7
 10
915
 20
2366
 11
924.19999999999981
 21
2366
  0
LINE
  8
_0-1_
  6
DASHED1
 62
    7
 10
898.99999999999954
 20
2366
 11
889.80000000000018
 21
2366
  0
LINE
  8
_0-1_
  6
DASHED1
 62
    7
 10
908
 20
2366
 11
908
 21
2356.5004000000003
  0
LINE
  8
_0-1_
  6
DASHED1
 62
    7
 10
906
 20
2366
 11
906
 21
2356.5004000000003
  0
LINE
  8
_0-1_
  6
DASHED1
 62
    7
 10
906.5
 20
2356.0003999999998
 11
907.5
 21
2356.0003999999998
  0
LINE
  8
_0-1_
  6
DASHED1
 62
    7
 10
906
 20
2360.2199999999997
 11
899.5
 21
2360.2199999999997
  0
LINE
  8
_0-1_
  6
DASHED1
 62
    7
 10
914.5
 20
2360.2199999999997
 11
908
 21
2360.2199999999997
  0
LINE
  8
_0-1_
  6
DASHED1
 62
    7
 10
906
 20
2360.5900000000001
 11
904.9392499999999
 21
2360.5900000000001
  0
LINE
  8
_0-1_
  6
DASHED1
 62
    7
 10
902.56075000000009
 20
2360.5900000000001
 11
899.5
 21
2360.5900000000001
  0
LINE
  8
_0-1_
  6
DASHED1
 62
    7
 10
914.5
 20
2360.5900000000001
 11
911.4392499999999
 21
2360.5900000000001
  0
LINE
  8
_0-1_
  6
DASHED1
 62
    7
 10
909.06074999999964
 20
2360.5900000000001
 11
908
 21
2360.5900000000001
  0
LINE
  8
_0-1_
  6
DASHED1
 62
    7
 10
926.5
 20
2356
 11
926.5
 21
2367
  0
LINE
  8
_0-1_
  6
DASHED1
 62
    7
 10
924.5
 20
2355
 11
925.5
 21
2355
  0
LINE
  8
_0-1_
  6
DASHED1
 62
    7
 10
924.5
 20
2365.6999999999998
 11
924.5
 21
2347
  0
LINE
  8
_0-1_
  6
DASHED1
 62
    7
 10
887.5
 20
2356
 11
887.5
 21
2367
  0
LINE
  8
_0-1_
  6
DASHED1
 62
    7
 10
889.5
 20
2355
 11
888.5
 21
2355
  0
LINE
  8
_0-1_
  6
DASHED1
 62
    7
 10
889.5
 20
2365.6999999999998
 11
889.5
 21
2347
  0
LINE
  8
_0-1_
  6
DASHED1
 62
    7
 10
907
 20
2402.6999999999998
 11
907
 21
2327.4
  0
LINE
  8
_0-1_
  6
DASHED1
 62
    7
 10
888.36999999999989
 20
2383.5
 11
927.40000000000009
 21
2383.5
  0
LINE
  8
_0-1_
  6
DASHED1
 62
    7
 10
894.5
 20
2362.65
 11
894.5
 21
2354.4
  0
LINE
  8
_0-1_
  6
DASHED1
 62
    7
 10
897.74999999999954
 20
2358.5
 11
891.19999999999981
 21
2358.5
  0
LINE
  8
_0-1_
  6
DASHED1
 62
    7
 10
919.5
 20
2362.3200000000001
 11
919.5
 21
2354.5999999999999
  0
LINE
  8
_0-1_
  6
DASHED1
 62
    7
 10
916.23000000000001
 20
2358.5
 11
923.24000000000023
 21
2358.5
  0
LINE
  8
_0-1_
  6
DASHED1
 62
    7
 10
910.55999999999994
 20
2332.5000500000001
 11
903.28999999999996
 21
2332.5000500000001
  0
ARC
  8
_0-1_
  6
DASHED1
 62
    7
 10
915.5
 20
2392
 40
9
 50
0.0000000000000254
 51
90.000000000000056
  0
ARC
  8
_0-1_
  6
DASHED1
 62
    7
 10
918.5
 20
2347
 40
6.0000000000000008
 50
270
 51
0
  0
ARC
  8
_0-1_
  6
DASHED1
 62
    7
 10
918
 20
2344
 40
3.0000000000000004
 50
180.00000000000005
 51
270.00000000000005
  0
ARC
  8
_0-1_
  6
DASHED1
 62
    7
 10
898.5
 20
2392
 40
9
 50
90.000000000000056
 51
180.00000000000011
  0
ARC
  8
_0-1_
  6
DASHED1
 62
    7
 10
895.5
 20
2347
 40
6.0000000000000008
 50
180.00000000000005
 51
270.00000000000005
  0
ARC
  8
_0-1_
  6
DASHED1
 62
    7
 10
896
 20
2344
 40
3.0000000000000004
 50
270
 51
0
  0
CIRCLE
  8
_0-1_
  6
DASHED1
 62
    7
 10
894.5
 20
2358.5
 40
1.8999999999999999
  0
CIRCLE
  8
_0-1_
  6
DASHED1
 62
    7
 10
919.5
 20
2358.5
 40
1.8999999999999999
  0
ARC
  8
_0-1_
  6
DASHED1
 62
    7
 10
925.5
 20
2367
 40
1
 50
0.0000000000000254
 51
90.000000000000056
  0
ARC
  8
_0-1_
  6
DASHED1
 62
    7
 10
888.5
 20
2367
 40
1
 50
90.000000000000056
 51
180.00000000000011
  0
ARC
  8
_0-1_
  6
DASHED1
 62
    7
 10
891.49999999999954
 20
2368
 40
2
 50
180.00000000000005
 51
270.00000000000005
  0
ARC
  8
_0-1_
  6
DASHED1
 62
    7
 10
898.5
 20
2365.0999999999999
 40
0.5
 50
270
 51
0
  0
ARC
  8
_0-1_
  6
DASHED1
 62
    7
 10
897.5
 20
2365.0999999999999
 40
0.5
 50
180.00000000000005
 51
270.00000000000005
  0
ARC
  8
_0-1_
  6
DASHED1
 62
    7
 10
915.5
 20
2365.0999999999999
 40
0.5
 50
180.00000000000005
 51
270.00000000000005
  0
ARC
  8
_0-1_
  6
DASHED1
 62
    7
 10
916.5
 20
2365.0999999999999
 40
0.5
 50
270
 51
0
  0
ARC
  8
_0-1_
  6
DASHED1
 62
    7
 10
922.5
 20
2368
 40
2
 50
270
 51
0
  0
ARC
  8
_0-1_
  6
DASHED1
 62
    7
 10
907
 20
2337.0000499999996
 40
3.5000000000000008
 50
90.000000000000056
 51
180.00000000000011
  0
ARC
  8
_0-1_
  6
DASHED1
 62
    7
 10
907
 20
2337.0000499999996
 40
3.5000000000000008
 50
0.0000000000000254
 51
90.000000000000056
  0
ARC
  8
_0-1_
  6
DASHED1
 62
    7
 10
907
 20
2337.0000499999996
 40
3.0000000000000004
 50
138.19000000000005
 51
180.00000000000011
  0
ARC
  8
_0-1_
  6
DASHED1
 62
    7
 10
907
 20
2337.0000499999996
 40
3.0000000000000004
 50
0.0000000000000254
 51
41.810000000000023
  0
ARC
  8
_0-1_
  6
DASHED1
 62
    7
 10
905
 20
2331.0000500000001
 40
1
 50
180.00000000000005
 51
270.00000000000005
  0
ARC
  8
_0-1_
  6
DASHED1
 62
    7
 10
909
 20
2331.0000500000001
 40
1
 50
270
 51
0
  0
ARC
  8
_0-1_
  6
DASHED1
 62
    7
 10
909.5
 20
2338.1421500000001
 40
10
 50
180.00000000000005
 51
225.00000000000005
  0
ARC
  8
_0-1_
  6
DASHED1
 62
    7
 10
904.5
 20
2338.1421500000001
 40
10
 50
315
 51
0
  0
ARC
  8
_0-1_
  6
DASHED1
 62
    7
 10
924.19999999999981
 20
2365.6999999999998
 40
0.2999999999999998
 50
0.0000000000000254
 51
90.000000000000056
  0
ARC
  8
_0-1_
  6
DASHED1
 62
    7
 10
889.80000000000018
 20
2365.6999999999998
 40
0.2999999999999998
 50
90.000000000000056
 51
180.00000000000011
  0
ARC
  8
_0-1_
  6
DASHED1
 62
    7
 10
907.5
 20
2356.5004000000003
 40
0.5
 50
270
 51
0
  0
ARC
  8
_0-1_
  6
DASHED1
 62
    7
 10
906.5
 20
2356.5004000000003
 40
0.5
 50
180.00000000000005
 51
270.00000000000005
  0
ARC
  8
_0-1_
  6
DASHED1
 62
    7
 10
925.5
 20
2356
 40
1
 50
270
 51
0
  0
ARC
  8
_0-1_
  6
DASHED1
 62
    7
 10
888.5
 20
2356
 40
1
 50
180.00000000000005
 51
270.00000000000005
  0
CIRCLE
  8
_0-1_
  6
DASHED1
 62
    7
 10
910.25
 20
2356.0000500000001
 40
2.3250000000000001
  0
CIRCLE
  8
_0-1_
  6
DASHED1
 62
    7
 10
903.75
 20
2356.0000500000001
 40
2.3250000000000001
  0
CIRCLE
  8
_0-1_
  6
DASHED1
 62
    7
 10
903.75
 20
2362.5000500000001
 40
2.3250000000000001
  0
CIRCLE
  8
_0-1_
  6
DASHED1
 62
    7
 10
910.25
 20
2362.5000500000001
 40
2.3250000000000001
  0
CIRCLE
  8
_0-1_
  6
DASHED1
 62
    7
 10
907
 20
2332.5000500000001
 40
1.25
  0
LINE
  8
_0-1_
  6
DASHED1
 62
    7
 10
1004.4999999999995
 20
2341
 11
1004
 21
2341
  0
LINE
  8
_0-1_
  6
DASHED1
 62
    7
 10
981.5
 20
2341
 11
982
 21
2341
  0
LINE
  8
_0-1_
  6
DASHED1
 62
    7
 10
984.5
 20
2401
 11
1001.5
 21
2401
  0
LINE
  8
_0-1_
  6
DASHED1
 62
    7
 10
985
 20
2366
 11
1001
 21
2366
  0
LINE
  8
_0-1_
  6
DASHED1
 62
    7
 10
1004.4999999999995
 20
2341
 11
1004
 21
2341
  0
LINE
  8
_0-1_
  6
DASHED1
 62
    7
 10
1010.5
 20
2368
 11
1011.5
 21
2368
  0
LINE
  8
_0-1_
  6
DASHED1
 62
    7
 10
1010.5
 20
2392
 11
1010.5
 21
2368
  0
LINE
  8
_0-1_
  6
DASHED1
 62
    7
 10
975.5
 20
2368
 11
974.5
 21
2368
  0
LINE
  8
_0-1_
  6
DASHED1
 62
    7
 10
975.5
 20
2392
 11
975.5
 21
2368
  0
LINE
  8
_0-1_
  6
DASHED1
 62
    7
 10
974.11000000000012
 20
2371
 11
981.5
 21
2371
  0
LINE
  8
_0-1_
  6
DASHED1
 62
    7
 10
1004.4999999999995
 20
2371
 11
1012.5999999999999
 21
2371
  0
LINE
  8
_0-1_
  6
DASHED1
 62
    7
 10
983
 20
2366
 11
983
 21
2363.1999999999998
  0
LINE
  8
_0-1_
  6
DASHED1
 62
    7
 10
984.5
 20
2364.5999999999999
 11
983.5
 21
2364.5999999999999
  0
LINE
  8
_0-1_
  6
DASHED1
 62
    7
 10
1001.5
 20
2364.5999999999999
 11
1002.5
 21
2364.5999999999999
  0
LINE
  8
_0-1_
  6
DASHED1
 62
    7
 10
1003
 20
2366
 11
1003
 21
2363.1999999999998
  0
LINE
  8
_0-1_
  6
DASHED1
 62
    7
 10
1001
 20
2366
 11
1001
 21
2344
  0
LINE
  8
_0-1_
  6
DASHED1
 62
    7
 10
985
 20
2366
 11
985
 21
2344
  0
LINE
  8
_0-1_
  6
DASHED1
 62
    7
 10
990.76395000000002
 20
2339.0000500000001
 11
995.23604999999997
 21
2339.0000500000001
  0
LINE
  8
_0-1_
  6
DASHED1
 62
    7
 10
996.5
 20
2337.0000499999996
 11
996.5
 21
2335.0000500000001
  0
LINE
  8
_0-1_
  6
DASHED1
 62
    7
 10
989.5
 20
2337.0000499999996
 11
989.5
 21
2335.0000500000001
  0
LINE
  8
_0-1_
  6
DASHED1
 62
    7
 10
989.5
 20
2335.0000500000001
 11
990
 21
2335.0000500000001
  0
LINE
  8
_0-1_
  6
DASHED1
 62
    7
 10
996
 20
2335.0000500000001
 11
996.5
 21
2335.0000500000001
  0
LINE
  8
_0-1_
  6
DASHED1
 62
    7
 10
996.5
 20
2330.0000500000001
 11
989.5
 21
2330.0000500000001
  0
LINE
  8
_0-1_
  6
DASHED1
 62
    7
 10
996.54594999999994
 20
2330.0460000000002
 11
996.5
 21
2330.0000500000001
  0
LINE
  8
_0-1_
  6
DASHED1
 62
    7
 10
989.45404999999982
 20
2330.0460000000002
 11
989.5
 21
2330.0000500000001
  0
LINE
  8
_0-1_
  6
DASHED1
 62
    7
 10
996
 20
2337.0000499999996
 11
996
 21
2331.0000500000001
  0
LINE
  8
_0-1_
  6
DASHED1
 62
    7
 10
990
 20
2337.0000499999996
 11
990
 21
2331.0000500000001
  0
LINE
  8
_0-1_
  6
DASHED1
 62
    7
 10
990
 20
2335.0000500000001
 11
996
 21
2335.0000500000001
  0
LINE
  8
_0-1_
  6
DASHED1
 62
    7
 10
988.42894999999998
 20
2331.0710999999996
 11
989.45404999999982
 21
2330.0460000000002
  0
LINE
  8
_0-1_
  6
DASHED1
 62
    7
 10
997.57105000000001
 20
2331.0710999999996
 11
996.54594999999994
 21
2330.0460000000002
  0
LINE
  8
_0-1_
  6
DASHED1
 62
    7
 10
1000.5
 20
2338.1421500000001
 11
1000.5
 21
2366
  0
LINE
  8
_0-1_
  6
DASHED1
 62
    7
 10
985.5
 20
2338.1421500000001
 11
985.5
 21
2366
  0
LINE
  8
_0-1_
  6
DASHED1
 62
    7
 10
979.82455000000027
 20
2357.7626
 11
979.61305000000015
 21
2358.0380999999997
  0
LINE
  8
_0-1_
  6
DASHED1
 62
    7
 10
979.82455000000027
 20
2357.7626
 11
980.5
 21
2358.5
  0
LINE
  8
_0-1_
  6
DASHED1
 62
    7
 10
979.61305000000015
 20
2358.0380999999997
 11
980.5
 21
2358.5
  0
LINE
  8
_0-1_
  6
DASHED1
 62
    7
 10
1001
 20
2366
 11
1010.1999999999998
 21
2366
  0
LINE
  8
_0-1_
  6
DASHED1
 62
    7
 10
985
 20
2366
 11
975.80000000000018
 21
2366
  0
LINE
  8
_0-1_
  6
DASHED1
 62
    7
 10
994
 20
2366
 11
994
 21
2356.5004000000003
  0
LINE
  8
_0-1_
  6
DASHED1
 62
    7
 10
992
 20
2366
 11
992
 21
2356.5004000000003
  0
LINE
  8
_0-1_
  6
DASHED1
 62
    7
 10
992.5
 20
2356.0003999999998
 11
993.5
 21
2356.0003999999998
  0
LINE
  8
_0-1_
  6
DASHED1
 62
    7
 10
992
 20
2360.2199999999997
 11
985.5
 21
2360.2199999999997
  0
LINE
  8
_0-1_
  6
DASHED1
 62
    7
 10
1000.5
 20
2360.2199999999997
 11
994
 21
2360.2199999999997
  0
LINE
  8
_0-1_
  6
DASHED1
 62
    7
 10
992
 20
2360.5900000000001
 11
990.9392499999999
 21
2360.5900000000001
  0
LINE
  8
_0-1_
  6
DASHED1
 62
    7
 10
988.56075000000009
 20
2360.5900000000001
 11
985.5
 21
2360.5900000000001
  0
LINE
  8
_0-1_
  6
DASHED1
 62
    7
 10
1000.5
 20
2360.5900000000001
 11
997.4392499999999
 21
2360.5900000000001
  0
LINE
  8
_0-1_
  6
DASHED1
 62
    7
 10
995.06075000000009
 20
2360.5900000000001
 11
994
 21
2360.5900000000001
  0
LINE
  8
_0-1_
  6
DASHED1
 62
    7
 10
1012.5
 20
2356
 11
1012.5
 21
2367
  0
LINE
  8
_0-1_
  6
DASHED1
 62
    7
 10
1010.5
 20
2355
 11
1011.5
 21
2355
  0
LINE
  8
_0-1_
  6
DASHED1
 62
    7
 10
1010.5
 20
2365.6999999999998
 11
1010.5
 21
2347
  0
LINE
  8
_0-1_
  6
DASHED1
 62
    7
 10
973.5
 20
2356
 11
973.5
 21
2367
  0
LINE
  8
_0-1_
  6
DASHED1
 62
    7
 10
975.5
 20
2355
 11
974.5
 21
2355
  0
LINE
  8
_0-1_
  6
DASHED1
 62
    7
 10
975.5
 20
2365.6999999999998
 11
975.5
 21
2347
  0
LINE
  8
_0-1_
  6
DASHED1
 62
    7
 10
993
 20
2402.6999999999998
 11
993
 21
2327.4
  0
LINE
  8
_0-1_
  6
DASHED1
 62
    7
 10
974.36999999999989
 20
2383.5
 11
1013.4
 21
2383.5
  0
LINE
  8
_0-1_
  6
DASHED1
 62
    7
 10
980.5
 20
2362.65
 11
980.5
 21
2354.4
  0
LINE
  8
_0-1_
  6
DASHED1
 62
    7
 10
983.75
 20
2358.5
 11
977.20000000000004
 21
2358.5
  0
LINE
  8
_0-1_
  6
DASHED1
 62
    7
 10
1005.5
 20
2362.3200000000001
 11
1005.5
 21
2354.5999999999999
  0
LINE
  8
_0-1_
  6
DASHED1
 62
    7
 10
1002.23
 20
2358.5
 11
1009.24
 21
2358.5
  0
LINE
  8
_0-1_
  6
DASHED1
 62
    7
 10
996.55999999999994
 20
2332.5000500000001
 11
989.28999999999996
 21
2332.5000500000001
  0
ARC
  8
_0-1_
  6
DASHED1
 62
    7
 10
1001.5
 20
2392
 40
9
 50
0.0000000000000254
 51
90.000000000000056
  0
ARC
  8
_0-1_
  6
DASHED1
 62
    7
 10
1004.4999999999995
 20
2347
 40
6.0000000000000008
 50
270
 51
0
  0
ARC
  8
_0-1_
  6
DASHED1
 62
    7
 10
1004
 20
2344
 40
3.0000000000000004
 50
180.00000000000005
 51
270.00000000000005
  0
ARC
  8
_0-1_
  6
DASHED1
 62
    7
 10
984.5
 20
2392
 40
9
 50
90.000000000000056
 51
180.00000000000011
  0
ARC
  8
_0-1_
  6
DASHED1
 62
    7
 10
981.5
 20
2347
 40
6.0000000000000008
 50
180.00000000000005
 51
270.00000000000005
  0
ARC
  8
_0-1_
  6
DASHED1
 62
    7
 10
982
 20
2344
 40
3.0000000000000004
 50
270
 51
0
  0
CIRCLE
  8
_0-1_
  6
DASHED1
 62
    7
 10
980.5
 20
2358.5
 40
1.8999999999999999
  0
CIRCLE
  8
_0-1_
  6
DASHED1
 62
    7
 10
1005.5
 20
2358.5
 40
1.8999999999999999
  0
ARC
  8
_0-1_
  6
DASHED1
 62
    7
 10
1011.5
 20
2367
 40
1
 50
0.0000000000000254
 51
90.000000000000056
  0
ARC
  8
_0-1_
  6
DASHED1
 62
    7
 10
974.5
 20
2367
 40
1
 50
90.000000000000056
 51
180.00000000000011
  0
ARC
  8
_0-1_
  6
DASHED1
 62
    7
 10
977.5
 20
2368
 40
2
 50
180.00000000000005
 51
270.00000000000005
  0
ARC
  8
_0-1_
  6
DASHED1
 62
    7
 10
984.5
 20
2365.0999999999999
 40
0.5
 50
270
 51
0
  0
ARC
  8
_0-1_
  6
DASHED1
 62
    7
 10
983.5
 20
2365.0999999999999
 40
0.5
 50
180.00000000000005
 51
270.00000000000005
  0
ARC
  8
_0-1_
  6
DASHED1
 62
    7
 10
1001.5
 20
2365.0999999999999
 40
0.5
 50
180.00000000000005
 51
270.00000000000005
  0
ARC
  8
_0-1_
  6
DASHED1
 62
    7
 10
1002.5
 20
2365.0999999999999
 40
0.5
 50
270
 51
0
  0
ARC
  8
_0-1_
  6
DASHED1
 62
    7
 10
1008.5
 20
2368
 40
2
 50
270
 51
0
  0
ARC
  8
_0-1_
  6
DASHED1
 62
    7
 10
993
 20
2337.0000499999996
 40
3.5000000000000008
 50
90.000000000000056
 51
180.00000000000011
  0
ARC
  8
_0-1_
  6
DASHED1
 62
    7
 10
993
 20
2337.0000499999996
 40
3.5000000000000008
 50
0.0000000000000254
 51
90.000000000000056
  0
ARC
  8
_0-1_
  6
DASHED1
 62
    7
 10
993
 20
2337.0000499999996
 40
3.0000000000000004
 50
138.19000000000005
 51
180.00000000000011
  0
ARC
  8
_0-1_
  6
DASHED1
 62
    7
 10
993
 20
2337.0000499999996
 40
3.0000000000000004
 50
0.0000000000000254
 51
41.810000000000023
  0
ARC
  8
_0-1_
  6
DASHED1
 62
    7
 10
991
 20
2331.0000500000001
 40
1
 50
180.00000000000005
 51
270.00000000000005
  0
ARC
  8
_0-1_
  6
DASHED1
 62
    7
 10
995
 20
2331.0000500000001
 40
1
 50
270
 51
0
  0
ARC
  8
_0-1_
  6
DASHED1
 62
    7
 10
995.5
 20
2338.1421500000001
 40
10
 50
180.00000000000005
 51
225.00000000000005
  0
ARC
  8
_0-1_
  6
DASHED1
 62
    7
 10
990.5
 20
2338.1421500000001
 40
10
 50
315
 51
0
  0
ARC
  8
_0-1_
  6
DASHED1
 62
    7
 10
1010.1999999999998
 20
2365.6999999999998
 40
0.2999999999999998
 50
0.0000000000000254
 51
90.000000000000056
  0
ARC
  8
_0-1_
  6
DASHED1
 62
    7
 10
975.80000000000018
 20
2365.6999999999998
 40
0.2999999999999998
 50
90.000000000000056
 51
180.00000000000011
  0
ARC
  8
_0-1_
  6
DASHED1
 62
    7
 10
993.5
 20
2356.5004000000003
 40
0.5
 50
270
 51
0
  0
ARC
  8
_0-1_
  6
DASHED1
 62
    7
 10
992.5
 20
2356.5004000000003
 40
0.5
 50
180.00000000000005
 51
270.00000000000005
  0
ARC
  8
_0-1_
  6
DASHED1
 62
    7
 10
1011.5
 20
2356
 40
1
 50
270
 51
0
  0
ARC
  8
_0-1_
  6
DASHED1
 62
    7
 10
974.5
 20
2356
 40
1
 50
180.00000000000005
 51
270.00000000000005
  0
CIRCLE
  8
_0-1_
  6
DASHED1
 62
    7
 10
996.25
 20
2356.0000500000001
 40
2.3250000000000001
  0
CIRCLE
  8
_0-1_
  6
DASHED1
 62
    7
 10
989.75
 20
2356.0000500000001
 40
2.3250000000000001
  0
CIRCLE
  8
_0-1_
  6
DASHED1
 62
    7
 10
989.75
 20
2362.5000500000001
 40
2.3250000000000001
  0
CIRCLE
  8
_0-1_
  6
DASHED1
 62
    7
 10
996.25
 20
2362.5000500000001
 40
2.3250000000000001
  0
CIRCLE
  8
_0-1_
  6
DASHED1
 62
    7
 10
993
 20
2332.5000500000001
 40
1.25
  0
LINE
  8
_0-3_
  6
CONTINUOUS
 62
    5
 10
1400
 20
2328
 11
1400
 21
2510
  0
LINE
  8
_0-3_
  6
CONTINUOUS
 62
    4
 10
1385
 20
2328
 11
1385
 21
2510
  0
LINE
  8
_0-3_
  6
CONTINUOUS
 62
    4
 10
515
 20
2328
 11
515
 21
2510
  0
LINE
  8
_0-3_
  6
CONTINUOUS
 62
    5
 10
500
 20
2328
 11
500
 21
2510
  0
LINE
  8
_0-4_
  6
CONTINUOUS
 62
    3
 10
505.50000000000011
 20
2309.0000000000004
 11
505.50000000000011
 21
2324.0000000000004
  0
LINE
  8
_0-4_
  6
CONTINUOUS
 62
    3
 10
949.50000000000045
 20
2309.0000000000004
 11
949.50000000000045
 21
2324.0000000000004
  0
LINE
  8
_0-4_
  6
CONTINUOUS
 62
    3
 10
505.50000000000011
 20
2324.0000000000004
 11
949.50000000000045
 21
2324.0000000000004
  0
LINE
  8
_0-4_
  6
CONTINUOUS
 62
    3
 10
950.50000000000045
 20
2309.0000000000004
 11
950.50000000000045
 21
2324.0000000000004
  0
LINE
  8
_0-4_
  6
CONTINUOUS
 62
    3
 10
1394.5000000000004
 20
2309.0000000000004
 11
1394.5000000000004
 21
2324.0000000000004
  0
LINE
  8
_0-4_
  6
CONTINUOUS
 62
    3
 10
950.50000000000045
 20
2324.0000000000004
 11
1394.5000000000004
 21
2324.0000000000004
  0
ENDSEC
  0
EOF
