  0
SECTION
  2
HEADER
  9
$ACADVER
  1
AC1009
  9
$INSBASE
 10
0
 20
0
 30
0
  9
$EXTMIN
 10
0
 20
0
  9
$EXTMAX
 10
4200
 20
2970
  9
$LIMMIN
 10
0
 20
0
  9
$LIMMAX
 10
4200
 20
2970
  9
$LTSCALE
 40
10
  0
ENDSEC
  0
SECTION
  2
TABLES
  0
TABLE
  2
LTYPE
 70
     9
  0
LTYPE
  2
CONTINUOUS
 70
    64
  3
実線
 72
    65
 73
     0
 40
0.0
  0
LTYPE
  2
DASHED1
 70
    64
  3
--  --  --  --  --  --  --  --  
 72
    65
 73
     2
 40
2.5
 49
1.25
 49
-1.25
  0
LTYPE
  2
DASHED2
 70
    64
  3
----    ----    ----    ----    
 72
    65
 73
     2
 40
5.0
 49
2.5
 49
-2.5
  0
LTYPE
  2
DASHED3
 70
    64
  3
------  ------  ------  ------  
 72
    65
 73
     2
 40
5.0
 49
3.75
 49
-1.25
  0
LTYPE
  2
CENTER1
 70
    64
  3
----- - ----- - ----- - ----- - 
 72
    65
 73
     4
 40
10.0
 49
6.25
 49
-1.25
 49
1.25
 49
-1.25
  0
LTYPE
  2
CENTER2
 70
    64
  3
----------  --  ----------  --  
 72
    65
 73
     4
 40
20.0
 49
12.5
 49
-2.5
 49
2.5
 49
-2.5
  0
LTYPE
  2
PHANTOM1
 70
    64
  3
--- - - --- - - --- - - --- - - 
 72
    65
 73
     6
 40
10.0
 49
3.25
 49
-1.25
 49
1.25
 49
-1.25
 49
1.25
 49
-1.25
  0
LTYPE
  2
PHANTOM2
 70
    64
  3
--------  -  -  --------  -  -  
 72
    65
 73
     6
 40
20.0
 49
10.0
 49
-2.5
 49
1.25
 49
-2.5
 49
1.25
 49
-2.5
  0
LTYPE
  2
DOT
 70
    64
  3
-   -   -   -   -   -   -   -   
 72
    65
 73
     2
 40
2.5
 49
0.625
 49
-1.875
  0
LTYPE
  2
DUMMY
 70
    64
  3
ダミー
 72
    65
 73
     0
 40
0.0
  0
LTYPE
  2
RAND1
 70
    64
  3
ランダム線1
 72
    65
 73
     4
 40
10.0
 49
1.0
 49
-2.0
 49
3.0
 49
-4.0
  0
LTYPE
  2
RAND2
 70
    64
  3
ランダム線2
 72
    65
 73
     4
 40
14.0
 49
2.0
 49
-3.0
 49
4.0
 49
-5.0
  0
LTYPE
  2
RAND3
 70
    64
  3
ランダム線3
 72
    65
 73
     4
 40
18.0
 49
3.0
 49
-4.0
 49
5.0
 49
-6.0
  0
LTYPE
  2
RAND4
 70
    64
  3
ランダム線4
 72
    65
 73
     4
 40
22.0
 49
4.0
 49
-5.0
 49
6.0
 49
-7.0
  0
LTYPE
  2
RAND5
 70
    64
  3
ランダム線5
 72
    65
 73
     4
 40
26.0
 49
5.0
 49
-6.0
 49
7.0
 49
-8.0
  0
LTYPE
  2
LONG1
 70
    64
  3
----------  --  ----------  --  
 72
    65
 73
     4
 40
40.0
 49
32.5
 49
-2.5
 49
2.5
 49
-2.5
  0
LTYPE
  2
LONG2
 70
    64
  3
--------  -  -  --------  -  -  
 72
    65
 73
     6
 40
40.0
 49
30.0
 49
-2.5
 49
1.25
 49
-2.5
 49
1.25
 49
-2.5
  0
LTYPE
  2
LONG3
 70
    64
  3
+++++++++++++++..+++++++++++++++
 72
    65
 73
     2
 40
40.0
 49
37.5
 49
-2.5
  0
LTYPE
  2
LONG4
 70
    64
  3
+++++++++++++++..+++++++++++++++
 72
    65
 73
     2
 40
80.0
 49
75.0
 49
-5.0
  0
LTYPE
  2
LONG5
 70
    64
  3
----------  --  ----------  --  
 72
    65
 73
     4
 40
60.0
 49
37.5
 49
-7.5
 49
7.5
 49
-7.5
  0
LTYPE
  2
dashed
 70
   64
  3
-------   -------------   ------
 72
   65
 73
    2
 40
7.5
 49
6
 49
-1.5
  0
LTYPE
  2
dashed_spaced
 70
   64
  3
----        --------        ----
 72
   65
 73
    2
 40
12
 49
6
 49
-6
  0
LTYPE
  2
long_dashed_dotted
 70
   64
  3
------------- --- --------------
 72
   65
 73
    4
 40
15.25
 49
12
 49
-1.5
 49
0.25
 49
-1.5
  0
LTYPE
  2
long_dashed_double-dotted
 70
   64
  3
----------- --- --- ------------
 72
   65
 73
    6
 40
17
 49
12
 49
-1.5
 49
0.25
 49
-1.5
 49
0.25
 49
-1.5
  0
LTYPE
  2
long_dashed_triplicate-dotted
 70
   64
  3
--------- --- --- --- ----------
 72
   65
 73
    8
 40
18.75
 49
12
 49
-1.5
 49
0.25
 49
-1.5
 49
0.25
 49
-1.5
 49
0.25
 49
-1.5
  0
LTYPE
  2
dotted
 70
   64
  3
   -       -       -       -    
 72
   65
 73
    2
 40
1.75
 49
0.25
 49
-1.5
  0
LTYPE
  2
chain
 70
   64
  3
-------------- -- --------------
 72
   65
 73
    4
 40
18.5
 49
12
 49
-1.5
 49
3.5
 49
-1.5
  0
LTYPE
  2
chain_double_dash
 70
   64
  3
------------ -- -- -------------
 72
   65
 73
    6
 40
23.5
 49
12
 49
-1.5
 49
3.5
 49
-1.5
 49
3.5
 49
-1.5
  0
LTYPE
  2
dashed_dotted
 70
   64
  3
-----------     -     ----------
 72
   65
 73
    4
 40
9.25
 49
6
 49
-1.5
 49
0.25
 49
-1.5
  0
LTYPE
  2
double-dashed_dotted
 70
   64
  3
------   -----------   -   -----
 72
   65
 73
    6
 40
16.75
 49
6
 49
-1.5
 49
6
 49
-1.5
 49
0.25
 49
-1.5
  0
LTYPE
  2
dashed_double-dotted
 70
   64
  3
---------    -    -    ---------
 72
   65
 73
    6
 40
11
 49
6
 49
-1.5
 49
0.25
 49
-1.5
 49
0.25
 49
-1.5
  0
LTYPE
  2
double-dashed_double-dotted
 70
   64
  3
-----   ---------   -   -   ----
 72
   65
 73
    8
 40
18.5
 49
6
 49
-1.5
 49
6
 49
-1.5
 49
0.25
 49
-1.5
 49
0.25
 49
-1.5
  0
LTYPE
  2
dashed_triplicate-dotted
 70
   64
  3
-------    -    -    -    ------
 72
   65
 73
    8
 40
12.75
 49
6
 49
-1.5
 49
0.25
 49
-1.5
 49
0.25
 49
-1.5
 49
0.25
 49
-1.5
  0
LTYPE
  2
double-dashed_triplicate-dotted
 70
   64
  3
-----  ---------  -  -  -  -----
 72
   65
 73
   10
 40
20.25
 49
6
 49
-1.5
 49
6
 49
-1.5
 49
0.25
 49
-1.5
 49
0.25
 49
-1.5
 49
0.25
 49
-1.5
  0
LTYPE
  2
undefined
 70
   64
  3
--------------------------------
 72
   65
 73
    0
 40
0
  0
LTYPE
  2
_
 70
   64
  3
                                
 72
   65
 73
    0
 40
0
  0
LTYPE
  2
__18
 70
   64
  3
                                
 72
   65
 73
    0
 40
0
  0
LTYPE
  2
__19
 70
   64
  3
                                
 72
   65
 73
    0
 40
0
  0
LTYPE
  2
__20
 70
   64
  3
                                
 72
   65
 73
    0
 40
0
  0
LTYPE
  2
__21
 70
   64
  3
                                
 72
   65
 73
    0
 40
0
  0
LTYPE
  2
__22
 70
   64
  3
                                
 72
   65
 73
    0
 40
0
  0
LTYPE
  2
__23
 70
   64
  3
                                
 72
   65
 73
    0
 40
0
  0
LTYPE
  2
__24
 70
   64
  3
                                
 72
   65
 73
    0
 40
0
  0
LTYPE
  2
__25
 70
   64
  3
                                
 72
   65
 73
    0
 40
0
  0
LTYPE
  2
__26
 70
   64
  3
                                
 72
   65
 73
    0
 40
0
  0
LTYPE
  2
__27
 70
   64
  3
                                
 72
   65
 73
    0
 40
0
  0
LTYPE
  2
__28
 70
   64
  3
                                
 72
   65
 73
    0
 40
0
  0
LTYPE
  2
__29
 70
   64
  3
                                
 72
   65
 73
    0
 40
0
  0
LTYPE
  2
__30
 70
   64
  3
                                
 72
   65
 73
    0
 40
0
  0
LTYPE
  2
__31
 70
   64
  3
                                
 72
   65
 73
    0
 40
0
  0
LTYPE
  2
__32
 70
   64
  3
                                
 72
   65
 73
    0
 40
0
  0
ENDTAB
  0
TABLE
  2
STYLE
  5
3
100
AcDbSymbolTable
 70
     1
  0
STYLE
  5
10
100
AcDbSymbolTableRecord
100
AcDbTextStyleTableRecord
  2
STANDARD
 70
     0
 40
0.0
 41
1.0
 50
0.0
 71
     0
 42
0.2
  3
txt
  4
bigfont.shx
  0
STYLE
  5
26
100
AcDbSymbolTableRecord
100
AcDbTextStyleTableRecord
  2
TATEGAKI
 70
    68
 40
0.0
 41
1.0
 50
0.0
 71
     0
 42
1.0
  3
txt
  4
bigfont.shx
  0
ENDTAB
  0
TABLE
  2
LAYER
 70
    7
  0
LAYER
  2
_0-0_
 70
   64
 62
    7
  6
CONTINUOUS
  0
LAYER
  2
_0-2_
 70
   64
 62
    7
  6
CONTINUOUS
  0
LAYER
  2
_0-8_
 70
   64
 62
    7
  6
CONTINUOUS
  0
LAYER
  2
_0-9_
 70
   64
 62
    7
  6
CONTINUOUS
  0
LAYER
  2
_0-f_仕様表
 70
   64
 62
    7
  6
CONTINUOUS
  0
LAYER
  2
_e-0_
 70
   64
 62
    7
  6
CONTINUOUS
  0
LAYER
  2
ADD_LINE
 70
   64
 62
    7
  6
CONTINUOUS
  0
ENDTAB
  0
ENDSEC
  0
SECTION
  2
BLOCKS
  0
ENDSEC
  0
SECTION
  2
ENTITIES
  0
ARC
  8
_0-2_
  6
CONTINUOUS
 62
    4
 10
1790.2350462046942
 20
761.42382534248372
 40
2.5
 50
270
 51
0
  0
LINE
  8
_0-2_
  6
CONTINUOUS
 62
    4
 10
1792.7350462046942
 20
2346.3470681458002
 11
1292.7350462046942
 21
2346.3470681458002
  0
LINE
  8
_0-2_
  6
CONTINUOUS
 62
    4
 10
2753.8520946593043
 20
1774.3534477898742
 11
2838.4040793825797
 21
1778.9238253424837
  0
LINE
  8
_0-2_
  6
CONTINUOUS
 62
    4
 10
1751.2350462046942
 20
1478.9122332980593
 11
1751.2350462046942
 21
1458.9122332980593
  0
LINE
  8
_0-2_
  6
CONTINUOUS
 62
    4
 10
1317.7350462046942
 20
1648.9238253424837
 11
1317.7350462046942
 21
933.92382534248372
  0
LINE
  8
_0-0_
  6
CONTINUOUS
 62
    7
 10
630
 20
120
 11
630
 21
220
  0
LINE
  8
_0-0_
  6
CONTINUOUS
 62
    7
 10
170
 20
120
 11
610
 21
120
  0
LINE
  8
_0-0_
  6
CONTINUOUS
 62
    7
 10
170
 20
220
 11
610
 21
220
  0
LINE
  8
_0-0_
  6
CONTINUOUS
 62
    7
 10
1420
 20
120
 11
1420
 21
220
  0
LINE
  8
_0-0_
  6
CONTINUOUS
 62
    7
 10
2210
 20
120
 11
2210
 21
220
  0
LINE
  8
_0-0_
  6
CONTINUOUS
 62
    7
 10
2220
 20
120
 11
2220
 21
220
  0
LINE
  8
_0-0_
  6
CONTINUOUS
 62
    7
 10
630
 20
120
 11
2210
 21
120
  0
LINE
  8
_0-0_
  6
CONTINUOUS
 62
    7
 10
630
 20
220
 11
2210
 21
220
  0
LINE
  8
_0-0_
  6
CONTINUOUS
 62
    7
 10
2710
 20
120
 11
2710
 21
220
  0
LINE
  8
_0-0_
  6
CONTINUOUS
 62
    7
 10
2720
 20
120
 11
2720
 21
220
  0
LINE
  8
_0-0_
  6
CONTINUOUS
 62
    7
 10
2220
 20
120
 11
2710
 21
120
  0
LINE
  8
_0-0_
  6
CONTINUOUS
 62
    7
 10
2220
 20
220
 11
2710
 21
220
  0
LINE
  8
_0-0_
  6
CONTINUOUS
 62
    7
 10
3020
 20
120
 11
3020
 21
220
  0
LINE
  8
_0-0_
  6
CONTINUOUS
 62
    7
 10
3320
 20
120
 11
3320
 21
220
  0
LINE
  8
_0-0_
  6
CONTINUOUS
 62
    7
 10
3700
 20
120
 11
3700
 21
220
  0
LINE
  8
_0-0_
  6
CONTINUOUS
 62
    7
 10
2720
 20
120
 11
4110
 21
120
  0
LINE
  8
_0-0_
  6
CONTINUOUS
 62
    7
 10
4110
 20
120
 11
4110
 21
220
  0
LINE
  8
_0-0_
  6
CONTINUOUS
 62
    7
 10
2720
 20
220
 11
4110
 21
220
  0
LINE
  8
_0-0_
  6
CONTINUOUS
 62
    7
 10
4130
 20
2860
 11
4130
 21
100
  0
LINE
  8
_0-0_
  6
CONTINUOUS
 62
    7
 10
150
 20
2860
 11
4130
 21
2860
  0
LINE
  8
_0-0_
  6
CONTINUOUS
 62
    7
 10
150
 20
100
 11
4130
 21
100
  0
LINE
  8
_0-0_
  6
CONTINUOUS
 62
    7
 10
150
 20
100
 11
150
 21
2860
  0
TEXT
  8
_0-0_
 62
    7
 10
3040
 20
187.5
 40
24.999999999999857
 41
0.6400000000000035
 50
0
  1
ＤＡＴＡ
  0
TEXT
  8
_0-0_
 62
    7
 10
3340
 20
187.5
 40
24.999999999999857
 41
0.6400000000000035
 50
0
  1
ＣＨＥＣＫＥＤ
  0
TEXT
  8
_0-0_
 62
    7
 10
3720
 20
187.5
 40
24.999999999999857
 41
0.6400000000000035
 50
0
  1
ＳＨＥＥＴ　ＮＯ．
  0
TEXT
  8
_0-0_
 62
    7
 10
3542
 20
187.5
 40
24.999999999999857
 41
0.6400000000000035
 50
0
  1
ＤＲＡＷＩＮＧ
  0
LINE
  8
_0-0_
  6
CONTINUOUS
 62
    7
 10
170
 20
170
 11
610
 21
170
  0
TEXT
  8
_0-0_
 62
    7
 10
2740.3739840854213
 20
187.46937299484983
 40
24.999999999999857
 41
0.6400000000000035
 50
0
  1
ＳＣＡＬＥ
  0
TEXT
  8
_0-0_
 62
    7
 10
1445
 20
187.5
 40
24.999999999999857
 41
0.8000000000000045
 50
0
  1
図面名称
  0
TEXT
  8
_0-0_
 62
    7
 10
655
 20
187.5
 40
24.999999999999857
 41
0.8000000000000043
 50
0
  1
名　称
  0
LINE
  8
_0-0_
  6
CONTINUOUS
 62
    7
 10
2165
 20
2872
 11
2166.15
 21
2874.0000000000004
  0
LINE
  8
_0-0_
  6
CONTINUOUS
 62
    7
 10
2158.6399999999998
 20
2877
 11
2165
 21
2866
  0
LINE
  8
_0-0_
  6
CONTINUOUS
 62
    7
 10
2165
 20
2866
 11
2171.3499999999999
 21
2877
  0
LINE
  8
_0-0_
  6
CONTINUOUS
 62
    7
 10
2165
 20
2860
 11
2176.5399999999999
 21
2880
  0
LINE
  8
_0-0_
  6
CONTINUOUS
 62
    7
 10
2153.4499999999998
 20
2880
 11
2165
 21
2860
  0
LINE
  8
_0-0_
  6
CONTINUOUS
 62
    7
 10
2176.5399999999999
 20
2880
 11
2153.4499999999998
 21
2880
  0
LINE
  8
_0-0_
  6
CONTINUOUS
 62
    7
 10
2163.8400000000001
 20
2874.0000000000004
 11
2165
 21
2872
  0
LINE
  8
_0-0_
  6
CONTINUOUS
 62
    7
 10
2166.15
 20
2874.0000000000004
 11
2163.8400000000001
 21
2874.0000000000004
  0
LINE
  8
_0-0_
  6
CONTINUOUS
 62
    7
 10
2171.3499999999999
 20
2877
 11
2158.6399999999998
 21
2877
  0
LINE
  8
_0-0_
  6
CONTINUOUS
 62
    7
 10
120
 20
1462.6794919243113
 11
120
 21
1497.3205080756886
  0
LINE
  8
_0-0_
  6
CONTINUOUS
 62
    7
 10
120
 20
1497.3205080756886
 11
150
 21
1480
  0
LINE
  8
_0-0_
  6
CONTINUOUS
 62
    7
 10
150
 20
1480
 11
120
 21
1462.6794919243113
  0
LINE
  8
_0-0_
  6
CONTINUOUS
 62
    7
 10
125
 20
1471.3397459621555
 11
125
 21
1488.6602540378444
  0
LINE
  8
_0-0_
  6
CONTINUOUS
 62
    7
 10
125
 20
1488.6602540378444
 11
140
 21
1480
  0
LINE
  8
_0-0_
  6
CONTINUOUS
 62
    7
 10
140
 20
1480
 11
125
 21
1471.3397459621555
  0
LINE
  8
_0-0_
  6
CONTINUOUS
 62
    7
 10
128.99999999999948
 20
1478.2679491924309
 11
128.99999999999948
 21
1481.732050807569
  0
LINE
  8
_0-0_
  6
CONTINUOUS
 62
    7
 10
128.99999999999948
 20
1481.732050807569
 11
132.00000000000045
 21
1480
  0
LINE
  8
_0-0_
  6
CONTINUOUS
 62
    7
 10
132.00000000000045
 20
1480
 11
128.99999999999948
 21
1478.2679491924309
  0
LINE
  8
_0-0_
  6
CONTINUOUS
 62
    7
 10
4160
 20
1462.6794919243113
 11
4160
 21
1497.3205080756886
  0
LINE
  8
_0-0_
  6
CONTINUOUS
 62
    7
 10
4160
 20
1497.3205080756886
 11
4130
 21
1480
  0
LINE
  8
_0-0_
  6
CONTINUOUS
 62
    7
 10
4130
 20
1480
 11
4160
 21
1462.6794919243113
  0
LINE
  8
_0-0_
  6
CONTINUOUS
 62
    7
 10
4155
 20
1471.3397459621555
 11
4155
 21
1488.6602540378444
  0
LINE
  8
_0-0_
  6
CONTINUOUS
 62
    7
 10
4155
 20
1488.6602540378444
 11
4140
 21
1480
  0
LINE
  8
_0-0_
  6
CONTINUOUS
 62
    7
 10
4140
 20
1480
 11
4155
 21
1471.3397459621555
  0
LINE
  8
_0-0_
  6
CONTINUOUS
 62
    7
 10
4151
 20
1478.2679491924309
 11
4151
 21
1481.732050807569
  0
LINE
  8
_0-0_
  6
CONTINUOUS
 62
    7
 10
4151
 20
1481.732050807569
 11
4148
 21
1480
  0
LINE
  8
_0-0_
  6
CONTINUOUS
 62
    7
 10
4148
 20
1480
 11
4151
 21
1478.2679491924309
  0
TEXT
  8
_0-f_仕様表
 62
    7
 10
3492.4994999999998
 20
2760
 40
35
 41
0.857142857142857
 50
0
  1
仕　　　　様
  0
TEXT
  8
_0-f_仕様表
 62
    7
 10
3165.9990000000007
 20
2407.5
 40
35
 41
0.857142857142857
 50
0
  1
コンセント
  0
TEXT
  8
_0-0_
 62
    7
 10
2861
 20
142.5
 40
35
 41
0.5714285714285721
 50
0
  1
１／１０
  0
LINE
  8
_0-f_仕様表
  6
CONTINUOUS
 62
    3
 10
3094.9989999999997
 20
2810
 11
3094.9989999999997
 21
2040
  0
LINE
  8
_0-f_仕様表
  6
CONTINUOUS
 62
    3
 10
4080
 20
2040
 11
4080
 21
2810
  0
LINE
  8
_0-f_仕様表
  6
CONTINUOUS
 62
    7
 10
3394.9990000000002
 20
2740
 11
3394.9990000000002
 21
2040
  0
TEXT
  8
_0-f_仕様表
 62
    7
 10
3114.6172215051965
 20
2686.7964541193559
 40
35
 41
0.857142857142857
 50
0
  1
　　本　　体
  0
TEXT
  8
_0-f_仕様表
 62
    7
 10
3419.9990000000002
 20
2687.5
 40
35
 41
0.857142857142857
 50
0
  1
ＰＳシート
  0
TEXT
  8
_0-f_仕様表
 62
    7
 10
3229.9990000000002
 20
2617.5
 40
35
 41
0.857142857142857
 50
0
  1
鏡
  0
TEXT
  8
_0-f_仕様表
 62
    7
 10
3181.9989999999988
 20
2547.5
 40
35
 41
0.857142857142857
 50
0
  1
ガード棒
  0
TEXT
  8
_0-f_仕様表
 62
    7
 10
3181.9990000000002
 20
2477.5
 40
35
 41
0.857142857142857
 50
0
  1
スイッチ
  0
TEXT
  8
_0-f_仕様表
 62
    7
 10
3419.9990000000002
 20
2477.5
 40
35
 41
0.857142857142857
 50
0
  1
照明スイッチ
  0
TEXT
  8
_0-f_仕様表
 62
    7
 10
3419.9990000000002
 20
2407.5
 40
35
 41
0.6285714285714286
 50
0
  1
ＡＣ１００　５０／６０Ｈｚ　許容電力　１２００Ｗ
  0
TEXT
  8
_0-f_仕様表
 62
    7
 10
3181.9990000000002
 20
2337.5
 40
35
 41
0.857142857142857
 50
0
  1
照明器具
  0
TEXT
  8
_0-f_仕様表
 62
    7
 10
3419.9990000000002
 20
2337.5
 40
35
 41
0.857142857142857
 50
0
  1
４０Ｗ白熱球　φ７０　２灯
  0
TEXT
  8
_0-f_仕様表
 62
    7
 10
3165.9989999999988
 20
2267.5
 40
35
 41
0.857142857142857
 50
0
  1
電源コード
  0
TEXT
  8
_0-f_仕様表
 62
    7
 10
3419.9990000000002
 20
2267.5
 40
35
 41
0.7714285714285713
 50
0
  1
電源コード　プラグ付
  0
TEXT
  8
_0-f_仕様表
 62
    7
 10
3149.9990000000002
 20
2127.5
 40
35
 41
0.857142857142857
 50
0
  1
防水パッキン
  0
TEXT
  8
_0-f_仕様表
 62
    7
 10
3419.9990000000002
 20
2127.5
 40
35
 41
0.857142857142857
 50
0
  1
合成樹脂　白
  0
TEXT
  8
_0-f_仕様表
 62
    7
 10
3181.9990000000002
 20
2057.5
 40
35
 41
0.857142857142857
 50
0
  1
取付ネジ
  0
TEXT
  8
_0-f_仕様表
 62
    7
 10
3419.9990000000002
 20
2057.5
 40
35
 41
0.7714285714285713
 50
0
  1
皿ビス　化粧キャップ　各４
  0
LINE
  8
_0-f_仕様表
  6
CONTINUOUS
 62
    7
 10
3094.9989999999997
 20
2740
 11
3094.9989999999997
 21
2040
  0
TEXT
  8
_0-f_仕様表
 62
    7
 10
3013.9989999999997
 20
2760
 40
35
 41
0.857142857142857
 50
0
  1
番号
  0
TEXT
  8
_0-f_仕様表
 62
    7
 10
3029.9989999999997
 20
2687.5
 40
35
 41
0.857142857142857
 50
0
  1
①
  0
TEXT
  8
_0-f_仕様表
 62
    7
 10
3029.9989999999997
 20
2617.5
 40
35
 41
0.857142857142857
 50
0
  1
②
  0
TEXT
  8
_0-f_仕様表
 62
    7
 10
3029.9989999999984
 20
2547.5
 40
35
 41
0.857142857142857
 50
0
  1
③
  0
TEXT
  8
_0-f_仕様表
 62
    7
 10
3029.9989999999997
 20
2477.5
 40
35
 41
0.857142857142857
 50
0
  1
④
  0
TEXT
  8
_0-f_仕様表
 62
    7
 10
3029.9989999999997
 20
2407.5
 40
35
 41
0.857142857142857
 50
0
  1
⑤
  0
TEXT
  8
_0-f_仕様表
 62
    7
 10
3029.9989999999997
 20
2337.5
 40
35
 41
0.857142857142857
 50
0
  1
⑥
  0
TEXT
  8
_0-f_仕様表
 62
    7
 10
3029.9989999999984
 20
2267.5
 40
35
 41
0.857142857142857
 50
0
  1
⑦
  0
TEXT
  8
_0-f_仕様表
 62
    7
 10
3029.9989999999997
 20
2197.5
 40
35
 41
0.857142857142857
 50
0
  1
⑧
  0
TEXT
  8
_0-f_仕様表
 62
    7
 10
3029.9989999999997
 20
2127.5
 40
35
 41
0.857142857142857
 50
0
  1
⑨
  0
TEXT
  8
_0-f_仕様表
 62
    7
 10
3029.9989999999997
 20
2057.5
 40
35
 41
0.857142857142857
 50
0
  1
⑩
  0
LINE
  8
_0-f_仕様表
  6
CONTINUOUS
 62
    3
 10
2994.9989999999997
 20
2810
 11
2994.9989999999997
 21
2040
  0
LINE
  8
_0-f_仕様表
  6
CONTINUOUS
 62
    3
 10
4080
 20
2810
 11
2994.9989999999997
 21
2810
  0
LINE
  8
_0-f_仕様表
  6
CONTINUOUS
 62
    3
 10
4080
 20
2040
 11
2994.9989999999997
 21
2040
  0
LINE
  8
_0-f_仕様表
  6
CONTINUOUS
 62
    7
 10
4080
 20
2460
 11
2994.9989999999997
 21
2460
  0
LINE
  8
_0-f_仕様表
  6
CONTINUOUS
 62
    7
 10
4080
 20
2530
 11
2994.9989999999997
 21
2530
  0
LINE
  8
_0-f_仕様表
  6
CONTINUOUS
 62
    7
 10
4080
 20
2600
 11
2994.9989999999997
 21
2600
  0
LINE
  8
_0-f_仕様表
  6
CONTINUOUS
 62
    7
 10
4080
 20
2670
 11
2994.9989999999997
 21
2670
  0
LINE
  8
_0-f_仕様表
  6
CONTINUOUS
 62
    7
 10
4080
 20
2740
 11
2994.9989999999997
 21
2740
  0
LINE
  8
_0-f_仕様表
  6
CONTINUOUS
 62
    7
 10
4080
 20
2745
 11
2994.9989999999997
 21
2745
  0
LINE
  8
_0-f_仕様表
  6
CONTINUOUS
 62
    3
 10
4080
 20
2390
 11
2994.9989999999997
 21
2390
  0
LINE
  8
_0-f_仕様表
  6
CONTINUOUS
 62
    7
 10
4080
 20
2110
 11
2994.9989999999997
 21
2110
  0
LINE
  8
_0-f_仕様表
  6
CONTINUOUS
 62
    7
 10
4080
 20
2180
 11
2994.9989999999997
 21
2180
  0
LINE
  8
_0-f_仕様表
  6
CONTINUOUS
 62
    7
 10
4080
 20
2250
 11
2994.9989999999997
 21
2250
  0
LINE
  8
_0-f_仕様表
  6
CONTINUOUS
 62
    7
 10
4080
 20
2320
 11
2994.9989999999997
 21
2320
  0
TEXT
  8
_0-f_仕様表
 62
    7
 10
3149.9990000000002
 20
2197.5
 40
35
 41
0.857142857142857
 50
0
  1
歯ブラシ立て
  0
TEXT
  8
_0-f_仕様表
 62
    7
 10
3418.4062760532069
 20
2195.1378425879333
 40
35
 41
0.857142857142857
 50
0
  1
ポリプロピレン
  0
TEXT
  8
_0-f_仕様表
 62
    7
 10
3419.9990000000002
 20
2617.5
 40
35
 41
0.7714285714285713
 50
0
  1
防湿鏡　サイズ　ｔ３　２５０×５６０
  0
CIRCLE
  8
_0-2_
  6
CONTINUOUS
 62
    4
 10
1682.7350462046942
 20
1713.9238253424837
 40
35
  0
CIRCLE
  8
_0-2_
  6
CONTINUOUS
 62
    4
 10
1402.7350462046942
 20
1713.9238253424837
 40
35
  0
LINE
  8
_0-2_
  6
CONTINUOUS
 62
    4
 10
1792.7350462046942
 20
1675.9238253424837
 11
1292.7350462046942
 21
1675.9238253424837
  0
ARC
  8
_0-2_
  6
CONTINUOUS
 62
    4
 10
1352.7350462046942
 20
1718.9238253424837
 40
60
 50
90
 51
180
  0
LINE
  8
_0-2_
  6
CONTINUOUS
 62
    4
 10
1732.7350462046942
 20
1778.9238253424837
 11
1352.7350462046942
 21
1778.9238253424837
  0
ARC
  8
_0-2_
  6
CONTINUOUS
 62
    4
 10
1732.7350462046942
 20
1718.9238253424837
 40
60
 50
0
 51
90.000000000000028
  0
LINE
  8
_0-2_
  6
CONTINUOUS
 62
    4
 10
1292.7350462046942
 20
1776.4238253424837
 11
1292.7350462046942
 21
1713.9238253424837
  0
ARC
  8
_0-2_
  6
CONTINUOUS
 62
    4
 10
1295.2350462046942
 20
1776.4238253424837
 40
2.5
 50
90
 51
180
  0
LINE
  8
_0-2_
  6
CONTINUOUS
 62
    4
 10
1790.2350462046942
 20
1778.9238253424837
 11
1295.2350462046942
 21
1778.9238253424837
  0
LINE
  8
_0-2_
  6
CONTINUOUS
 62
    4
 10
1792.7350462046942
 20
1776.4238253424837
 11
1792.7350462046942
 21
1713.9238253424837
  0
ARC
  8
_0-2_
  6
CONTINUOUS
 62
    4
 10
1790.2350462046942
 20
1776.4238253424837
 40
2.5
 50
0
 51
90
  0
LINE
  8
_0-2_
  6
CONTINUOUS
 62
    4
 10
1292.7350462046942
 20
761.42382534248372
 11
1292.7350462046942
 21
1718.9238253424837
  0
ARC
  8
_0-2_
  6
CONTINUOUS
 62
    4
 10
1295.2350462046942
 20
761.42382534248372
 40
2.5
 50
180
 51
270
  0
LINE
  8
_0-2_
  6
CONTINUOUS
 62
    4
 10
1790.2350462046942
 20
758.92382534248372
 11
1295.2350462046942
 21
758.92382534248372
  0
LINE
  8
_0-2_
  6
CONTINUOUS
 62
    4
 10
1792.7350462046942
 20
761.42382534248372
 11
1792.7350462046942
 21
1718.9238253424837
  0
ARC
  8
_0-2_
  6
CONTINUOUS
 62
    4
 10
2819.4040793825797
 20
761.42382534248372
 40
2.5
 50
180
 51
270
  0
LINE
  8
_0-2_
  6
CONTINUOUS
 62
    4
 10
2838.4040793825797
 20
758.92382534248372
 11
2819.4040793825797
 21
758.92382534248372
  0
ARC
  8
_0-2_
  6
CONTINUOUS
 62
    4
 10
2838.4040793825797
 20
761.42382534248372
 40
2.5
 50
270
 51
0
  0
LINE
  8
_0-2_
  6
CONTINUOUS
 62
    4
 10
2840.9040793825797
 20
1776.4238253424837
 11
2840.9040793825797
 21
761.42382534248372
  0
ARC
  8
_0-2_
  6
CONTINUOUS
 62
    4
 10
2838.4040793825797
 20
1776.4238253424837
 40
2.5
 50
0
 51
90
  0
ARC
  8
_0-2_
  6
CONTINUOUS
 62
    4
 10
1332.7350462046942
 20
1648.9238253424837
 40
15
 50
90
 51
180
  0
LINE
  8
_0-2_
  6
CONTINUOUS
 62
    4
 10
1592.7350462046942
 20
1663.9238253424837
 11
1332.7350462046942
 21
1663.9238253424837
  0
ARC
  8
_0-2_
  6
CONTINUOUS
 62
    4
 10
1592.7350462046942
 20
1648.9238253424837
 40
15
 50
0
 51
90
  0
ARC
  8
_0-2_
  6
CONTINUOUS
 62
    4
 10
1762.7350462046942
 20
933.92382534248372
 40
20
 50
0
 51
90
  0
LINE
  8
_0-2_
  6
CONTINUOUS
 62
    4
 10
1782.7350462046942
 20
993.92382534248372
 11
1782.7350462046942
 21
933.92382534248372
  0
LINE
  8
_0-2_
  6
CONTINUOUS
 62
    4
 10
1607.7350462046942
 20
1648.9238253424837
 11
1607.7350462046942
 21
943.92382534248372
  0
LINE
  8
_0-2_
  6
CONTINUOUS
 62
    4
 10
1782.7350462046942
 20
918.92382534248372
 11
1302.7350462046942
 21
918.92382534248372
  0
LINE
  8
_0-2_
  6
CONTINUOUS
 62
    4
 10
1607.7350462046942
 20
943.92382534248372
 11
1587.7350462046942
 21
933.92382534248372
  0
LINE
  8
_0-2_
  6
CONTINUOUS
 62
    4
 10
1587.7350462046942
 20
933.92382534248372
 11
1295.2350462046942
 21
933.92382534248372
  0
LINE
  8
_0-2_
  6
CONTINUOUS
 62
    4
 10
1617.7350462046942
 20
993.92382534248372
 11
1617.7350462046942
 21
943.92382534248372
  0
LINE
  8
_0-2_
  6
CONTINUOUS
 62
    4
 10
1635.6235900246927
 20
952.86809725248281
 11
1617.7350462046942
 21
943.92382534248372
  0
ARC
  8
_0-2_
  6
CONTINUOUS
 62
    4
 10
1640.0957259796923
 20
943.92382534248372
 40
10
 50
90
 51
116.56505117707799
  0
LINE
  8
_0-2_
  6
CONTINUOUS
 62
    4
 10
1637.7350462046942
 20
953.92382534248372
 11
1762.7350462046942
 21
953.92382534248372
  0
LINE
  8
_0-2_
  6
CONTINUOUS
 62
    4
 10
1617.7350462046942
 20
943.92382534248372
 11
1607.7350462046942
 21
943.92382534248372
  0
ARC
  8
_0-2_
  6
CONTINUOUS
 62
    4
 10
1642.7350462046942
 20
1648.9238253424837
 40
15
 50
90
 51
180
  0
LINE
  8
_0-2_
  6
CONTINUOUS
 62
    4
 10
1757.7350462046942
 20
1663.9238253424837
 11
1642.7350462046942
 21
1663.9238253424837
  0
ARC
  8
_0-2_
  6
CONTINUOUS
 62
    4
 10
1757.7350462046942
 20
1648.9238253424837
 40
15
 50
0
 51
90
  0
ARC
  8
_0-2_
  6
CONTINUOUS
 62
    4
 10
1762.7350462046942
 20
1198.9238253424837
 40
20
 50
0
 51
90
  0
ARC
  8
_0-2_
  6
CONTINUOUS
 62
    4
 10
1762.7350462046942
 20
1258.9238253424837
 40
20
 50
270
 51
0
  0
LINE
  8
_0-2_
  6
CONTINUOUS
 62
    4
 10
1782.7350462046942
 20
1258.9238253424837
 11
1782.7350462046942
 21
1198.9238253424837
  0
ARC
  8
_0-2_
  6
CONTINUOUS
 62
    4
 10
1762.7350462046942
 20
1418.9238253424837
 40
20
 50
0
 51
90
  0
ARC
  8
_0-2_
  6
CONTINUOUS
 62
    4
 10
1762.7350462046942
 20
1478.9238253424837
 40
20
 50
270
 51
0
  0
LINE
  8
_0-2_
  6
CONTINUOUS
 62
    4
 10
1782.7350462046942
 20
1478.9238253424837
 11
1782.7350462046942
 21
1418.9238253424837
  0
LINE
  8
_0-2_
  6
CONTINUOUS
 62
    4
 10
1617.7350462046942
 20
1258.9238253424837
 11
1617.7350462046942
 21
1198.9238253424837
  0
ARC
  8
_0-2_
  6
CONTINUOUS
 62
    4
 10
1637.7350462046942
 20
1198.9238253424837
 40
20
 50
90
 51
180
  0
ARC
  8
_0-2_
  6
CONTINUOUS
 62
    4
 10
1637.7350462046942
 20
1258.9238253424837
 40
20
 50
180
 51
270
  0
LINE
  8
_0-2_
  6
CONTINUOUS
 62
    4
 10
1617.7350462046942
 20
1258.9238253424837
 11
1617.7350462046942
 21
1198.9238253424837
  0
LINE
  8
_0-2_
  6
CONTINUOUS
 62
    4
 10
1617.7350462046942
 20
1478.9238253424837
 11
1617.7350462046942
 21
1418.9238253424837
  0
ARC
  8
_0-2_
  6
CONTINUOUS
 62
    4
 10
1637.7350462046942
 20
1418.9238253424837
 40
20
 50
90
 51
180
  0
ARC
  8
_0-2_
  6
CONTINUOUS
 62
    4
 10
1637.7350462046942
 20
1478.9238253424837
 40
20
 50
180
 51
270
  0
LINE
  8
_0-2_
  6
CONTINUOUS
 62
    4
 10
1617.7350462046942
 20
1478.9238253424837
 11
1617.7350462046942
 21
1418.9238253424837
  0
LINE
  8
_0-2_
  6
CONTINUOUS
 62
    4
 10
1762.7350462046942
 20
1458.9238253424837
 11
1637.7350462046942
 21
1458.9238253424837
  0
LINE
  8
_0-2_
  6
CONTINUOUS
 62
    4
 10
1762.7350462046942
 20
1218.9238253424837
 11
1637.7350462046942
 21
1218.9238253424837
  0
ARC
  8
_0-2_
  6
CONTINUOUS
 62
    4
 10
1637.7350462046942
 20
1468.9238253424837
 40
10
 50
180
 51
270
  0
LINE
  8
_0-2_
  6
CONTINUOUS
 62
    4
 10
1762.7350462046942
 20
1458.9238253424837
 11
1637.7350462046942
 21
1458.9238253424837
  0
ARC
  8
_0-2_
  6
CONTINUOUS
 62
    4
 10
1762.7350462046942
 20
1468.9238253424837
 40
10
 50
270
 51
0
  0
ARC
  8
_0-2_
  6
CONTINUOUS
 62
    4
 10
1762.7350462046942
 20
1428.9238253424837
 40
10
 50
0
 51
90.000000000000028
  0
LINE
  8
_0-2_
  6
CONTINUOUS
 62
    4
 10
1682.7350462046942
 20
1438.9238253424837
 11
1762.7350462046942
 21
1438.9238253424837
  0
ARC
  8
_0-2_
  6
CONTINUOUS
 62
    4
 10
1682.7350462046942
 20
1428.9238253424837
 40
10
 50
90
 51
180
  0
LINE
  8
_0-2_
  6
CONTINUOUS
 62
    4
 10
1762.7350462046942
 20
1438.9238253424837
 11
1637.7350462046942
 21
1438.9238253424837
  0
LINE
  8
_0-2_
  6
CONTINUOUS
 62
    4
 10
1772.7350462046942
 20
1248.9238253424837
 11
1772.7350462046942
 21
1428.9238253424837
  0
ARC
  8
_0-2_
  6
CONTINUOUS
 62
    4
 10
1762.7350462046942
 20
1248.9238253424837
 40
10
 50
270
 51
0
  0
ARC
  8
_0-2_
  6
CONTINUOUS
 62
    4
 10
1682.7350462046942
 20
1248.9238253424837
 40
10
 50
180
 51
270
  0
LINE
  8
_0-2_
  6
CONTINUOUS
 62
    4
 10
1762.7350462046942
 20
1238.9238253424837
 11
1637.7350462046942
 21
1238.9238253424837
  0
LINE
  8
_0-2_
  6
CONTINUOUS
 62
    4
 10
1627.7350462046942
 20
1468.9238253424837
 11
1627.7350462046942
 21
1648.9238253424837
  0
LINE
  8
_0-2_
  6
CONTINUOUS
 62
    4
 10
1772.7350462046942
 20
1468.9238253424837
 11
1772.7350462046942
 21
1648.9238253424837
  0
ARC
  8
_0-2_
  6
CONTINUOUS
 62
    4
 10
1762.7350462046942
 20
988.92382534248372
 40
20
 50
270
 51
0
  0
ARC
  8
_0-2_
  6
CONTINUOUS
 62
    4
 10
1637.7350462046942
 20
988.92382534248372
 40
20
 50
180
 51
270
  0
ARC
  8
_0-2_
  6
CONTINUOUS
 62
    4
 10
1762.5330051758271
 20
1208.9238253424837
 40
10
 50
0
 51
90.000000000000028
  0
LINE
  8
_0-2_
  6
CONTINUOUS
 62
    4
 10
1637.7350462046942
 20
1218.9238253424837
 11
1762.5330051758271
 21
1218.9238253424837
  0
ARC
  8
_0-2_
  6
CONTINUOUS
 62
    4
 10
1637.7350462046942
 20
1208.9238253424837
 40
10
 50
90
 51
180
  0
LINE
  8
_0-2_
  6
CONTINUOUS
 62
    4
 10
1627.7350462046942
 20
978.92382534248372
 11
1627.7350462046942
 21
1208.9238253424837
  0
ARC
  8
_0-2_
  6
CONTINUOUS
 62
    4
 10
1637.7350462046942
 20
978.92382534248372
 40
10
 50
180
 51
270
  0
LINE
  8
_0-2_
  6
CONTINUOUS
 62
    4
 10
1772.5330051758271
 20
978.92382534248372
 11
1772.5330051758271
 21
1208.9238253424837
  0
ARC
  8
_0-2_
  6
CONTINUOUS
 62
    4
 10
1762.5330051758271
 20
978.92382534248372
 40
10
 50
270
 51
0
  0
ARC
  8
_0-2_
  6
CONTINUOUS
 62
    4
 10
1635.6231123899578
 20
1411.9238253424837
 40
2
 50
90
 51
180
  0
LINE
  8
_0-2_
  6
CONTINUOUS
 62
    4
 10
1661.6231123899574
 20
1413.9238253424837
 11
1635.6231123899578
 21
1413.9238253424837
  0
ARC
  8
_0-2_
  6
CONTINUOUS
 62
    4
 10
1661.6231123899574
 20
1411.9238253424837
 40
2
 50
0
 51
90
  0
LINE
  8
_0-2_
  6
CONTINUOUS
 62
    4
 10
1663.6231123899576
 20
1285.9238253424837
 11
1663.6231123899576
 21
1411.9238253424837
  0
ARC
  8
_0-2_
  6
CONTINUOUS
 62
    4
 10
1661.6231123899574
 20
1285.9238253424837
 40
2
 50
270
 51
0
  0
LINE
  8
_0-2_
  6
CONTINUOUS
 62
    4
 10
1635.6231123899578
 20
1283.9238253424837
 11
1661.6231123899574
 21
1283.9238253424837
  0
LINE
  8
_0-2_
  6
CONTINUOUS
 62
    4
 10
1633.6231123899576
 20
1285.9238253424837
 11
1633.6231123899576
 21
1411.9238253424837
  0
ARC
  8
_0-2_
  6
CONTINUOUS
 62
    4
 10
1635.6231123899578
 20
1285.9238253424837
 40
2
 50
180
 51
270
  0
LINE
  8
_0-2_
  6
CONTINUOUS
 62
    4
 10
1654.1126996171303
 20
1319.3274569632917
 11
1644.1126996171303
 21
1319.3274569632917
  0
LINE
  8
_0-2_
  6
CONTINUOUS
 62
    4
 10
1654.1126996171303
 20
1306.3274569632917
 11
1644.1126996171303
 21
1306.3274569632917
  0
LINE
  8
_0-2_
  6
CONTINUOUS
 62
    4
 10
1654.1126996171303
 20
1317.3274569632917
 11
1644.1126996171303
 21
1317.3274569632917
  0
LINE
  8
_0-2_
  6
CONTINUOUS
 62
    4
 10
1654.1126996171303
 20
1308.3274569632919
 11
1644.1126996171303
 21
1308.3274569632919
  0
LINE
  8
_0-2_
  6
CONTINUOUS
 62
    4
 10
1654.1126996171303
 20
1319.3274569632917
 11
1654.1126996171303
 21
1317.3274569632917
  0
LINE
  8
_0-2_
  6
CONTINUOUS
 62
    4
 10
1644.1126996171303
 20
1319.3274569632917
 11
1644.1126996171303
 21
1317.3274569632917
  0
LINE
  8
_0-2_
  6
CONTINUOUS
 62
    4
 10
1654.1126996171303
 20
1308.3274569632919
 11
1654.1126996171303
 21
1306.3274569632917
  0
LINE
  8
_0-2_
  6
CONTINUOUS
 62
    4
 10
1644.1126996171303
 20
1306.3274569632917
 11
1644.1126996171303
 21
1308.3274569632919
  0
LINE
  8
_0-2_
  6
CONTINUOUS
 62
    4
 10
1659.1126996171303
 20
1327.8274569632917
 11
1659.1126996171303
 21
1297.8274569632917
  0
LINE
  8
_0-2_
  6
CONTINUOUS
 62
    4
 10
1639.1126996171303
 20
1327.8274569632917
 11
1639.1126996171303
 21
1297.8274569632917
  0
LINE
  8
_0-2_
  6
CONTINUOUS
 62
    4
 10
1659.1126996171303
 20
1327.8274569632917
 11
1639.1126996171303
 21
1327.8274569632917
  0
LINE
  8
_0-2_
  6
CONTINUOUS
 62
    4
 10
1659.1126996171303
 20
1297.8274569632917
 11
1639.1126996171303
 21
1297.8274569632917
  0
LINE
  8
_0-2_
  6
CONTINUOUS
 62
    4
 10
1656.6126996171303
 20
1397.8274569632917
 11
1656.6126996171303
 21
1357.8274569632917
  0
LINE
  8
_0-2_
  6
CONTINUOUS
 62
    4
 10
1655.6126996171303
 20
1396.8274569632919
 11
1655.6126996171303
 21
1358.8274569632917
  0
LINE
  8
_0-2_
  6
CONTINUOUS
 62
    4
 10
1656.6126996171303
 20
1397.8274569632917
 11
1641.6126996171303
 21
1397.8274569632917
  0
LINE
  8
_0-2_
  6
CONTINUOUS
 62
    4
 10
1655.6126996171303
 20
1396.8274569632919
 11
1642.6126996171301
 21
1396.8274569632919
  0
LINE
  8
_0-2_
  6
CONTINUOUS
 62
    4
 10
1656.6126996171303
 20
1357.8274569632917
 11
1641.6126996171303
 21
1357.8274569632917
  0
LINE
  8
_0-2_
  6
CONTINUOUS
 62
    4
 10
1655.6126996171303
 20
1358.8274569632917
 11
1642.6126996171301
 21
1358.8274569632917
  0
LINE
  8
_0-2_
  6
CONTINUOUS
 62
    4
 10
1641.6126996171303
 20
1397.8274569632917
 11
1641.6126996171303
 21
1357.8274569632917
  0
LINE
  8
_0-2_
  6
CONTINUOUS
 62
    4
 10
1642.6126996171301
 20
1396.8274569632919
 11
1642.6126996171301
 21
1358.8274569632917
  0
CIRCLE
  8
_0-2_
  6
CONTINUOUS
 62
    4
 10
1649.1744961526092
 20
1390.7337975037739
 40
2.5
  0
LINE
  8
_0-2_
  6
CONTINUOUS
 62
    4
 10
1642.6126996171301
 20
1377.8397397356254
 11
1655.6126996171303
 21
1377.8397397356254
  0
ARC
  8
_0-2_
  6
CONTINUOUS
 62
    4
 10
1645.1340256902608
 20
1188.9238253424837
 40
10
 50
90
 51
180
  0
LINE
  8
_0-2_
  6
CONTINUOUS
 62
    4
 10
1755.1340256902608
 20
1198.9238253424837
 11
1645.1340256902608
 21
1198.9238253424837
  0
ARC
  8
_0-2_
  6
CONTINUOUS
 62
    4
 10
1755.1340256902608
 20
1188.9238253424837
 40
10
 50
0
 51
90
  0
LINE
  8
_0-2_
  6
CONTINUOUS
 62
    4
 10
1635.1340256902608
 20
978.92382534248372
 11
1635.1340256902608
 21
1188.9238253424837
  0
ARC
  8
_0-2_
  6
CONTINUOUS
 62
    4
 10
1645.1340256902608
 20
978.92382534248372
 40
10
 50
180
 51
270
  0
LINE
  8
_0-2_
  6
CONTINUOUS
 62
    4
 10
1765.1340256902608
 20
978.92382534248372
 11
1765.1340256902608
 21
1188.9238253424837
  0
ARC
  8
_0-2_
  6
CONTINUOUS
 62
    4
 10
1755.1340256902608
 20
978.92382534248372
 40
10
 50
270
 51
0
  0
LINE
  8
_0-2_
  6
CONTINUOUS
 62
    4
 10
1644.5708768685974
 20
968.92382534248372
 11
1762.7350462046942
 21
968.92382534248372
  0
ARC
  8
_0-2_
  6
CONTINUOUS
 62
    4
 10
1644.5708768685974
 20
970.92382534248372
 40
2
 50
177.8401548719726
 51
270
  0
LINE
  8
_0-2_
  6
CONTINUOUS
 62
    4
 10
1755.697174511924
 20
968.92382534248372
 11
1637.7350462046942
 21
968.92382534248372
  0
ARC
  8
_0-2_
  6
CONTINUOUS
 62
    4
 10
1755.697174511924
 20
970.92382534248372
 40
2
 50
270
 51
2.1598451280274306
  0
LINE
  8
_0-2_
  6
CONTINUOUS
 62
    4
 10
1645.0614398528362
 20
1036.9992003056127
 11
1642.5722977195687
 21
970.99920030561281
  0
ARC
  8
_0-2_
  6
CONTINUOUS
 62
    4
 10
1647.0600190018651
 20
1036.9238253424837
 40
2
 50
90
 51
177.8401548719726
  0
LINE
  8
_0-2_
  6
CONTINUOUS
 62
    4
 10
1753.2080323786562
 20
1038.9238253424837
 11
1647.0600190018651
 21
1038.9238253424837
  0
LINE
  8
_0-2_
  6
CONTINUOUS
 62
    4
 10
1755.2066115276852
 20
1036.9992003056127
 11
1757.6957536609527
 21
970.99920030561281
  0
ARC
  8
_0-2_
  6
CONTINUOUS
 62
    4
 10
1753.2080323786562
 20
1036.9238253424837
 40
2
 50
2.1598451280273924
 51
90
  0
LINE
  8
_0-2_
  6
CONTINUOUS
 62
    4
 10
1649.2350462046942
 20
988.91223329805939
 11
1649.2350462046942
 21
968.91223329805939
  0
ARC
  8
_0-2_
  6
CONTINUOUS
 62
    4
 10
1650.2350462046942
 20
988.91223329805939
 40
1
 50
90
 51
180
  0
LINE
  8
_0-2_
  6
CONTINUOUS
 62
    4
 10
1750.2350462046942
 20
989.9122332980595
 11
1650.2350462046942
 21
989.9122332980595
  0
LINE
  8
_0-2_
  6
CONTINUOUS
 62
    4
 10
1751.2350462046942
 20
988.91223329805939
 11
1751.2350462046942
 21
968.91223329805939
  0
ARC
  8
_0-2_
  6
CONTINUOUS
 62
    4
 10
1750.2350462046942
 20
988.91223329805939
 40
1
 50
0
 51
90
  0
LINE
  8
_0-2_
  6
CONTINUOUS
 62
    4
 10
1645.2350462046942
 20
990.91223329805939
 11
1645.2350462046942
 21
968.91223329805939
  0
ARC
  8
_0-2_
  6
CONTINUOUS
 62
    4
 10
1648.2350462046942
 20
990.91223329805939
 40
3
 50
90
 51
180
  0
LINE
  8
_0-2_
  6
CONTINUOUS
 62
    4
 10
1752.2350462046942
 20
993.91223329805939
 11
1648.2350462046942
 21
993.91223329805939
  0
LINE
  8
_0-2_
  6
CONTINUOUS
 62
    4
 10
1755.2350462046942
 20
990.91223329805939
 11
1755.2350462046942
 21
968.91223329805939
  0
ARC
  8
_0-2_
  6
CONTINUOUS
 62
    4
 10
1752.2350462046942
 20
990.91223329805939
 40
3
 50
0
 51
90
  0
LINE
  8
_0-2_
  6
CONTINUOUS
 62
    4
 10
1649.2350462046942
 20
1258.9122332980593
 11
1649.2350462046942
 21
1238.9122332980593
  0
ARC
  8
_0-2_
  6
CONTINUOUS
 62
    4
 10
1650.2350462046942
 20
1258.9122332980593
 40
1
 50
90
 51
180
  0
LINE
  8
_0-2_
  6
CONTINUOUS
 62
    4
 10
1750.2350462046942
 20
1259.9122332980593
 11
1650.2350462046942
 21
1259.9122332980593
  0
LINE
  8
_0-2_
  6
CONTINUOUS
 62
    4
 10
1751.2350462046942
 20
1258.9122332980593
 11
1751.2350462046942
 21
1238.9122332980593
  0
ARC
  8
_0-2_
  6
CONTINUOUS
 62
    4
 10
1750.2350462046942
 20
1258.9122332980593
 40
1
 50
0
 51
90
  0
LINE
  8
_0-2_
  6
CONTINUOUS
 62
    4
 10
1645.2350462046942
 20
1260.9122332980593
 11
1645.2350462046942
 21
1238.9122332980593
  0
ARC
  8
_0-2_
  6
CONTINUOUS
 62
    4
 10
1648.2350462046942
 20
1260.9122332980593
 40
3
 50
90
 51
180
  0
LINE
  8
_0-2_
  6
CONTINUOUS
 62
    4
 10
1752.2350462046942
 20
1263.9122332980593
 11
1648.2350462046942
 21
1263.9122332980593
  0
LINE
  8
_0-2_
  6
CONTINUOUS
 62
    4
 10
1755.2350462046942
 20
1260.9122332980593
 11
1755.2350462046942
 21
1238.9122332980593
  0
ARC
  8
_0-2_
  6
CONTINUOUS
 62
    4
 10
1752.2350462046942
 20
1260.9122332980593
 40
3
 50
0
 51
90
  0
LINE
  8
_0-2_
  6
CONTINUOUS
 62
    4
 10
1649.2350462046942
 20
1478.9122332980593
 11
1649.2350462046942
 21
1458.9122332980593
  0
ARC
  8
_0-2_
  6
CONTINUOUS
 62
    4
 10
1650.2350462046942
 20
1478.9122332980593
 40
1
 50
90
 51
180
  0
LINE
  8
_0-2_
  6
CONTINUOUS
 62
    4
 10
1750.2350462046942
 20
1479.9122332980593
 11
1650.2350462046942
 21
1479.9122332980593
  0
ARC
  8
_0-2_
  6
CONTINUOUS
 62
    4
 10
1750.2350462046942
 20
1478.9122332980593
 40
1
 50
0
 51
90
  0
LINE
  8
_0-2_
  6
CONTINUOUS
 62
    4
 10
1645.2350462046942
 20
1480.9122332980596
 11
1645.2350462046942
 21
1458.9122332980593
  0
ARC
  8
_0-2_
  6
CONTINUOUS
 62
    4
 10
1648.2350462046942
 20
1480.9122332980596
 40
3
 50
90
 51
180
  0
LINE
  8
_0-2_
  6
CONTINUOUS
 62
    4
 10
1752.2350462046942
 20
1483.9122332980593
 11
1648.2350462046942
 21
1483.9122332980593
  0
LINE
  8
_0-2_
  6
CONTINUOUS
 62
    4
 10
1755.2350462046942
 20
1480.9122332980596
 11
1755.2350462046942
 21
1458.9122332980593
  0
ARC
  8
_0-2_
  6
CONTINUOUS
 62
    4
 10
1752.2350462046942
 20
1480.9122332980596
 40
3
 50
0
 51
90
  0
ARC
  8
_0-2_
  6
CONTINUOUS
 62
    4
 10
1697.7350462046942
 20
1408.9238253424837
 40
10
 50
90
 51
180
  0
LINE
  8
_0-2_
  6
CONTINUOUS
 62
    4
 10
1747.7350462046942
 20
1418.9238253424837
 11
1697.7350462046942
 21
1418.9238253424837
  0
ARC
  8
_0-2_
  6
CONTINUOUS
 62
    4
 10
1747.7350462046942
 20
1408.9238253424837
 40
10
 50
0
 51
90
  0
LINE
  8
_0-2_
  6
CONTINUOUS
 62
    4
 10
1757.7350462046942
 20
1248.9238253424837
 11
1757.7350462046942
 21
1408.9238253424837
  0
LINE
  8
_0-2_
  6
CONTINUOUS
 62
    4
 10
1697.7350462046942
 20
1238.9238253424837
 11
1747.7350462046942
 21
1238.9238253424837
  0
ARC
  8
_0-2_
  6
CONTINUOUS
 62
    4
 10
1697.7350462046942
 20
1248.9238253424837
 40
10
 50
180
 51
270
  0
ARC
  8
_0-2_
  6
CONTINUOUS
 62
    4
 10
1652.7350462046942
 20
1628.9238253424837
 40
10
 50
90
 51
180
  0
LINE
  8
_0-2_
  6
CONTINUOUS
 62
    4
 10
1747.7350462046942
 20
1638.9238253424837
 11
1652.7350462046942
 21
1638.9238253424837
  0
ARC
  8
_0-2_
  6
CONTINUOUS
 62
    4
 10
1747.7350462046942
 20
1628.9238253424837
 40
10
 50
0
 51
90
  0
LINE
  8
_0-2_
  6
CONTINUOUS
 62
    4
 10
1757.7350462046942
 20
1468.9238253424837
 11
1757.7350462046942
 21
1628.9238253424837
  0
LINE
  8
_0-2_
  6
CONTINUOUS
 62
    4
 10
1652.7350462046942
 20
1458.9238253424837
 11
1747.7350462046942
 21
1458.9238253424837
  0
LINE
  8
_0-2_
  6
CONTINUOUS
 62
    4
 10
1642.7350462046942
 20
1468.9238253424837
 11
1642.7350462046942
 21
1628.9238253424837
  0
ARC
  8
_0-2_
  6
CONTINUOUS
 62
    4
 10
1652.7350462046942
 20
1468.9238253424837
 40
10
 50
180
 51
221.40962210927082
  0
ARC
  8
_0-2_
  6
CONTINUOUS
 62
    4
 10
1747.7350462046942
 20
1468.9238253424837
 40
10
 50
318.59037789072908
 51
359.99999999999994
  0
ARC
  8
_0-2_
  6
CONTINUOUS
 62
    4
 10
1747.7350462046942
 20
1248.9238253424837
 40
10
 50
318.5903778907292
 51
0.000000000000019
  0
LINE
  8
_0-2_
  6
CONTINUOUS
 62
    4
 10
1687.7350462046942
 20
1248.9238253424837
 11
1687.7350462046942
 21
1259.9122332980593
  0
LINE
  8
_0-2_
  6
CONTINUOUS
 62
    4
 10
1687.7350462046942
 20
1263.9122332980593
 11
1687.7350462046942
 21
1408.9238253424837
  0
LINE
  8
_0-2_
  6
CONTINUOUS
 62
    4
 10
1672.7350462046942
 20
1248.9238253424837
 11
1672.7350462046942
 21
1259.9122332980593
  0
LINE
  8
_0-2_
  6
CONTINUOUS
 62
    4
 10
1672.7350462046942
 20
1263.9122332980593
 11
1672.7350462046942
 21
1428.9238253424837
  0
CIRCLE
  8
_0-2_
  6
CONTINUOUS
 62
    4
 10
1772.7350462046942
 20
823.92382534248372
 40
2.5
  0
CIRCLE
  8
_0-2_
  6
CONTINUOUS
 62
    4
 10
1312.7350462046942
 20
823.92382534248372
 40
2.5
  0
CIRCLE
  8
_0-2_
  6
CONTINUOUS
 62
    4
 10
1305.735046204694
 20
1765.9238253424837
 40
2.5
  0
CIRCLE
  8
_0-2_
  6
CONTINUOUS
 62
    4
 10
1779.7350462046942
 20
1765.9238253424837
 40
2.5
  0
LINE
  8
_0-2_
  6
DASHED2
 62
    4
 10
2799.9916169880521
 20
1426.5663975916286
 11
2770.9040793825797
 21
1431.1113253424837
  0
ARC
  8
_0-2_
  6
CONTINUOUS
 62
    4
 10
2796.9040793825797
 20
1406.8061569166068
 40
20
 50
0
 51
81.11934084947974
  0
LINE
  8
_0-2_
  6
DASHED2
 62
    4
 10
2799.9916169880521
 20
1206.5663975916286
 11
2770.9040793825797
 21
1211.1113253424837
  0
ARC
  8
_0-2_
  6
CONTINUOUS
 62
    4
 10
2796.9040793825797
 20
1186.8061569166065
 40
20
 50
0
 51
81.11934084947974
  0
LINE
  8
_0-2_
  6
CONTINUOUS
 62
    4
 10
2816.9040793825797
 20
916.80615691660659
 11
2816.9040793825797
 21
761.42382534248372
  0
ARC
  8
_0-2_
  6
CONTINUOUS
 62
    4
 10
2796.9040793825797
 20
916.80615691660659
 40
20
 50
0
 51
81.11934084947974
  0
LINE
  8
_0-2_
  6
DASHED2
 62
    4
 10
2804.8786016108688
 20
1649.1522939388798
 11
2770.9040793825797
 21
1663.9238253424837
  0
ARC
  8
_0-2_
  6
DASHED2
 62
    4
 10
2796.9040793825797
 20
1630.8108928138151
 40
20
 50
0
 51
66.501434324047892
  0
LINE
  8
_0-2_
  6
DASHED2
 62
    4
 10
2816.9040793825797
 20
988.92382534248372
 11
2816.9040793825797
 21
1186.8061569166065
  0
ARC
  8
_0-2_
  6
DASHED2
 62
    4
 10
2796.9040793825797
 20
988.92382534248372
 40
20
 50
270
 51
0
  0
LINE
  8
_0-2_
  6
DASHED2
 62
    4
 10
2816.9040793825797
 20
1258.9238253424837
 11
2816.9040793825797
 21
1406.8061569166068
  0
ARC
  8
_0-2_
  6
DASHED2
 62
    4
 10
2796.9040793825797
 20
1258.9238253424837
 40
20
 50
270
 51
0
  0
LINE
  8
_0-2_
  6
DASHED2
 62
    4
 10
2816.9040793825797
 20
1478.9238253424837
 11
2816.9040793825797
 21
1630.8108928138151
  0
ARC
  8
_0-2_
  6
DASHED2
 62
    4
 10
2796.9040793825797
 20
1478.9238253424837
 40
20
 50
270
 51
0
  0
LINE
  8
_0-2_
  6
DASHED2
 62
    4
 10
2770.9040793825797
 20
968.92382534248372
 11
2796.9040793825797
 21
968.92382534248372
  0
LINE
  8
_0-2_
  6
DASHED2
 62
    4
 10
2770.9040793825797
 20
1238.9238253424837
 11
2796.9040793825797
 21
1238.9238253424837
  0
LINE
  8
_0-2_
  6
DASHED2
 62
    4
 10
2770.9040793825797
 20
1458.9238253424837
 11
2796.9040793825797
 21
1458.9238253424837
  0
LINE
  8
_0-2_
  6
CONTINUOUS
 62
    4
 10
2750.4534259935244
 20
1752.0002559497684
 11
2770.9040793825797
 21
1675.9238253424837
  0
ARC
  8
_0-2_
  6
CONTINUOUS
 62
    4
 10
2755.9040793825797
 20
983.92382534248372
 40
15
 50
270
 51
0
  0
LINE
  8
_0-2_
  6
CONTINUOUS
 62
    4
 10
2770.9040793825797
 20
983.92382534248372
 11
2770.9040793825797
 21
941.11132534248372
  0
LINE
  8
_0-2_
  6
CONTINUOUS
 62
    4
 10
2755.9040793825797
 20
968.92382534248372
 11
2770.9040793825797
 21
968.92382534248372
  0
ARC
  8
_0-2_
  6
CONTINUOUS
 62
    4
 10
2755.9040793825797
 20
1253.9238253424837
 40
15
 50
270
 51
0
  0
LINE
  8
_0-2_
  6
CONTINUOUS
 62
    4
 10
2755.9040793825797
 20
1238.9238253424837
 11
2770.9040793825797
 21
1238.9238253424837
  0
LINE
  8
_0-2_
  6
CONTINUOUS
 62
    4
 10
2770.9040793825797
 20
1253.9238253424837
 11
2770.9040793825797
 21
983.92382534248372
  0
LINE
  8
_0-2_
  6
CONTINUOUS
 62
    4
 10
2770.9040793825797
 20
1473.9238253424837
 11
2770.9040793825797
 21
1675.9238253424837
  0
ARC
  8
_0-2_
  6
CONTINUOUS
 62
    4
 10
2755.9040793825797
 20
1473.9238253424837
 40
15
 50
270
 51
0
  0
LINE
  8
_0-2_
  6
CONTINUOUS
 62
    4
 10
2755.9040793825797
 20
1458.9238253424837
 11
2770.9040793825797
 21
1458.9238253424837
  0
LINE
  8
_0-2_
  6
CONTINUOUS
 62
    4
 10
2770.9040793825797
 20
1473.9238253424837
 11
2770.9040793825797
 21
1253.9238253424837
  0
LINE
  8
_0-2_
  6
CONTINUOUS
 62
    4
 10
2745.9040793825797
 20
1764.5662439657248
 11
2750.4534259935244
 21
1752.0002559497684
  0
ARC
  8
_0-2_
  6
CONTINUOUS
 62
    4
 10
2755.9040793825797
 20
1764.5662439657248
 40
10
 50
101.84111767364123
 51
179.9999999999998
  0
LINE
  8
_0-2_
  6
CONTINUOUS
 62
    4
 10
2835.0873195061049
 20
926.42382534248372
 11
2840.9040793825797
 21
926.42382534248372
  0
ARC
  8
_0-2_
  6
CONTINUOUS
 62
    4
 10
2835.0873195061049
 20
924.42382534248372
 40
2
 50
90
 51
180
  0
LINE
  8
_0-2_
  6
CONTINUOUS
 62
    4
 10
2833.0873195061039
 20
923.42382534248372
 11
2833.0873195061039
 21
924.42382534248372
  0
LINE
  8
_0-2_
  6
CONTINUOUS
 62
    4
 10
2835.0873195061049
 20
921.42382534248372
 11
2840.9040793825797
 21
921.42382534248372
  0
ARC
  8
_0-2_
  6
CONTINUOUS
 62
    4
 10
2835.0873195061049
 20
923.42382534248372
 40
2
 50
180
 51
270
  0
LINE
  8
_0-2_
  6
CONTINUOUS
 62
    4
 10
1297.5854502309766
 20
2254.1893916464318
 11
1292.7350462046942
 21
2346.3470681458002
  0
ARC
  8
_0-2_
  6
CONTINUOUS
 62
    4
 10
1300.5813037189745
 20
2254.3470681458002
 40
3
 50
183.01278750418339
 51
270
  0
LINE
  8
_0-2_
  6
CONTINUOUS
 62
    4
 10
1784.8887886904142
 20
2251.3470681458002
 11
1300.5813037189745
 21
2251.3470681458002
  0
LINE
  8
_0-2_
  6
CONTINUOUS
 62
    4
 10
1787.8846421784119
 20
2254.1893916464318
 11
1792.7350462046942
 21
2346.3470681458002
  0
ARC
  8
_0-2_
  6
CONTINUOUS
 62
    4
 10
1784.8887886904142
 20
2254.3470681458002
 40
3
 50
270
 51
356.98721249581666
  0
CIRCLE
  8
_0-2_
  6
CONTINUOUS
 62
    4
 10
2715.9040793825797
 20
1713.9238253424837
 40
35
  0
LINE
  8
_0-2_
  6
CONTINUOUS
 62
    4
 10
2754.2185494915756
 20
1738.0719709997104
 11
2743.6616358308924
 21
1735.2432545097649
  0
LINE
  8
_0-2_
  6
CONTINUOUS
 62
    4
 10
2760.6890256191391
 20
1713.9238253424837
 11
2750.8037076725481
 21
1711.2750623817696
  0
ARC
  8
_0-2_
  6
CONTINUOUS
 62
    4
 10
1682.7350462046942
 20
2221.3470681458002
 40
35
 50
121.00271913387393
 51
58.997280866126004
  0
ARC
  8
_0-2_
  6
CONTINUOUS
 62
    4
 10
1402.7350462046942
 20
2221.3470681458002
 40
35
 50
121.00271913387403
 51
58.997280866125947
  0
LINE
  8
_0-2_
  6
CONTINUOUS
 62
    7
 10
1810.6347300076904
 20
657.83322978913463
 11
1815.9156974249967
 21
657.83322978913463
  0
ARC
  8
_0-2_
  6
CONTINUOUS
 62
    7
 10
1810.6347300076904
 20
656.83322978913463
 40
1
 50
90
 51
180
  0
LINE
  8
_0-2_
  6
CONTINUOUS
 62
    7
 10
1809.6347300076904
 20
655.19702347424743
 11
1809.6347300076904
 21
656.83322978913463
  0
LINE
  8
_0-2_
  6
CONTINUOUS
 62
    7
 10
1810.6347300076904
 20
654.19702347424743
 11
1815.9156974249967
 21
654.19702347424743
  0
ARC
  8
_0-2_
  6
CONTINUOUS
 62
    7
 10
1810.6347300076904
 20
655.19702347424743
 40
1
 50
180
 51
270
  0
LINE
  8
_0-2_
  6
CONTINUOUS
 62
    7
 10
1815.9156974249967
 20
667.7785513941144
 11
1815.9156974249967
 21
654.7270262005602
  0
ARC
  8
_0-2_
  6
CONTINUOUS
 62
    7
 10
1816.4156974249965
 20
667.7785513941144
 40
0.5
 50
90
 51
180
  0
LINE
  8
_0-2_
  6
CONTINUOUS
 62
    7
 10
1826.7086350862916
 20
668.2785513941144
 11
1816.4156974249965
 21
668.2785513941144
  0
LINE
  8
_0-2_
  6
CONTINUOUS
 62
    7
 10
1827.2086350862919
 20
667.7785513941144
 11
1827.2086350862919
 21
654.7270262005602
  0
ARC
  8
_0-2_
  6
CONTINUOUS
 62
    7
 10
1826.7086350862916
 20
667.7785513941144
 40
0.5
 50
0
 51
90.000000000000028
  0
LINE
  8
_0-2_
  6
CONTINUOUS
 62
    7
 10
1815.9156974249967
 20
650.10960666684263
 11
1815.9156974249967
 21
654.7270262005602
  0
ARC
  8
_0-2_
  6
CONTINUOUS
 62
    7
 10
1816.4156974249965
 20
650.10960666684263
 40
0.5
 50
180
 51
270
  0
LINE
  8
_0-2_
  6
CONTINUOUS
 62
    7
 10
1826.7086350862916
 20
649.60960666684275
 11
1816.4156974249965
 21
649.60960666684275
  0
LINE
  8
_0-2_
  6
CONTINUOUS
 62
    7
 10
1827.2086350862919
 20
650.10960666684263
 11
1827.2086350862919
 21
654.7270262005602
  0
ARC
  8
_0-2_
  6
CONTINUOUS
 62
    7
 10
1826.7086350862916
 20
650.10960666684263
 40
0.5
 50
270
 51
0
  0
LINE
  8
_0-2_
  6
CONTINUOUS
 62
    7
 10
1819.2514001335312
 20
916.50124795639726
 11
1819.2514001335312
 21
859.25964434463833
  0
ARC
  8
_0-2_
  6
CONTINUOUS
 62
    7
 10
1814.2514001335312
 20
916.50124795639726
 40
5
 50
0
 51
90.000000000000028
  0
LINE
  8
_0-2_
  6
CONTINUOUS
 62
    7
 10
1823.7238506924597
 20
918.34640272857018
 11
1823.7238506924597
 21
860.00505277112654
  0
ARC
  8
_0-2_
  6
CONTINUOUS
 62
    7
 10
1815.72385069246
 20
918.34640272857018
 40
8
 50
0
 51
90.000000000000028
  0
LINE
  8
_0-2_
  6
CONTINUOUS
 62
    7
 10
1815.72385069246
 20
926.34640272857018
 11
1792.7350462046942
 21
926.34640272857018
  0
LINE
  8
_0-2_
  6
CONTINUOUS
 62
    7
 10
1814.2514001335312
 20
921.50124795639726
 11
1792.7350462046942
 21
921.50124795639726
  0
LINE
  8
_0-2_
  6
CONTINUOUS
 62
    7
 10
1811.0252287545249
 20
822.54164000457831
 11
1835.8192465274892
 21
814.84694483365854
  0
LINE
  8
_0-2_
  6
CONTINUOUS
 62
    7
 10
1809.5432326801631
 20
817.76631932052214
 11
1834.3372504531268
 21
810.07162414960237
  0
LINE
  8
_0-2_
  6
CONTINUOUS
 62
    7
 10
1819.2514001335312
 20
859.25964434463833
 11
1819.2514001335312
 21
819.98869026626618
  0
LINE
  8
_0-2_
  6
CONTINUOUS
 62
    7
 10
1819.2514001335312
 20
814.75343976602857
 11
1819.2514001335312
 21
668.2785513941144
  0
LINE
  8
_0-2_
  6
CONTINUOUS
 62
    7
 10
1823.7238506924597
 20
860.00505277112654
 11
1823.7238506924597
 21
818.60068836866753
  0
LINE
  8
_0-2_
  6
CONTINUOUS
 62
    7
 10
1823.7238506924597
 20
813.36543786842992
 11
1823.7238506924597
 21
668.2785513941144
  0
LINE
  8
_0-2_
  6
CONTINUOUS
 62
    4
 10
1316.7350462046942
 20
823.92382534248372
 11
1308.7350462046942
 21
823.92382534248372
  0
LINE
  8
_0-2_
  6
CONTINUOUS
 62
    4
 10
1776.7350462046942
 20
823.92382534248372
 11
1768.7350462046942
 21
823.92382534248372
  0
LINE
  8
_0-2_
  6
CONTINUOUS
 62
    4
 10
1312.7350462046942
 20
819.92382534248361
 11
1312.7350462046942
 21
827.92382534248372
  0
LINE
  8
_0-2_
  6
CONTINUOUS
 62
    4
 10
1772.7350462046942
 20
819.92382534248361
 11
1772.7350462046942
 21
827.92382534248372
  0
LINE
  8
_0-2_
  6
CONTINUOUS
 62
    4
 10
1309.7350462046942
 20
1765.9238253424837
 11
1301.7350462046942
 21
1765.9238253424837
  0
LINE
  8
_0-2_
  6
CONTINUOUS
 62
    4
 10
1783.7350462046942
 20
1765.9238253424837
 11
1775.7350462046942
 21
1765.9238253424837
  0
LINE
  8
_0-2_
  6
CONTINUOUS
 62
    4
 10
1779.7350462046942
 20
1769.9238253424837
 11
1779.7350462046942
 21
1763.4238253424837
  0
LINE
  8
_0-2_
  6
CONTINUOUS
 62
    4
 10
1305.735046204694
 20
1769.9238253424837
 11
1305.735046204694
 21
1761.9238253424837
  0
CIRCLE
  8
_0-8_
  6
CONTINUOUS
 62
    4
 10
1621.9284789984931
 20
828.29882534248372
 40
25
  0
CIRCLE
  8
_0-8_
  6
CONTINUOUS
 62
    4
 10
1898.0584420356583
 20
616.10052058087057
 40
25
  0
TEXT
  8
_0-8_
 62
    7
 10
1883.0584420356583
 20
598.60052058087057
 40
35
 41
0.857142857142857
 50
0
  1
７
  0
TEXT
  8
_0-8_
 62
    7
 10
1606.9284789984931
 20
810.79882534248372
 40
35
 41
0.857142857142857
 50
0
  1
１
  0
LINE
  8
_0-8_
  6
CONTINUOUS
 62
    4
 10
1878.3763648249293
 20
631.5153133680252
 11
1823.7238506924597
 21
674.31857908175913
  0
LINE
  8
_0-8_
  6
CONTINUOUS
 62
    4
 10
1823.7238506924597
 20
674.31857908175913
 11
1842.1247056064462
 21
666.48221905720549
  0
LINE
  8
_0-8_
  6
CONTINUOUS
 62
    4
 10
1823.7238506924597
 20
674.31857908175913
 11
1835.7412784870471
 21
658.33166477030158
  0
LINE
  8
_0-8_
  6
CONTINUOUS
 62
    4
 10
1312.7350462046942
 20
823.92382534248372
 11
1217.4722517884058
 21
658.92382534248372
  0
LINE
  8
_0-8_
  6
CONTINUOUS
 62
    4
 10
1217.4722517884058
 20
658.92382534248372
 11
933.3506570074619
 21
658.92382534248372
  0
LINE
  8
_0-8_
  6
CONTINUOUS
 62
    4
 10
1312.7350462046942
 20
823.92382534248372
 11
1307.5586653026437
 21
804.6053088167024
  0
LINE
  8
_0-8_
  6
CONTINUOUS
 62
    4
 10
1312.7350462046942
 20
823.92382534248372
 11
1298.5929105809632
 21
809.78168971875277
  0
TEXT
  8
_0-8_
 62
    7
 10
998.20314381556181
 20
668.80467951406581
 40
30
 41
0.6666666666666666
 50
0
  1
４－φ５貫通穴
  0
CIRCLE
  8
_0-8_
  6
CONTINUOUS
 62
    4
 10
1460.0783911766761
 20
1371.7403983353151
 40
25
  0
TEXT
  8
_0-8_
 62
    7
 10
1445.0783911766761
 20
1354.2403983353151
 40
35
 41
0.857142857142857
 50
0
  1
２
  0
POINT
  8
_0-9_
 62
    4
 10
1292.7350462046942
 20
2446.3470681458002
  0
POINT
  8
_0-9_
 62
    4
 10
1792.7350462046942
 20
2446.3470681458002
  0
LINE
  8
_0-9_
  6
CONTINUOUS
 62
    4
 10
1292.7350462046942
 20
2456.3470681458002
 11
1292.7350462046942
 21
2366.3470681458002
  0
LINE
  8
_0-9_
  6
CONTINUOUS
 62
    4
 10
1792.7350462046942
 20
2456.3470681458002
 11
1792.7350462046942
 21
2366.3470681458002
  0
TEXT
  8
_0-9_
 62
    7
 10
1580.4373526999875
 20
2464.2463792078392
 40
15
 41
1.3333333333333332
 50
0
  1
＋
  0
TEXT
  8
_0-9_
 62
    7
 10
1580.1768166404917
 20
2450.9717711513371
 40
15
 41
1.3333333333333332
 50
0
  1
－
  0
TEXT
  8
_0-9_
 62
    7
 10
1604.9147754149068
 20
2454.6819593638883
 40
25
 41
0.8
 50
0
  1
３
  0
POINT
  8
_0-9_
 62
    4
 10
1892.7350462046942
 20
2346.3470681458002
  0
POINT
  8
_0-9_
 62
    4
 10
1892.7350462046942
 20
2251.3470681458002
  0
LINE
  8
_0-9_
  6
CONTINUOUS
 62
    4
 10
1902.7350462046942
 20
2346.3470681458002
 11
1812.7350462046942
 21
2346.3470681458002
  0
LINE
  8
_0-9_
  6
CONTINUOUS
 62
    4
 10
1902.7350462046942
 20
2251.3470681458002
 11
1812.7350462046942
 21
2251.3470681458002
  0
POINT
  8
_0-9_
 62
    4
 10
1892.7350462046942
 20
2186.3470681458002
  0
LINE
  8
_0-9_
  6
CONTINUOUS
 62
    4
 10
1902.7350462046942
 20
2186.3470681458002
 11
1812.7350462046942
 21
2186.3470681458002
  0
POINT
  8
_0-9_
 62
    4
 10
1892.7350462046942
 20
1778.9238253424837
  0
POINT
  8
_0-9_
 62
    4
 10
1892.7350462046942
 20
1638.9238253424837
  0
LINE
  8
_0-9_
  6
CONTINUOUS
 62
    4
 10
1902.7350462046942
 20
1778.9238253424837
 11
1812.7350462046942
 21
1778.9238253424837
  0
LINE
  8
_0-9_
  6
CONTINUOUS
 62
    4
 10
1902.7350462046942
 20
1638.9238253424837
 11
1812.7350462046942
 21
1638.9238253424837
  0
ARC
  8
_0-2_
  6
CONTINUOUS
 62
    4
 10
1338.7350462046942
 20
1637.9238253424837
 40
1
 50
90
 51
180
  0
LINE
  8
_0-2_
  6
CONTINUOUS
 62
    4
 10
1586.7350462046942
 20
1638.9238253424837
 11
1338.7350462046942
 21
1638.9238253424837
  0
ARC
  8
_0-2_
  6
CONTINUOUS
 62
    4
 10
1586.7350462046942
 20
1637.9238253424837
 40
1
 50
0
 51
90
  0
ARC
  8
_0-2_
  6
CONTINUOUS
 62
    4
 10
1338.7350462046942
 20
1079.9238253424837
 40
1
 50
180
 51
270
  0
LINE
  8
_0-2_
  6
CONTINUOUS
 62
    4
 10
1586.7350462046942
 20
1078.9238253424837
 11
1338.7350462046942
 21
1078.9238253424837
  0
ARC
  8
_0-2_
  6
CONTINUOUS
 62
    4
 10
1586.7350462046942
 20
1079.9238253424837
 40
1
 50
270
 51
0
  0
LINE
  8
_0-2_
  6
CONTINUOUS
 62
    4
 10
1433.9828975470334
 20
1584.6044699288254
 11
1412.1329195667267
 21
1503.0592419620579
  0
LINE
  8
_0-2_
  6
CONTINUOUS
 62
    4
 10
1398.0811744163531
 20
1450.6174151258551
 11
1382.4618717176981
 21
1392.3253838756763
  0
LINE
  8
_0-2_
  6
CONTINUOUS
 62
    4
 10
1420.0787733359732
 20
1598.5085941398856
 11
1407.2141148662053
 21
1550.4970351086894
  0
LINE
  8
_0-2_
  6
CONTINUOUS
 62
    4
 10
1401.3015185019667
 20
1528.430925072706
 11
1382.2997726759404
 21
1457.5154442174662
  0
LINE
  8
_0-2_
  6
CONTINUOUS
 62
    4
 10
1402.4574092074408
 20
1466.9497457120448
 11
1398.0811744163531
 21
1450.6174151258551
  0
LINE
  8
_0-2_
  6
CONTINUOUS
 62
    4
 10
1537.1598536024987
 20
1286.9786351534455
 11
1515.3098756221913
 21
1205.4334071866783
  0
LINE
  8
_0-2_
  6
CONTINUOUS
 62
    4
 10
1501.2581304718178
 20
1152.9915803504752
 11
1485.6388277731628
 21
1094.6995491002967
  0
LINE
  8
_0-2_
  6
CONTINUOUS
 62
    4
 10
1523.2557293914385
 20
1300.882759364506
 11
1510.39107092167
 21
1252.8712003333093
  0
LINE
  8
_0-2_
  6
CONTINUOUS
 62
    4
 10
1504.478474557432
 20
1230.8050902973261
 11
1485.4767287314057
 21
1159.8896094420863
  0
LINE
  8
_0-2_
  6
CONTINUOUS
 62
    4
 10
1505.6343652629057
 20
1169.323910936665
 11
1501.2581304718178
 21
1152.9915803504752
  0
LINE
  8
_0-2_
  6
CONTINUOUS
 62
    4
 10
1337.7350462046942
 20
943.92382534248372
 11
1337.7350462046942
 21
1637.9238253424837
  0
LINE
  8
_0-2_
  6
CONTINUOUS
 62
    4
 10
1587.7350462046942
 20
943.92382534248372
 11
1587.7350462046942
 21
1637.9238253424837
  0
POINT
  8
_0-9_
 62
    4
 10
1892.7350462046942
 20
1638.9238253424837
  0
POINT
  8
_0-9_
 62
    4
 10
1892.7350462046942
 20
1078.9238253424837
  0
LINE
  8
_0-9_
  6
CONTINUOUS
 62
    4
 10
1902.7350462046942
 20
1638.9238253424837
 11
1812.7350462046942
 21
1638.9238253424837
  0
LINE
  8
_0-9_
  6
CONTINUOUS
 62
    4
 10
1902.7350462046942
 20
1078.9238253424837
 11
1812.7350462046942
 21
1078.9238253424837
  0
POINT
  8
_0-9_
 62
    4
 10
1892.7350462046942
 20
758.92382534248372
  0
LINE
  8
_0-9_
  6
CONTINUOUS
 62
    4
 10
1902.7350462046942
 20
758.92382534248372
 11
1812.7350462046942
 21
758.92382534248372
  0
CIRCLE
  8
_0-8_
  6
CONTINUOUS
 62
    4
 10
1840.4512771083759
 20
1495.7447807151154
 40
25
  0
CIRCLE
  8
_0-8_
  6
CONTINUOUS
 62
    4
 10
1840.4512771083759
 20
1435.6825445845051
 40
25
  0
TEXT
  8
_0-8_
 62
    7
 10
1825.4512771083759
 20
1478.2447807151154
 40
35
 41
0.857142857142857
 50
0
  1
４
  0
TEXT
  8
_0-8_
 62
    7
 10
1825.4512771083759
 20
1418.1825445845051
 40
35
 41
0.857142857142857
 50
0
  1
５
  0
LINE
  8
_0-8_
  6
CONTINUOUS
 62
    4
 10
1652.9651772580486
 20
1379.5616899966207
 11
1666.6596703112427
 21
1394.137727181536
  0
LINE
  8
_0-8_
  6
CONTINUOUS
 62
    4
 10
1652.9651772580486
 20
1379.5616899966207
 11
1672.1129747265217
 21
1385.3376619586672
  0
LINE
  8
_0-8_
  6
CONTINUOUS
 62
    4
 10
1655.5764140437111
 20
1311.6695335694018
 11
1668.7361500385741
 21
1326.7301228190128
  0
LINE
  8
_0-8_
  6
CONTINUOUS
 62
    4
 10
1655.5764140437111
 20
1311.6695335694018
 11
1674.5033743471644
 21
1318.1325184580962
  0
LINE
  8
_0-8_
  6
CONTINUOUS
 62
    4
 10
1819.6896568673137
 20
1421.7557673203309
 11
1655.5764140437111
 21
1311.6695335694018
  0
LINE
  8
_0-8_
  6
CONTINUOUS
 62
    4
 10
1819.2007514288825
 20
1482.5760617817797
 11
1652.9651772580486
 21
1379.5616899966207
  0
CIRCLE
  8
_0-8_
  6
CONTINUOUS
 62
    4
 10
1840.4512771083759
 20
1140.5236028537456
 40
25
  0
TEXT
  8
_0-8_
 62
    7
 10
1825.4512771083759
 20
1123.0236028537456
 40
35
 41
0.857142857142857
 50
0
  1
８
  0
LINE
  8
_0-8_
  6
CONTINUOUS
 62
    4
 10
1726.9842449464922
 20
1013.4374554102259
 11
1735.9892097061183
 21
1031.2955238857887
  0
LINE
  8
_0-8_
  6
CONTINUOUS
 62
    4
 10
1726.9842449464922
 20
1013.4374554102259
 11
1743.7118074262934
 21
1024.4005139927726
  0
LINE
  8
_0-8_
  6
CONTINUOUS
 62
    4
 10
1823.8011067879178
 20
1121.8749613938498
 11
1726.9842449464922
 21
1013.4374554102259
  0
CIRCLE
  8
_0-8_
  6
CONTINUOUS
 62
    4
 10
1840.3568185414719
 20
1570.8865906764842
 40
25
  0
TEXT
  8
_0-8_
 62
    7
 10
1825.3568185414719
 20
1553.3865906764842
 40
35
 41
0.857142857142857
 50
0
  1
３
  0
LINE
  8
_0-8_
  6
CONTINUOUS
 62
    4
 10
1734.9218010168519
 20
1481.4944891139448
 11
1746.3095048268248
 21
1497.9359063866841
  0
LINE
  8
_0-8_
  6
CONTINUOUS
 62
    4
 10
1734.9218010168519
 20
1481.4944891139448
 11
1753.004550443431
 21
1490.0393222413706
  0
LINE
  8
_0-8_
  6
CONTINUOUS
 62
    4
 10
1821.2880321279146
 20
1554.7192970033261
 11
1734.9218010168519
 21
1481.4944891139448
  0
POINT
  8
_0-9_
 62
    4
 10
1792.7350462046942
 20
1878.9238253424837
  0
POINT
  8
_0-9_
 62
    4
 10
1779.7350462046942
 20
1878.9238253424837
  0
LINE
  8
_0-9_
  6
CONTINUOUS
 62
    4
 10
1792.7350462046942
 20
1888.9238253424837
 11
1792.7350462046942
 21
1798.9238253424837
  0
LINE
  8
_0-9_
  6
CONTINUOUS
 62
    4
 10
1779.7350462046942
 20
1888.9238253424837
 11
1779.7350462046942
 21
1798.9238253424837
  0
POINT
  8
_0-9_
 62
    4
 10
1305.735046204694
 20
1878.9238253424837
  0
LINE
  8
_0-9_
  6
CONTINUOUS
 62
    4
 10
1305.735046204694
 20
1888.9238253424837
 11
1305.735046204694
 21
1798.9238253424837
  0
POINT
  8
_0-9_
 62
    4
 10
1292.7350462046942
 20
1878.9238253424837
  0
LINE
  8
_0-9_
  6
CONTINUOUS
 62
    4
 10
1292.7350462046942
 20
1888.9238253424837
 11
1292.7350462046942
 21
1798.9238253424837
  0
POINT
  8
_0-9_
 62
    4
 10
1792.7350462046942
 20
1958.9238253424837
  0
POINT
  8
_0-9_
 62
    4
 10
1682.7350462046942
 20
1958.9238253424837
  0
LINE
  8
_0-9_
  6
CONTINUOUS
 62
    4
 10
1792.7350462046942
 20
1968.9238253424837
 11
1792.7350462046942
 21
1878.9238253424837
  0
POINT
  8
_0-9_
 62
    4
 10
1402.7350462046942
 20
1958.9238253424837
  0
POINT
  8
_0-9_
 62
    4
 10
1292.7350462046942
 20
1958.9238253424837
  0
LINE
  8
_0-9_
  6
CONTINUOUS
 62
    4
 10
1292.7350462046942
 20
1968.9238253424837
 11
1292.7350462046942
 21
1878.9238253424837
  0
LINE
  8
_0-9_
  6
CONTINUOUS
 62
    4
 10
1792.7350462046942
 20
1878.9238253424837
 11
1852.7350462046942
 21
1878.9238253424837
  0
LINE
  8
_0-9_
  6
CONTINUOUS
 62
    4
 10
1292.7350462046942
 20
1878.9238253424837
 11
1232.7350462046942
 21
1878.9238253424837
  0
LINE
  8
_0-9_
  6
CONTINUOUS
 62
    4
 10
1402.7350462046942
 20
1968.9238253424837
 11
1402.7350462046942
 21
1888.9238253424837
  0
LINE
  8
_0-9_
  6
CONTINUOUS
 62
    4
 10
1682.7350462046942
 20
1968.9238253424837
 11
1682.7350462046942
 21
1888.9238253424837
  0
CIRCLE
  8
_0-8_
  6
CONTINUOUS
 62
    4
 10
1486.0074429714859
 20
1833.026248513674
 40
25
  0
TEXT
  8
_0-8_
 62
    7
 10
1471.0074429714859
 20
1815.526248513674
 40
35
 41
0.857142857142857
 50
0
  1
６
  0
LINE
  8
_0-8_
  6
CONTINUOUS
 62
    4
 10
1471.682351156543
 20
1812.5374285258499
 11
1422.7901747456139
 21
1742.6081733254375
  0
LINE
  8
_0-8_
  6
CONTINUOUS
 62
    4
 10
1422.7901747456139
 20
1742.6081733254375
 11
1429.617438204405
 21
1761.4068028942185
  0
LINE
  8
_0-8_
  6
CONTINUOUS
 62
    4
 10
1422.7901747456139
 20
1742.6081733254375
 11
1438.1020731236469
 21
1755.4746323589395
  0
POINT
  8
_0-9_
 62
    4
 10
1192.7350462046942
 20
1778.9238253424837
  0
POINT
  8
_0-9_
 62
    4
 10
1192.7350462046942
 20
1765.9238253424837
  0
LINE
  8
_0-9_
  6
CONTINUOUS
 62
    4
 10
1182.7350462046942
 20
1778.9238253424837
 11
1272.7350462046942
 21
1778.9238253424837
  0
LINE
  8
_0-9_
  6
CONTINUOUS
 62
    4
 10
1182.7350462046942
 20
1765.9238253424837
 11
1272.7350462046942
 21
1765.9238253424837
  0
POINT
  8
_0-9_
 62
    4
 10
1192.7350462046942
 20
823.92382534248372
  0
LINE
  8
_0-9_
  6
CONTINUOUS
 62
    4
 10
1182.7350462046942
 20
823.92382534248372
 11
1272.7350462046942
 21
823.92382534248372
  0
POINT
  8
_0-9_
 62
    4
 10
1192.7350462046942
 20
758.92382534248372
  0
LINE
  8
_0-9_
  6
CONTINUOUS
 62
    4
 10
1182.7350462046942
 20
758.92382534248372
 11
1272.7350462046942
 21
758.92382534248372
  0
POINT
  8
_0-9_
 62
    4
 10
1112.7350462046942
 20
758.92382534248372
  0
POINT
  8
_0-9_
 62
    4
 10
1112.7350462046942
 20
1713.9238253424837
  0
LINE
  8
_0-9_
  6
CONTINUOUS
 62
    4
 10
1102.7350462046942
 20
758.92382534248372
 11
1192.7350462046942
 21
758.92382534248372
  0
LINE
  8
_0-9_
  6
CONTINUOUS
 62
    4
 10
1102.7350462046942
 20
1713.9238253424837
 11
1192.7350462046942
 21
1713.9238253424837
  0
POINT
  8
_0-9_
 62
    4
 10
1112.7350462046942
 20
1778.9238253424837
  0
LINE
  8
_0-9_
  6
CONTINUOUS
 62
    4
 10
1102.7350462046942
 20
1778.9238253424837
 11
1192.7350462046942
 21
1778.9238253424837
  0
POINT
  8
_0-9_
 62
    4
 10
1972.7350462046942
 20
758.92382534248372
  0
POINT
  8
_0-9_
 62
    4
 10
1972.7350462046942
 20
1778.9238253424837
  0
LINE
  8
_0-9_
  6
CONTINUOUS
 62
    4
 10
1982.7350462046942
 20
758.92382534248372
 11
1892.7350462046942
 21
758.92382534248372
  0
LINE
  8
_0-9_
  6
CONTINUOUS
 62
    4
 10
1982.7350462046942
 20
1778.9238253424837
 11
1892.7350462046942
 21
1778.9238253424837
  0
POINT
  8
_0-9_
 62
    4
 10
1292.7350462046942
 20
658.92382534248372
  0
POINT
  8
_0-9_
 62
    4
 10
1312.7350462046942
 20
658.92382534248372
  0
LINE
  8
_0-9_
  6
CONTINUOUS
 62
    4
 10
1292.7350462046942
 20
648.92382534248372
 11
1292.7350462046942
 21
738.92382534248372
  0
LINE
  8
_0-9_
  6
CONTINUOUS
 62
    4
 10
1312.7350462046942
 20
648.92382534248372
 11
1312.7350462046942
 21
738.92382534248372
  0
POINT
  8
_0-9_
 62
    4
 10
1772.7350462046942
 20
658.92382534248372
  0
LINE
  8
_0-9_
  6
CONTINUOUS
 62
    4
 10
1772.7350462046942
 20
648.92382534248372
 11
1772.7350462046942
 21
738.92382534248372
  0
POINT
  8
_0-9_
 62
    4
 10
1792.7350462046942
 20
658.92382534248372
  0
LINE
  8
_0-9_
  6
CONTINUOUS
 62
    4
 10
1792.7350462046942
 20
648.92382534248372
 11
1792.7350462046942
 21
738.92382534248372
  0
POINT
  8
_0-9_
 62
    4
 10
1292.7350462046942
 20
578.92382534248372
  0
POINT
  8
_0-9_
 62
    4
 10
1792.7350462046942
 20
578.92382534248372
  0
LINE
  8
_0-9_
  6
CONTINUOUS
 62
    4
 10
1292.7350462046942
 20
568.92382534248372
 11
1292.7350462046942
 21
658.92382534248372
  0
LINE
  8
_0-9_
  6
CONTINUOUS
 62
    4
 10
1792.7350462046942
 20
568.92382534248372
 11
1792.7350462046942
 21
658.92382534248372
  0
CIRCLE
  8
_0-8_
  6
CONTINUOUS
 62
    4
 10
1662.562420604014
 20
714.38417970368777
 40
25
  0
TEXT
  8
_0-8_
 62
    7
 10
1647.562420604014
 20
696.88417970368777
 40
35
 41
0.857142857142857
 50
0
  1
９
  0
LINE
  8
_0-8_
  6
CONTINUOUS
 62
    4
 10
1643.0772628669749
 20
730.0471496635231
 11
1607.153898270815
 21
758.92382534248372
  0
LINE
  8
_0-8_
  6
CONTINUOUS
 62
    4
 10
1607.153898270815
 20
758.92382534248372
 11
1625.4539718836122
 21
750.85491551734571
  0
LINE
  8
_0-8_
  6
CONTINUOUS
 62
    4
 10
1607.153898270815
 20
758.92382534248372
 11
1618.9677719980536
 21
742.78590764666989
  0
POINT
  8
_0-9_
 62
    4
 10
1192.7350462046942
 20
2346.3470681458002
  0
POINT
  8
_0-9_
 62
    4
 10
1192.7350462046942
 20
2186.3470681458002
  0
LINE
  8
_0-9_
  6
CONTINUOUS
 62
    4
 10
1182.7350462046942
 20
2346.3470681458002
 11
1272.7350462046942
 21
2346.3470681458002
  0
LINE
  8
_0-9_
  6
CONTINUOUS
 62
    4
 10
1182.7350462046942
 20
2186.3470681458002
 11
1272.7350462046942
 21
2186.3470681458002
  0
POINT
  8
_0-9_
 62
    4
 10
2620.9040793825797
 20
758.92382534248372
  0
POINT
  8
_0-9_
 62
    4
 10
2620.9040793825797
 20
968.92382534248372
  0
LINE
  8
_0-9_
  6
CONTINUOUS
 62
    4
 10
2610.9040793825797
 20
758.92382534248372
 11
2700.9040793825797
 21
758.92382534248372
  0
LINE
  8
_0-9_
  6
CONTINUOUS
 62
    4
 10
2610.9040793825797
 20
968.92382534248372
 11
2700.9040793825797
 21
968.92382534248372
  0
POINT
  8
_0-9_
 62
    4
 10
2620.9040793825797
 20
1238.9238253424837
  0
LINE
  8
_0-9_
  6
CONTINUOUS
 62
    4
 10
2610.9040793825797
 20
1238.9238253424837
 11
2700.9040793825797
 21
1238.9238253424837
  0
POINT
  8
_0-9_
 62
    4
 10
2620.9040793825797
 20
1458.9238253424837
  0
LINE
  8
_0-9_
  6
CONTINUOUS
 62
    4
 10
2610.9040793825797
 20
1458.9238253424837
 11
2700.9040793825797
 21
1458.9238253424834
  0
POINT
  8
_0-9_
 62
    4
 10
2620.9040793825797
 20
1778.9238253424837
  0
LINE
  8
_0-9_
  6
CONTINUOUS
 62
    4
 10
2610.9040793825797
 20
1778.9238253424837
 11
2700.9040793825797
 21
1778.9238253424837
  0
LINE
  8
_0-9_
  6
CONTINUOUS
 62
    4
 10
2700.9040793825797
 20
758.92382534248372
 11
2790.1630202140308
 21
758.92382534248372
  0
LINE
  8
_0-9_
  6
CONTINUOUS
 62
    4
 10
2700.9040793825797
 20
1778.9238253424837
 11
2740.9040793825797
 21
1778.9238253424837
  0
POINT
  8
_0-9_
 62
    4
 10
2840.9040793825797
 20
658.92382534248372
  0
POINT
  8
_0-9_
 62
    4
 10
2816.9040793825797
 20
658.92382534248372
  0
LINE
  8
_0-9_
  6
CONTINUOUS
 62
    4
 10
2840.9040793825797
 20
648.92382534248372
 11
2840.9040793825797
 21
738.92382534248372
  0
LINE
  8
_0-9_
  6
CONTINUOUS
 62
    4
 10
2816.9040793825797
 20
648.92382534248372
 11
2816.9040793825797
 21
738.92382534248372
  0
POINT
  8
_0-9_
 62
    4
 10
2770.9040793825797
 20
658.92382534248372
  0
LINE
  8
_0-9_
  6
CONTINUOUS
 62
    4
 10
2770.9040793825797
 20
648.92382534248372
 11
2770.9040793825797
 21
738.92382534248372
  0
LINE
  8
_0-9_
  6
CONTINUOUS
 62
    4
 10
2840.9040793825797
 20
658.92382534248372
 11
2900.9040793825797
 21
658.92382534248372
  0
POINT
  8
_0-9_
 62
    4
 10
2840.9040793825797
 20
578.92382534248372
  0
POINT
  8
_0-9_
 62
    4
 10
2770.9040793825797
 20
578.92382534248372
  0
LINE
  8
_0-9_
  6
CONTINUOUS
 62
    4
 10
2840.9040793825797
 20
568.92382534248372
 11
2840.9040793825797
 21
658.92382534248372
  0
LINE
  8
_0-9_
  6
CONTINUOUS
 62
    4
 10
2770.9040793825797
 20
568.92382534248372
 11
2770.9040793825797
 21
658.92382534248372
  0
POINT
  8
_0-9_
 62
    4
 10
2940.9040793825797
 20
758.92382534248372
  0
POINT
  8
_0-9_
 62
    4
 10
2940.9040793825797
 20
923.92382534248372
  0
LINE
  8
_0-9_
  6
CONTINUOUS
 62
    4
 10
2950.9040793825797
 20
758.92382534248372
 11
2860.9040793825797
 21
758.92382534248372
  0
LINE
  8
_0-9_
  6
CONTINUOUS
 62
    4
 10
2950.9040793825797
 20
923.92382534248372
 11
2860.9040793825797
 21
923.92382534248372
  0
POINT
  8
_0-9_
 62
    4
 10
2840.9040793825797
 20
1878.9238253424837
  0
POINT
  8
_0-9_
 62
    4
 10
2745.9040793825797
 20
1878.9238253424837
  0
LINE
  8
_0-9_
  6
CONTINUOUS
 62
    4
 10
2840.9040793825797
 20
1888.9238253424837
 11
2840.9040793825797
 21
1798.9238253424837
  0
LINE
  8
_0-9_
  6
CONTINUOUS
 62
    4
 10
2745.9040793825797
 20
1888.9238253424837
 11
2745.9040793825797
 21
1798.9238253424837
  0
POINT
  8
_0-9_
 62
    4
 10
2680.9040793825797
 20
1878.9238253424837
  0
LINE
  8
_0-9_
  6
CONTINUOUS
 62
    4
 10
2680.9040793825797
 20
1888.9238253424837
 11
2680.9040793825797
 21
1798.9238253424837
  0
POINT
  8
_0-9_
 62
    4
 10
2840.9040793825797
 20
1958.9238253424837
  0
POINT
  8
_0-9_
 62
    4
 10
2680.9040793825797
 20
1958.9238253424837
  0
LINE
  8
_0-9_
  6
CONTINUOUS
 62
    4
 10
2840.9040793825797
 20
1968.9238253424837
 11
2840.9040793825797
 21
1878.9238253424837
  0
LINE
  8
_0-9_
  6
CONTINUOUS
 62
    4
 10
2680.9040793825797
 20
1968.9238253424837
 11
2680.9040793825797
 21
1878.9238253424837
  0
LINE
  8
_0-2_
  6
CONTINUOUS
 62
    4
 10
2746.9040793825797
 20
1482.9122332980593
 11
2746.9040793825797
 21
1458.9238253424837
  0
ARC
  8
_0-2_
  6
CONTINUOUS
 62
    4
 10
2747.9040793825797
 20
1482.9122332980593
 40
1
 50
90
 51
180
  0
LINE
  8
_0-2_
  6
CONTINUOUS
 62
    4
 10
2749.9040793825793
 20
1483.9122332980593
 11
2747.9040793825797
 21
1483.9122332980593
  0
LINE
  8
_0-2_
  6
CONTINUOUS
 62
    4
 10
2750.9040793825797
 20
1482.9122332980593
 11
2750.9040793825797
 21
1458.9238253424837
  0
ARC
  8
_0-2_
  6
CONTINUOUS
 62
    4
 10
2749.9040793825793
 20
1482.9122332980593
 40
1
 50
0
 51
90
  0
LINE
  8
_0-2_
  6
CONTINUOUS
 62
    4
 10
2746.9040793825797
 20
1262.9122332980593
 11
2746.9040793825797
 21
1238.9238253424837
  0
ARC
  8
_0-2_
  6
CONTINUOUS
 62
    4
 10
2747.9040793825797
 20
1262.9122332980593
 40
1
 50
90
 51
180
  0
LINE
  8
_0-2_
  6
CONTINUOUS
 62
    4
 10
2749.9040793825793
 20
1263.9122332980593
 11
2747.9040793825797
 21
1263.9122332980593
  0
LINE
  8
_0-2_
  6
CONTINUOUS
 62
    4
 10
2750.9040793825797
 20
1262.9122332980593
 11
2750.9040793825797
 21
1238.9238253424837
  0
ARC
  8
_0-2_
  6
CONTINUOUS
 62
    4
 10
2749.9040793825793
 20
1262.9122332980593
 40
1
 50
0
 51
90
  0
LINE
  8
_0-2_
  6
CONTINUOUS
 62
    4
 10
2746.9040793825797
 20
992.91223329805939
 11
2746.9040793825797
 21
968.92382534248372
  0
ARC
  8
_0-2_
  6
CONTINUOUS
 62
    4
 10
2747.9040793825797
 20
992.91223329805939
 40
1
 50
90
 51
180
  0
LINE
  8
_0-2_
  6
CONTINUOUS
 62
    4
 10
2749.9040793825793
 20
993.91223329805939
 11
2747.9040793825797
 21
993.91223329805939
  0
LINE
  8
_0-2_
  6
CONTINUOUS
 62
    4
 10
2750.9040793825797
 20
992.91223329805939
 11
2750.9040793825797
 21
968.92382534248372
  0
ARC
  8
_0-2_
  6
CONTINUOUS
 62
    4
 10
2749.9040793825793
 20
992.91223329805939
 40
1
 50
0
 51
90
  0
LINE
  8
_0-2_
  6
CONTINUOUS
 62
    4
 10
2730.9040793825797
 20
1458.9238253424837
 11
2763.9040793825797
 21
1458.9238253424837
  0
ARC
  8
_0-2_
  6
CONTINUOUS
 62
    4
 10
2730.9040793825797
 20
1456.9238253424837
 40
2
 50
90
 51
180
  0
LINE
  8
_0-2_
  6
CONTINUOUS
 62
    4
 10
2728.9040793825797
 20
1440.6355921850715
 11
2728.9040793825797
 21
1456.9238253424837
  0
ARC
  8
_0-2_
  6
CONTINUOUS
 62
    4
 10
2730.9040793825797
 20
1440.6355921850715
 40
2
 50
180
 51
261.11934084947978
  0
LINE
  8
_0-2_
  6
CONTINUOUS
 62
    4
 10
2730.9040793825797
 20
1238.9238253424837
 11
2763.9040793825797
 21
1238.9238253424837
  0
ARC
  8
_0-2_
  6
CONTINUOUS
 62
    4
 10
2730.9040793825797
 20
1236.9238253424837
 40
2
 50
90
 51
180
  0
LINE
  8
_0-2_
  6
CONTINUOUS
 62
    4
 10
2728.9040793825797
 20
1220.6355921850713
 11
2728.9040793825797
 21
1236.9238253424837
  0
ARC
  8
_0-2_
  6
CONTINUOUS
 62
    4
 10
2730.9040793825797
 20
1220.6355921850713
 40
2
 50
180
 51
261.11934084947978
  0
LINE
  8
_0-2_
  6
CONTINUOUS
 62
    4
 10
2730.9040793825797
 20
968.92382534248372
 11
2763.9040793825797
 21
968.92382534248372
  0
ARC
  8
_0-2_
  6
CONTINUOUS
 62
    4
 10
2730.9040793825797
 20
966.92382534248372
 40
2
 50
90
 51
180
  0
LINE
  8
_0-2_
  6
CONTINUOUS
 62
    4
 10
2728.9040793825797
 20
950.63559218507134
 11
2728.9040793825797
 21
966.92382534248372
  0
ARC
  8
_0-2_
  6
CONTINUOUS
 62
    4
 10
2730.9040793825797
 20
950.63559218507134
 40
2
 50
180
 51
261.11934084947978
  0
LINE
  8
_0-2_
  6
CONTINUOUS
 62
    4
 10
2730.5953256220323
 20
948.65956811756916
 11
2770.9040793825797
 21
941.11132534248372
  0
LINE
  8
_0-2_
  6
CONTINUOUS
 62
    4
 10
2730.5953256220323
 20
1218.659568117569
 11
2770.9040793825797
 21
1211.1113253424837
  0
LINE
  8
_0-2_
  6
CONTINUOUS
 62
    4
 10
2730.5953256220323
 20
1438.659568117569
 11
2770.9040793825797
 21
1431.1113253424837
  0
POINT
  8
_0-9_
 62
    4
 10
2728.9040793825797
 20
1558.9238253424837
  0
POINT
  8
_0-9_
 62
    4
 10
2840.9040793825797
 20
1558.9238253424837
  0
LINE
  8
_0-9_
  6
CONTINUOUS
 62
    4
 10
2728.9040793825797
 20
1568.9238253424837
 11
2728.9040793825797
 21
1478.9238253424837
  0
LINE
  8
_0-9_
  6
CONTINUOUS
 62
    4
 10
2728.9040793825797
 20
1558.9238253424837
 11
2628.9040793825797
 21
1558.9238253424837
  0
LINE
  8
_0-2_
  6
CONTINUOUS
 62
    4
 10
2770.9040793825797
 20
941.11132534248372
 11
2799.9916169880521
 21
936.56639759162862
  0
TEXT
  8
_0-9_
 62
    7
 10
1580.4373526999875
 20
596.78662230191446
 40
15
 41
1.3333333333333332
 50
0
  1
＋
  0
TEXT
  8
_0-9_
 62
    7
 10
1580.1768166404917
 20
583.51201424541216
 40
15
 41
1.3333333333333332
 50
0
  1
－
  0
TEXT
  8
_0-9_
 62
    7
 10
1604.9147754149068
 20
587.22220245796347
 40
25
 41
0.8
 50
0
  1
３
  0
TEXT
  8
_0-9_
 62
    7
 10
2792.8937221641845
 20
1977.2700972863044
 40
15
 41
1.3333333333333332
 50
0
  1
＋
  0
TEXT
  8
_0-9_
 62
    7
 10
2792.6331861046883
 20
1963.9954892298021
 40
15
 41
1.3333333333333332
 50
0
  1
－
  0
TEXT
  8
_0-9_
 62
    7
 10
2817.3711448791036
 20
1967.7056774423533
 40
25
 41
0.8
 50
0
  1
２
  0
TEXT
  8
_0-f_仕様表
 62
    7
 10
3419.9990000000002
 20
2547.5
 40
35
 41
0.857142857142857
 50
0
  1
φ４　Ｐ＝１１０
  0
LINE
  8
_0-9_
  6
CONTINUOUS
 62
    4
 10
1192.7350462046942
 20
1778.9238253424837
 11
1192.7350462046942
 21
1827.0705391515775
  0
LINE
  8
_0-9_
  6
CONTINUOUS
 62
    4
 10
1292.7350462046942
 20
2446.3470681458002
 11
1792.7350462046942
 21
2446.3470681458002
  0
TEXT
  8
_0-9_
 62
    7
 10
1509.7350462046942
 20
2451.3470681458002
 40
35
 41
0.6285714285714286
 50
0
  1
５００
  0
LINE
  8
_0-9_
  6
CONTINUOUS
 62
    4
 10
1892.7350462046942
 20
2346.3470681458002
 11
1892.7350462046942
 21
2251.3470681458002
  0
TEXT
  8
_0-9_
 62
    7
 10
1887.7350462046942
 20
2276.8470681458002
 40
35
 41
0.6285714285714286
 50
90
  1
９５
  0
LINE
  8
_0-9_
  6
CONTINUOUS
 62
    4
 10
1892.7350462046942
 20
2251.3470681458002
 11
1892.7350462046942
 21
2186.3470681458002
  0
TEXT
  8
_0-9_
 62
    7
 10
1887.7350462046942
 20
2196.8470681458002
 40
35
 41
0.6285714285714286
 50
90
  1
６５
  0
LINE
  8
_0-9_
  6
CONTINUOUS
 62
    4
 10
1682.7350462046942
 20
1958.9238253424837
 11
1402.7350462046942
 21
1958.9238253424837
  0
TEXT
  8
_0-9_
 62
    7
 10
1509.7350462046942
 20
1963.9238253424837
 40
35
 41
0.6285714285714286
 50
0
  1
２８０
  0
LINE
  8
_0-9_
  6
CONTINUOUS
 62
    4
 10
1402.7350462046942
 20
1958.9238253424837
 11
1292.7350462046942
 21
1958.9238253424837
  0
TEXT
  8
_0-9_
 62
    7
 10
1314.7350462046942
 20
1963.9238253424837
 40
35
 41
0.6285714285714286
 50
0
  1
１１０
  0
LINE
  8
_0-9_
  6
CONTINUOUS
 62
    4
 10
1779.7350462046942
 20
1878.9238253424837
 11
1305.735046204694
 21
1878.9238253424837
  0
TEXT
  8
_0-9_
 62
    7
 10
1509.7350462046942
 20
1883.9238253424837
 40
35
 41
0.6285714285714286
 50
0
  1
４７４
  0
LINE
  8
_0-9_
  6
CONTINUOUS
 62
    4
 10
1792.7350462046942
 20
1958.9238253424837
 11
1682.7350462046942
 21
1958.9238253424837
  0
TEXT
  8
_0-9_
 62
    7
 10
1704.7350462046942
 20
1963.9238253424837
 40
35
 41
0.6285714285714286
 50
0
  1
１１０
  0
LINE
  8
_0-9_
  6
CONTINUOUS
 62
    4
 10
1305.735046204694
 20
1878.9238253424837
 11
1292.7350462046942
 21
1878.9238253424837
  0
TEXT
  8
_0-9_
 62
    7
 10
1242.1604178255072
 20
1883.5869133979535
 40
35
 41
0.6285714285714286
 50
0
  1
１３
  0
LINE
  8
_0-9_
  6
CONTINUOUS
 62
    4
 10
1792.7350462046942
 20
1878.9238253424837
 11
1779.7350462046942
 21
1878.9238253424837
  0
TEXT
  8
_0-9_
 62
    7
 10
1800.6420296456078
 20
1883.5869133979535
 40
35
 41
0.6285714285714286
 50
0
  1
１３
  0
LINE
  8
_0-9_
  6
CONTINUOUS
 62
    4
 10
1892.7350462046942
 20
1778.9238253424837
 11
1892.7350462046942
 21
1638.9238253424837
  0
TEXT
  8
_0-9_
 62
    7
 10
1887.7350462046942
 20
1675.9238253424837
 40
35
 41
0.6285714285714286
 50
90
  1
１４０
  0
LINE
  8
_0-9_
  6
CONTINUOUS
 62
    4
 10
1892.7350462046942
 20
1638.9238253424837
 11
1892.7350462046942
 21
1078.9238253424837
  0
TEXT
  8
_0-9_
 62
    7
 10
1887.7350462046942
 20
1325.9238253424837
 40
35
 41
0.6285714285714286
 50
90
  1
５６０
  0
LINE
  8
_0-9_
  6
CONTINUOUS
 62
    4
 10
1972.7350462046942
 20
758.92382534248372
 11
1972.7350462046942
 21
1778.9238253424837
  0
TEXT
  8
_0-9_
 62
    7
 10
1967.7350462046942
 20
1213.9238253424837
 40
35
 41
0.6285714285714286
 50
90
  1
１，０２０
  0
TEXT
  8
_0-9_
 62
    7
 10
1952.1040144063088
 20
1331.3358718485865
 40
15
 41
1.3333333333333332
 50
90
  1
＋
  0
TEXT
  8
_0-9_
 62
    7
 10
1965.3786224628111
 20
1331.0753357890905
 40
15
 41
1.3333333333333332
 50
90
  1
－
  0
TEXT
  8
_0-9_
 62
    7
 10
1961.6684342502596
 20
1355.8132945635056
 40
25
 41
0.8
 50
90
  1
３
  0
LINE
  8
_0-9_
  6
CONTINUOUS
 62
    4
 10
1892.7350462046942
 20
1078.9238253424837
 11
1892.7350462046942
 21
758.92382534248372
  0
TEXT
  8
_0-9_
 62
    7
 10
1887.7350462046942
 20
885.92382534248372
 40
35
 41
0.6285714285714286
 50
90
  1
３２０
  0
LINE
  8
_0-9_
  6
CONTINUOUS
 62
    4
 10
1312.7350462046942
 20
658.92382534248372
 11
1772.7350462046942
 21
658.92382534248372
  0
TEXT
  8
_0-9_
 62
    7
 10
1509.7350462046942
 20
663.92382534248372
 40
35
 41
0.6285714285714286
 50
0
  1
４６０
  0
LINE
  8
_0-9_
  6
CONTINUOUS
 62
    4
 10
1772.7350462046942
 20
658.92382534248372
 11
1792.7350462046942
 21
658.92382534248372
  0
TEXT
  8
_0-9_
 62
    7
 10
1724.0751036996689
 20
663.02664767251849
 40
35
 41
0.6285714285714286
 50
0
  1
２０
  0
LINE
  8
_0-9_
  6
CONTINUOUS
 62
    4
 10
1292.7350462046942
 20
658.92382534248372
 11
1312.7350462046942
 21
658.92382534248372
  0
TEXT
  8
_0-9_
 62
    7
 10
1321.4258809234506
 20
664.65680646918349
 40
35
 41
0.6285714285714286
 50
0
  1
２０
  0
LINE
  8
_0-9_
  6
CONTINUOUS
 62
    4
 10
1292.7350462046942
 20
578.92382534248372
 11
1792.7350462046942
 21
578.92382534248372
  0
TEXT
  8
_0-9_
 62
    7
 10
1509.7350462046942
 20
583.92382534248372
 40
35
 41
0.6285714285714286
 50
0
  1
５００
  0
LINE
  8
_0-9_
  6
CONTINUOUS
 62
    4
 10
1192.7350462046942
 20
1765.9238253424837
 11
1192.7350462046942
 21
823.92382534248372
  0
TEXT
  8
_0-9_
 62
    7
 10
1187.7350462046942
 20
1261.9238253424837
 40
35
 41
0.6285714285714286
 50
90
  1
９４２
  0
LINE
  8
_0-9_
  6
CONTINUOUS
 62
    4
 10
1112.7350462046942
 20
758.92382534248372
 11
1112.7350462046942
 21
1713.9238253424837
  0
TEXT
  8
_0-9_
 62
    7
 10
1107.7350462046942
 20
1203.4238253424837
 40
35
 41
0.6285714285714286
 50
90
  1
９５５
  0
LINE
  8
_0-9_
  6
CONTINUOUS
 62
    4
 10
1192.7350462046942
 20
823.92382534248372
 11
1192.7350462046942
 21
758.92382534248372
  0
TEXT
  8
_0-9_
 62
    7
 10
1187.7350462046942
 20
769.42382534248383
 40
35
 41
0.6285714285714286
 50
90
  1
６５
  0
LINE
  8
_0-9_
  6
CONTINUOUS
 62
    4
 10
1192.7350462046942
 20
1778.9238253424837
 11
1192.7350462046942
 21
1765.9238253424837
  0
TEXT
  8
_0-9_
 62
    7
 10
1188.1380844308282
 20
1784.2357922889555
 40
35
 41
0.6285714285714286
 50
90
  1
１３
  0
LINE
  8
_0-9_
  6
CONTINUOUS
 62
    4
 10
1112.7350462046942
 20
1713.9238253424837
 11
1112.7350462046942
 21
1778.9238253424837
  0
TEXT
  8
_0-9_
 62
    7
 10
1107.7350462046942
 20
1724.4238253424837
 40
35
 41
0.6285714285714286
 50
90
  1
６５
  0
LINE
  8
_0-9_
  6
CONTINUOUS
 62
    4
 10
2840.9040793825797
 20
1958.9238253424837
 11
2680.9040793825797
 21
1958.9238253424837
  0
TEXT
  8
_0-9_
 62
    7
 10
2727.9040793825797
 20
1963.9238253424837
 40
35
 41
0.6285714285714286
 50
0
  1
１６０
  0
LINE
  8
_0-9_
  6
CONTINUOUS
 62
    4
 10
2745.9040793825797
 20
1878.9238253424837
 11
2680.9040793825797
 21
1878.9238253424837
  0
TEXT
  8
_0-9_
 62
    7
 10
2691.4040793825797
 20
1883.9238253424837
 40
35
 41
0.6285714285714286
 50
0
  1
６５
  0
LINE
  8
_0-9_
  6
CONTINUOUS
 62
    4
 10
2840.9040793825797
 20
1878.9238253424837
 11
2745.9040793825797
 21
1878.9238253424837
  0
TEXT
  8
_0-9_
 62
    7
 10
2771.4040793825797
 20
1883.9238253424837
 40
35
 41
0.6285714285714286
 50
0
  1
９５
  0
LINE
  8
_0-9_
  6
CONTINUOUS
 62
    4
 10
2620.9040793825797
 20
1458.9238253424837
 11
2620.9040793825797
 21
1778.9238253424837
  0
TEXT
  8
_0-9_
 62
    7
 10
2615.9040793825797
 20
1585.9238253424837
 40
35
 41
0.6285714285714286
 50
90
  1
３２０
  0
LINE
  8
_0-9_
  6
CONTINUOUS
 62
    4
 10
2728.9040793825797
 20
1558.9238253424837
 11
2840.9040793825797
 21
1558.9238253424837
  0
TEXT
  8
_0-9_
 62
    7
 10
2653.0541022592151
 20
1562.0487217598097
 40
35
 41
0.6285714285714286
 50
0
  1
１１２
  0
LINE
  8
_0-9_
  6
CONTINUOUS
 62
    4
 10
2620.9040793825797
 20
1238.9238253424837
 11
2620.9040793825797
 21
1458.9238253424837
  0
TEXT
  8
_0-9_
 62
    7
 10
2615.9040793825797
 20
1315.9238253424837
 40
35
 41
0.6285714285714286
 50
90
  1
２２０
  0
LINE
  8
_0-9_
  6
CONTINUOUS
 62
    4
 10
2620.9040793825797
 20
968.92382534248372
 11
2620.9040793825797
 21
1238.9238253424837
  0
TEXT
  8
_0-9_
 62
    7
 10
2615.9040793825797
 20
1070.9238253424837
 40
35
 41
0.6285714285714286
 50
90
  1
２７０
  0
LINE
  8
_0-9_
  6
CONTINUOUS
 62
    4
 10
2620.9040793825797
 20
758.92382534248372
 11
2620.9040793825797
 21
968.92382534248372
  0
TEXT
  8
_0-9_
 62
    7
 10
2615.9040793825797
 20
830.92382534248361
 40
35
 41
0.6285714285714286
 50
90
  1
２１０
  0
LINE
  8
_0-9_
  6
CONTINUOUS
 62
    4
 10
2940.9040793825797
 20
758.92382534248372
 11
2940.9040793825797
 21
923.92382534248372
  0
TEXT
  8
_0-9_
 62
    7
 10
2935.9040793825797
 20
808.42382534248361
 40
35
 41
0.6285714285714286
 50
90
  1
１６５
  0
LINE
  8
_0-9_
  6
CONTINUOUS
 62
    4
 10
2816.9040793825797
 20
658.92382534248372
 11
2770.9040793825797
 21
658.92382534248372
  0
TEXT
  8
_0-9_
 62
    7
 10
2771.9040793825797
 20
663.92382534248372
 40
35
 41
0.6285714285714286
 50
0
  1
４６
  0
LINE
  8
_0-9_
  6
CONTINUOUS
 62
    4
 10
2840.9040793825797
 20
658.92382534248372
 11
2816.9040793825797
 21
658.92382534248372
  0
TEXT
  8
_0-9_
 62
    7
 10
2849.4742137849025
 20
663.91464512690151
 40
35
 41
0.6285714285714286
 50
0
  1
２４
  0
LINE
  8
_0-9_
  6
CONTINUOUS
 62
    4
 10
2840.9040793825797
 20
578.92382534248372
 11
2770.9040793825797
 21
578.92382534248372
  0
TEXT
  8
_0-9_
 62
    7
 10
2783.9040793825797
 20
583.92382534248372
 40
35
 41
0.6285714285714286
 50
0
  1
７０
  0
TEXT
  8
_0-0_
 62
    7
 10
809.38841201716741
 20
137.5
 40
45
 41
0.8000000000000001
 50
0
  1
ミラーキャビネット
  0
LINE
  8
_0-9_
  6
CONTINUOUS
 62
    4
 10
1192.7350462046942
 20
2346.3470681458002
 11
1192.7350462046942
 21
2186.3470681458002
  0
TEXT
  8
_0-9_
 62
    7
 10
1187.7124603318841
 20
2220.9070123442984
 40
35
 41
0.6285714285714286
 50
90
  1
１６０
  0
TEXT
  8
_0-9_
 62
    7
 10
1171.7330784100722
 20
2296.3300265183438
 40
15
 41
1.3333333333333332
 50
90
  1
＋
  0
TEXT
  8
_0-9_
 62
    7
 10
1185.0076864665745
 20
2296.0694904588481
 40
15
 41
1.3333333333333332
 50
90
  1
－
  0
TEXT
  8
_0-9_
 62
    7
 10
1181.2974982540231
 20
2320.8074492332625
 40
25
 41
0.8
 50
90
  1
２
  0
TEXT
  8
_0-0_
 62
    7
 10
1606.0622317596566
 20
137.5
 40
45
 41
0.8000000000000001
 50
0
  1
ＷＳＲ－５０ＭＫ
  0
TEXT
  8
_0-0_
 62
    7
 10
3043
 20
142.5
 40
35
 41
0.5714285714285713
 50
0
  1
２０２３．０５．０１
  0
LINE
  8
_e-0_
  6
CONTINUOUS
 62
    7
 10
2243.7859302690862
 20
199.51965480360598
 11
2272.9339284698526
 21
210.12865853712995
  0
LINE
  8
_e-0_
  6
CONTINUOUS
 62
    7
 10
2237.6336615052869
 20
191.95952323799758
 11
2287.5529504706664
 21
210.12865853712895
  0
LINE
  8
_e-0_
  6
CONTINUOUS
 62
    7
 10
2234.2067375789874
 20
185.39133607135255
 11
2263.8643430051365
 21
196.18582166608263
  0
LINE
  8
_e-0_
  6
CONTINUOUS
 62
    7
 10
2232.2119570371696
 20
179.34440646785787
 11
2253.9586582709303
 21
187.25955841042662
  0
LINE
  8
_e-0_
  6
CONTINUOUS
 62
    7
 10
2231.2024514117433
 20
173.65608760649877
 11
2249.4574587956467
 21
180.3003669205492
  0
LINE
  8
_e-0_
  6
CONTINUOUS
 62
    7
 10
2230.9649088875535
 20
168.248740335938
 11
2249.3748102388385
 21
174.94939644358311
  0
LINE
  8
_e-0_
  6
CONTINUOUS
 62
    7
 10
2231.3837497438626
 20
163.08029707814966
 11
2249.8286640768283
 21
169.79369686893903
  0
LINE
  8
_e-0_
  6
CONTINUOUS
 62
    7
 10
2232.3950068941753
 20
158.12747571767488
 11
2251.269568818267
 21
164.99725444285843
  0
LINE
  8
_e-0_
  6
CONTINUOUS
 62
    7
 10
2233.9675550564961
 20
153.37894757832998
 11
2253.6625167678698
 21
160.54732740628253
  0
LINE
  8
_e-0_
  6
CONTINUOUS
 62
    7
 10
2236.0955302019183
 20
148.83257832814223
 11
2257.099910488102
 21
156.47754754152117
  0
LINE
  8
_e-0_
  6
CONTINUOUS
 62
    7
 10
2238.7970089264299
 20
144.49494730998821
 11
2261.880116002736
 21
152.89651120014326
  0
LINE
  8
_e-0_
  6
CONTINUOUS
 62
    7
 10
2242.1181877425701
 20
140.38286867935909
 11
2268.9468388985251
 21
150.14769912563821
  0
LINE
  8
_e-0_
  6
CONTINUOUS
 62
    7
 10
2246.1455691824353
 20
136.52782678312661
 11
2284.5651405528205
 21
150.51140717521263
  0
LINE
  8
_e-0_
  6
CONTINUOUS
 62
    7
 10
2251.0351047702797
 20
132.98658333410969
 11
2279.1844822576495
 21
143.2321188526356
  0
LINE
  8
_e-0_
  6
CONTINUOUS
 62
    7
 10
2279.5849322183671
 20
201.90764820482513
 11
2302.1719724714803
 21
210.12865853713066
  0
LINE
  8
_e-0_
  6
CONTINUOUS
 62
    7
 10
2260.5624543087296
 20
189.663143601351
 11
2313.0511299164636
 21
208.76745915862059
  0
LINE
  8
_e-0_
  6
CONTINUOUS
 62
    7
 10
2273.0696188494734
 20
188.89449034687174
 11
2313.0511299164636
 21
203.44657029624102
  0
LINE
  8
_e-0_
  6
CONTINUOUS
 62
    7
 10
2287.6886408502887
 20
188.89449034687174
 11
2313.0511299164636
 21
198.12568143386158
  0
LINE
  8
_e-0_
  6
CONTINUOUS
 62
    7
 10
2291.8751463425487
 20
185.09736486926669
 11
2313.0511299164636
 21
192.80479257148215
  0
LINE
  8
_e-0_
  6
CONTINUOUS
 62
    7
 10
2291.8751463425487
 20
179.77647600688726
 11
2313.0511299164636
 21
187.48390370910215
  0
LINE
  8
_e-0_
  6
CONTINUOUS
 62
    7
 10
2291.8751463425487
 20
174.45558714450783
 11
2313.0511299164636
 21
182.16301484672271
  0
LINE
  8
_e-0_
  6
CONTINUOUS
 62
    7
 10
2291.8751463425487
 20
169.13469828212839
 11
2313.0511299164636
 21
176.84212598434328
  0
LINE
  8
_e-0_
  6
CONTINUOUS
 62
    7
 10
2291.8008475696451
 20
163.78676687796939
 11
2313.0511299164636
 21
171.52123712196384
  0
LINE
  8
_e-0_
  6
CONTINUOUS
 62
    7
 10
2290.6539909363364
 20
158.04845633809463
 11
2313.0511299164636
 21
166.20034825958413
  0
LINE
  8
_e-0_
  6
CONTINUOUS
 62
    7
 10
2288.3949962857823
 20
151.90536066354695
 11
2313.0511299164636
 21
160.87945939720469
  0
LINE
  8
_e-0_
  6
CONTINUOUS
 62
    7
 10
2284.4003861827632
 20
145.13055262616916
 11
2311.8608666367176
 21
155.12535013005759
  0
LINE
  8
_e-0_
  6
CONTINUOUS
 62
    7
 10
2275.7463468865153
 20
136.65985105378524
 11
2309.0387712913652
 21
148.77730256370853
  0
LINE
  8
_e-0_
  6
CONTINUOUS
 62
    7
 10
2266.9791201478205
 20
128.14795262145821
 11
2304.1703780821812
 21
141.68446348448242
  0
LINE
  8
_e-0_
  6
CONTINUOUS
 62
    7
 10
2282.1376414569663
 20
128.34431431109749
 11
2292.7244583873175
 21
132.19760054937069
  0
LINE
  8
_e-0_
  6
CONTINUOUS
 62
    3
 10
2266.4464672734898
 20
197.56612819678281
 11
2262.3244734593249
 21
194.75680664380121
  0
LINE
  8
_e-0_
  6
CONTINUOUS
 62
    3
 10
2282.3868421919432
 20
128.14795262145651
 11
2266.9204010401704
 21
128.14795262145651
  0
ARC
  8
_e-0_
  6
CONTINUOUS
 62
    3
 10
2282.3868421919432
 20
133.14795262145651
 40
5
 50
270
 51
286.20399351045659
  0
LINE
  8
_e-0_
  6
CONTINUOUS
 62
    3
 10
2313.2288608412613
 20
210.12865853712895
 11
2313.2288608412613
 21
159.77346730566921
  0
ARC
  8
_e-0_
  6
CONTINUOUS
 62
    3
 10
2271.9221657766447
 20
169.15823653484835
 40
42.5
 50
286.20399351045648
 51
345.50707147989851
  0
ARC
  8
_e-0_
  6
CONTINUOUS
 62
    3
 10
2308.2288608412613
 20
159.77346730566921
 40
5
 50
345.50707147989879
 51
0.0000000000000159
  0
ARC
  8
_e-0_
  6
CONTINUOUS
 62
    3
 10
2250.0927387377205
 20
170.4956084628958
 40
40
 50
279.71265316664215
 51
332.69093929010892
  0
ARC
  8
_e-0_
  6
CONTINUOUS
 62
    3
 10
2255.9974857549714
 20
135.99729020443191
 40
5
 50
241.9452628118
 51
279.71265316664221
  0
ARC
  8
_e-0_
  6
CONTINUOUS
 62
    3
 10
2263.2643122966183
 20
205.12865853712895
 40
5
 50
90
 51
106.05338143786269
  0
LINE
  8
_e-0_
  6
CONTINUOUS
 62
    3
 10
2288.4334989152221
 20
210.12865853712881
 11
2278.2181989551913
 21
205.24067691222057
  0
LINE
  8
_e-0_
  6
CONTINUOUS
 62
    3
 10
2278.2181989551913
 20
205.24067691222057
 11
2272.2994583375816
 21
201.4444897898403
  0
LINE
  8
_e-0_
  6
CONTINUOUS
 62
    3
 10
2266.4464672734898
 20
197.56612819678252
 11
2272.2994583375816
 21
201.4444897898403
  0
ARC
  8
_e-0_
  6
CONTINUOUS
 62
    3
 10
2263.2643122966183
 20
205.12865853712895
 40
5
 50
90
 51
106.05338143786269
  0
ARC
  8
_e-0_
  6
CONTINUOUS
 62
    3
 10
2263.2643122966183
 20
205.12865853712895
 40
5
 50
90
 51
106.05338143786269
  0
LINE
  8
_e-0_
  6
CONTINUOUS
 62
    3
 10
2288.4334989152221
 20
210.12865853712895
 11
2263.2643122966183
 21
210.12865853712895
  0
ARC
  8
_e-0_
  6
CONTINUOUS
 62
    3
 10
2273.6342932765642
 20
169.09099082020304
 40
42.5
 50
106.05338143786271
 51
241.94526281180051
  0
ARC
  8
_e-0_
  6
CONTINUOUS
 62
    3
 10
2263.2643122966183
 20
205.12865853712895
 40
5
 50
90
 51
106.05338143786269
  0
LINE
  8
_e-0_
  6
CONTINUOUS
 62
    3
 10
2299.1719829458552
 20
210.12865853712895
 11
2313.2288608412613
 21
210.12865853712895
  0
ARC
  8
_e-0_
  6
CONTINUOUS
 62
    3
 10
2299.1719829458552
 20
205.12865853712895
 40
5
 50
90
 51
112.84552721528329
  0
LINE
  8
_e-0_
  6
CONTINUOUS
 62
    3
 10
2292.0528772673465
 20
188.89449034687004
 11
2269.0173546029673
 21
188.89449034687004
  0
ARC
  8
_e-0_
  6
CONTINUOUS
 62
    3
 10
2269.0173546029673
 20
183.89449034687004
 40
5
 50
90
 51
110.93110431809542
  0
ARC
  8
_e-0_
  6
CONTINUOUS
 62
    3
 10
2254.2292662802574
 20
177.70386452217394
 40
0.5
 50
165.368776721252
 51
224.67319701305797
  0
LINE
  8
_e-0_
  6
CONTINUOUS
 62
    3
 10
2253.8737020580624
 20
177.3523334653737
 11
2253.6837582739271
 21
177.54445650133447
  0
ARC
  8
_e-0_
  6
CONTINUOUS
 62
    3
 10
2276.1622566207875
 20
165.2142768803236
 40
25
 50
110.93110431809527
 51
150.17701829297226
  0
ARC
  8
_e-0_
  6
CONTINUOUS
 62
    3
 10
2254.0393224961217
 20
177.89598755813472
 40
0.5
 50
224.67319701305652
 51
330.17701829297561
  0
LINE
  8
_e-0_
  6
CONTINUOUS
 62
    3
 10
2297.2307430642558
 20
209.73643324104926
 11
2283.5233941157548
 21
203.96157353985984
  0
LINE
  8
_e-0_
  6
CONTINUOUS
 62
    3
 10
2283.5233941157548
 20
203.96157353985984
 11
2277.114528385443
 21
200.4613679180602
  0
ARC
  8
_e-0_
  6
CONTINUOUS
 62
    3
 10
2277.9347719955744
 20
171.51524603489747
 40
25
 50
126.05682261028304
 51
165.36877672125814
  0
ARC
  8
_e-0_
  6
CONTINUOUS
 62
    3
 10
2322.0287923520791
 20
111.11536133502738
 40
100
 50
116.6886898974924
 51
126.03335467187628
  0
LINE
  8
_e-0_
  6
CONTINUOUS
 62
    3
 10
2262.3244734593245
 20
194.75680664380149
 11
2254.3560414411385
 21
187.50185893935451
  0
LINE
  8
_e-0_
  6
CONTINUOUS
 62
    3
 10
2254.3560414411385
 20
187.50185893935451
 11
2252.5108960046536
 21
185.36863764275494
  0
ARC
  8
_e-0_
  6
CONTINUOUS
 62
    3
 10
2274.5493829743445
 20
174.5520307550089
 40
25
 50
169.07329675873063
 51
296.32138326661799
  0
LINE
  8
_e-0_
  6
CONTINUOUS
 62
    3
 10
2252.5108960046541
 20
185.36863764275494
 11
2250.002621066113
 21
179.29085759512361
  0
LINE
  8
_e-0_
  6
CONTINUOUS
 62
    3
 10
2292.0528772673465
 20
188.89449034687004
 11
2292.0528772673465
 21
164.42425885831653
  0
ARC
  8
_e-0_
  6
CONTINUOUS
 62
    3
 10
2277.2840925230507
 20
144.13090983307199
 40
5
 50
311.4163090429962
 51
326.13300916724881
  0
ARC
  8
_e-0_
  6
CONTINUOUS
 62
    3
 10
2252.285941088533
 20
168.73596234419835
 40
40
 50
316.78132524618342
 51
353.81191653224226
  0
ARC
  8
_e-0_
  6
CONTINUOUS
 62
    3
 10
2240.9001979970053
 20
185.376663785662
 40
60
 50
294.69555798319504
 51
311.41630904299643
  0
ARC
  8
_e-0_
  6
CONTINUOUS
 62
    3
 10
2271.9268153318698
 20
202.98067150791609
 40
75
 50
264.68313230529076
 51
266.17253517307824
  0
ARC
  8
_e-0_
  6
CONTINUOUS
 62
    3
 10
2265.0233680716155
 20
128.80121063143832
 40
0.5
 50
174.02086603460466
 51
264.68313230528985
  0
ARC
  8
_e-0_
  6
CONTINUOUS
 62
    3
 10
2267.0124878650108
 20
128.59287809071872
 40
2.5
 50
114.69555798319522
 51
174.02086603461154
  0
LINE
  8
_e-0_
  6
CONTINUOUS
 62
    7
 10
2376.8899919095943
 20
169.43032024062034
 11
2388.2618909747961
 21
173.56935300743344
  0
LINE
  8
_e-0_
  6
CONTINUOUS
 62
    3
 10
2436.2585234464268
 20
162.63312492519389
 11
2436.2585234464268
 21
136.49018622829544
  0
CIRCLE
  8
_e-0_
  6
CONTINUOUS
 62
    3
 10
2365.5167430510387
 20
162.46293449130519
 40
13.33773795583065
  0
CIRCLE
  8
_e-0_
  6
CONTINUOUS
 62
    3
 10
2365.2330256036634
 20
162.17921704393006
 40
25.691707563897665
  0
LINE
  8
_e-0_
  6
CONTINUOUS
 62
    3
 10
2399.4939617252575
 20
188.26250382114977
 11
2399.4939617252575
 21
136.49018622829544
  0
LINE
  8
_e-0_
  6
CONTINUOUS
 62
    3
 10
2399.4939617252575
 20
136.49018622829544
 11
2414.856930753669
 21
136.49018622829544
  0
LINE
  8
_e-0_
  6
CONTINUOUS
 62
    3
 10
2414.856930753669
 20
136.49018622829544
 11
2414.856930753669
 21
172.63312492519389
  0
LINE
  8
_e-0_
  6
CONTINUOUS
 62
    3
 10
2451.1774760289304
 20
136.49018622829544
 11
2436.2585234464268
 21
136.49018622829544
  0
LINE
  8
_e-0_
  6
CONTINUOUS
 62
    3
 10
2426.2585234464268
 20
172.63312492519389
 11
2414.856930753669
 21
172.63312492519389
  0
ARC
  8
_e-0_
  6
CONTINUOUS
 62
    3
 10
2426.2585234464268
 20
162.63312492519389
 40
10
 50
0
 51
90
  0
LINE
  8
_e-0_
  6
CONTINUOUS
 62
    3
 10
2426.1774760289299
 20
188.26250382114977
 11
2399.4939617252575
 21
188.26250382114977
  0
LINE
  8
_e-0_
  6
CONTINUOUS
 62
    3
 10
2451.1774760289304
 20
163.26250382114977
 11
2451.1774760289304
 21
136.49018622829544
  0
ARC
  8
_e-0_
  6
CONTINUOUS
 62
    3
 10
2426.1774760289299
 20
163.26250382114977
 40
25
 50
0
 51
90
  0
ARC
  8
_e-0_
  6
CONTINUOUS
 62
    3
 10
2486.2452606175233
 20
162.17653762406428
 40
13.33773795583065
 50
23.422555400004949
 51
97.191484740792631
  0
LINE
  8
_e-0_
  6
CONTINUOUS
 62
    3
 10
2474.0065761310629
 20
167.47841048365671
 11
2498.4839451039833
 21
167.47841048365671
  0
ARC
  8
_e-0_
  6
CONTINUOUS
 62
    3
 10
2486.2452606175233
 20
162.17653762406428
 40
13.33773795583065
 50
92.530763017635251
 51
156.57744459999506
  0
ARC
  8
_e-0_
  6
CONTINUOUS
 62
    3
 10
2486.2452606175233
 20
162.17653762406428
 40
13.33773795583065
 50
204.21097500392608
 51
316.0067678116265
  0
LINE
  8
_e-0_
  6
CONTINUOUS
 62
    3
 10
2474.0806890359867
 20
156.70676139316753
 11
2511.5200753562385
 21
156.70676139316753
  0
LINE
  8
_e-0_
  6
CONTINUOUS
 62
    3
 10
2495.8407207162626
 20
152.91249966689292
 11
2508.7092412098891
 21
149.78943472664496
  0
ARC
  8
_e-0_
  6
CONTINUOUS
 62
    3
 10
2486.5655867677851
 20
162.8171899245882
 40
25.691707563897665
 50
346.24110979921471
 51
329.53046432565099
  0
ARC
  8
_e-0_
  6
CONTINUOUS
 62
    3
 10
2546.5135590423406
 20
162.14309845353909
 40
11.089756641867943
 50
94.502189492040685
 51
357.22978420280037
  0
LINE
  8
_e-0_
  6
CONTINUOUS
 62
    3
 10
2556.5903561511468
 20
173.19863581905565
 11
2545.6430442891501
 21
173.19863581905565
  0
LINE
  8
_e-0_
  6
CONTINUOUS
 62
    3
 10
2557.5903561511468
 20
172.19863581905599
 11
2557.5903561511468
 21
161.60712439988742
  0
ARC
  8
_e-0_
  6
CONTINUOUS
 62
    3
 10
2556.5903561511468
 20
172.19863581905599
 40
1
 50
0
 51
90
  0
LINE
  8
_e-0_
  6
CONTINUOUS
 62
    3
 10
2548.9703457355517
 20
188.29058742736094
 11
2557.3930775458175
 21
188.29058742736094
  0
ARC
  8
_e-0_
  6
CONTINUOUS
 62
    3
 10
2546.9662856612039
 20
162.67716163604518
 40
25.691707563897665
 50
85.526146014136969
 51
347.40557840019874
  0
LINE
  8
_e-0_
  6
CONTINUOUS
 62
    3
 10
2557.3930775458175
 20
209.12865853712901
 11
2557.3930775458175
 21
188.29058742736094
  0
ARC
  8
_e-0_
  6
CONTINUOUS
 62
    3
 10
2558.3930775458175
 20
209.12865853712901
 40
1
 50
90
 51
180
  0
LINE
  8
_e-0_
  6
CONTINUOUS
 62
    3
 10
2572.0397992563612
 20
209.12865853712901
 11
2572.0397992563612
 21
157.07513043814088
  0
LINE
  8
_e-0_
  6
CONTINUOUS
 62
    3
 10
2571.0397992563616
 20
210.12865853712895
 11
2558.3930775458175
 21
210.12865853712895
  0
ARC
  8
_e-0_
  6
CONTINUOUS
 62
    3
 10
2571.0397992563616
 20
209.12865853712901
 40
1
 50
0
 51
90
  0
CIRCLE
  8
_e-0_
  6
CONTINUOUS
 62
    3
 10
2607.4932845795829
 20
162.61858771142584
 40
13.33773795583065
  0
CIRCLE
  8
_e-0_
  6
CONTINUOUS
 62
    3
 10
2607.2095671322085
 20
162.334870264051
 40
25.691707563897665
  0
ARC
  8
_e-0_
  6
CONTINUOUS
 62
    3
 10
2361.3056445788688
 20
183.56108960512415
 40
5
 50
90
 51
106.05338143786269
  0
ARC
  8
_e-0_
  6
CONTINUOUS
 62
    3
 10
2361.3056445788688
 20
183.56108960512415
 40
5
 50
90
 51
106.05338143786269
  0
ARC
  8
_e-0_
  6
CONTINUOUS
 62
    3
 10
2361.3056445788688
 20
183.56108960512415
 40
5
 50
90
 51
106.05338143786269
  0
ARC
  8
_e-0_
  6
CONTINUOUS
 62
    3
 10
2361.3056445788688
 20
183.56108960512415
 40
5
 50
90
 51
106.05338143786269
  0
LINE
  8
_e-0_
  6
CONTINUOUS
 62
    7
 10
2346.3470804331013
 20
179.59716504486777
 11
2368.5044577934554
 21
187.66179087344028
  0
LINE
  8
_e-0_
  6
CONTINUOUS
 62
    7
 10
2361.2415063076145
 20
179.69740385729494
 11
2376.5205845613304
 21
185.25853354867166
  0
LINE
  8
_e-0_
  6
CONTINUOUS
 62
    7
 10
2341.7511550984831
 20
172.60349616177705
 11
2361.2415063076145
 21
179.69740385729494
  0
LINE
  8
_e-0_
  6
CONTINUOUS
 62
    7
 10
2339.9278406436087
 20
166.61897511011602
 11
2357.2356669233163
 21
172.91850869577984
  0
LINE
  8
_e-0_
  6
CONTINUOUS
 62
    7
 10
2339.5613566552269
 20
161.16469698463049
 11
2352.6357267551816
 21
165.92337853279389
  0
LINE
  8
_e-0_
  6
CONTINUOUS
 62
    7
 10
2340.2704529847874
 20
156.10189807943811
 11
2352.3257797311662
 21
160.489678179473
  0
LINE
  8
_e-0_
  6
CONTINUOUS
 62
    7
 10
2341.9204823498939
 20
151.38157079162255
 11
2353.9794571535694
 21
155.77067867592631
  0
LINE
  8
_e-0_
  6
CONTINUOUS
 62
    7
 10
2344.504128974107
 20
147.00105239631881
 11
2357.564943671171
 21
151.75480018131679
  0
LINE
  8
_e-0_
  6
CONTINUOUS
 62
    7
 10
2348.1361647674011
 20
143.00211645248765
 11
2364.9879954656798
 21
149.13568121955449
  0
LINE
  8
_e-0_
  6
CONTINUOUS
 62
    7
 10
2353.1501292054063
 20
139.50616140121155
 11
2375.2534753949121
 21
147.55112149187283
  0
LINE
  8
_e-0_
  6
CONTINUOUS
 62
    7
 10
2360.6217579801264
 20
136.90472301431668
 11
2375.3071030149835
 21
142.24975148693374
  0
LINE
  8
_e-0_
  6
CONTINUOUS
 62
    7
 10
2375.3071030149835
 20
142.24975148693374
 11
2385.0115931457403
 21
145.78189703325932
  0
LINE
  8
_e-0_
  6
CONTINUOUS
 62
    7
 10
2374.4001538198344
 20
147.24053783828736
 11
2389.063020487204
 21
152.57738485422379
  0
LINE
  8
_e-0_
  6
CONTINUOUS
 62
    7
 10
2374.4883804748506
 20
152.59353857696169
 11
2390.6567834919524
 21
158.47835601080646
  0
LINE
  8
_e-0_
  6
CONTINUOUS
 62
    7
 10
2378.4912308361026
 20
159.37134582305873
 11
2390.8686178519897
 21
163.87634627483464
  0
LINE
  8
_e-0_
  6
CONTINUOUS
 62
    7
 10
2378.6565159204478
 20
164.75239353630797
 11
2390.0320630429459
 21
168.89275408738967
  0
LINE
  8
_e-0_
  6
CONTINUOUS
 62
    7
 10
2365.1397018509305
 20
175.7953421400316
 11
2381.7641004494612
 21
181.84612839247364
  0
LINE
  8
_e-0_
  6
CONTINUOUS
 62
    7
 10
2373.159843452322
 20
173.39354609515908
 11
2385.5507858710998
 21
177.90348031010012
  0
LINE
  8
_e-0_
  6
CONTINUOUS
 62
    7
 10
2399.4939617252575
 20
182.97838129215278
 11
2414.0119690553087
 21
188.26250382114977
  0
LINE
  8
_e-0_
  6
CONTINUOUS
 62
    7
 10
2399.4939617252575
 20
177.65749242977335
 11
2428.3670442872125
 21
188.16643505383524
  0
LINE
  8
_e-0_
  6
CONTINUOUS
 62
    7
 10
2399.4939617252575
 20
172.33660356739392
 11
2436.7743097980664
 21
185.90554058897964
  0
LINE
  8
_e-0_
  6
CONTINUOUS
 62
    7
 10
2399.4939617252575
 20
167.01571470501448
 11
2442.1110032081055
 21
182.52704927725858
  0
LINE
  8
_e-0_
  6
CONTINUOUS
 62
    7
 10
2399.4939617252575
 20
161.69482584263505
 11
2414.856930753669
 21
167.28648927893004
  0
LINE
  8
_e-0_
  6
CONTINUOUS
 62
    7
 10
2428.7090082786239
 20
172.32823318076128
 11
2445.9244086202584
 21
178.5941264760919
  0
LINE
  8
_e-0_
  6
CONTINUOUS
 62
    7
 10
2399.4939617252575
 20
156.37393698025562
 11
2414.856930753669
 21
161.96560041655061
  0
LINE
  8
_e-0_
  6
CONTINUOUS
 62
    7
 10
2403.3398935234458
 20
136.49018622829544
 11
2414.856930753669
 21
140.68204496703231
  0
LINE
  8
_e-0_
  6
CONTINUOUS
 62
    7
 10
2399.4939617252575
 20
140.41127039311675
 11
2414.856930753669
 21
146.00293382941202
  0
LINE
  8
_e-0_
  6
CONTINUOUS
 62
    7
 10
2399.4939617252575
 20
145.73215925549646
 11
2414.856930753669
 21
151.32382269179146
  0
LINE
  8
_e-0_
  6
CONTINUOUS
 62
    7
 10
2399.4939617252575
 20
151.0530481178759
 11
2414.856930753669
 21
156.64471155417118
  0
LINE
  8
_e-0_
  6
CONTINUOUS
 62
    7
 10
2436.2585234464268
 20
159.113365397844
 11
2451.1774760289304
 21
164.5434200643038
  0
LINE
  8
_e-0_
  6
CONTINUOUS
 62
    7
 10
2436.2585234464268
 20
153.79247653546485
 11
2451.1774760289304
 21
159.22253120192465
  0
LINE
  8
_e-0_
  6
CONTINUOUS
 62
    7
 10
2436.105047565391
 20
164.37839360784892
 11
2450.3687179376247
 21
169.56994505472636
  0
LINE
  8
_e-0_
  6
CONTINUOUS
 62
    7
 10
2436.2585234464268
 20
148.47158767308542
 11
2451.1774760289304
 21
153.90164233954521
  0
LINE
  8
_e-0_
  6
CONTINUOUS
 62
    7
 10
2436.2585234464268
 20
143.1506988107057
 11
2451.1774760289304
 21
148.5807534771655
  0
LINE
  8
_e-0_
  6
CONTINUOUS
 62
    7
 10
2436.2585234464268
 20
137.82980994832598
 11
2451.1774760289304
 21
143.25986461478606
  0
LINE
  8
_e-0_
  6
CONTINUOUS
 62
    7
 10
2447.1969595258929
 20
136.49018622829544
 11
2451.1774760289304
 21
137.93897575240634
  0
LINE
  8
_e-0_
  6
CONTINUOUS
 62
    7
 10
2434.0189024056153
 20
168.93998772771169
 11
2448.6296862431445
 21
174.25787814386978
  0
LINE
  8
_e-0_
  6
CONTINUOUS
 62
    7
 10
2469.1883842563338
 20
181.74063227593791
 11
2487.7135419125711
 21
188.48323824789645
  0
LINE
  8
_e-0_
  6
CONTINUOUS
 62
    7
 10
2463.6316388937825
 20
174.39725350219305
 11
2496.6904887083792
 21
186.42969081378254
  0
LINE
  8
_e-0_
  6
CONTINUOUS
 62
    7
 10
2461.4628990865917
 20
168.28700790412767
 11
2502.2794299488264
 21
183.14301020398858
  0
LINE
  8
_e-0_
  6
CONTINUOUS
 62
    7
 10
2461.4992419870632
 20
162.97934677574687
 11
2473.9894671720021
 21
167.52541696234658
  0
LINE
  8
_e-0_
  6
CONTINUOUS
 62
    7
 10
2492.1508316310541
 20
174.13561303910114
 11
2506.2885679576884
 21
179.28132824190015
  0
LINE
  8
_e-0_
  6
CONTINUOUS
 62
    7
 10
2496.6927278595248
 20
170.46783921101109
 11
2509.1784918759253
 21
175.01228566505261
  0
LINE
  8
_e-0_
  6
CONTINUOUS
 62
    7
 10
2463.2093427036916
 20
158.28088367181749
 11
2488.4793399340492
 21
167.47841048365671
  0
LINE
  8
_e-0_
  6
CONTINUOUS
 62
    7
 10
2462.8888794596255
 20
152.84335572742151
 11
2511.1140538755621
 21
170.39588375711787
  0
LINE
  8
_e-0_
  6
CONTINUOUS
 62
    7
 10
2465.300291731432
 20
148.400149154524
 11
2476.9283430630944
 21
152.63241372176821
  0
LINE
  8
_e-0_
  6
CONTINUOUS
 62
    7
 10
2488.1225212892722
 20
156.70676139316753
 11
2512.1228430370119
 21
165.44216412215632
  0
LINE
  8
_e-0_
  6
CONTINUOUS
 62
    7
 10
2502.7415432900879
 20
156.70676139316753
 11
2512.1151621126959
 21
160.11847963195407
  0
LINE
  8
_e-0_
  6
CONTINUOUS
 62
    7
 10
2468.7281740890052
 20
144.32690743686691
 11
2482.5550140975401
 21
149.35946563393486
  0
LINE
  8
_e-0_
  6
CONTINUOUS
 62
    7
 10
2473.4508580764295
 20
140.72493497175571
 11
2502.4973614552445
 21
151.29699761115659
  0
LINE
  8
_e-0_
  6
CONTINUOUS
 62
    7
 10
2480.3069495598269
 20
137.89945933273884
 11
2507.3767895083869
 21
147.75207532036432
  0
LINE
  8
_e-0_
  6
CONTINUOUS
 62
    7
 10
2552.6231690921717
 20
137.61596638527407
 11
2558.7418873346696
 21
139.84299769740459
  0
LINE
  8
_e-0_
  6
CONTINUOUS
 62
    7
 10
2539.4012676014826
 20
138.12447666464265
 11
2568.5435873921023
 21
148.73141362589478
  0
LINE
  8
_e-0_
  6
CONTINUOUS
 62
    7
 10
2532.9976800904732
 20
141.11465028049622
 11
2571.5269734698549
 21
155.13816621790056
  0
LINE
  8
_e-0_
  6
CONTINUOUS
 62
    7
 10
2522.081864354775
 20
169.06695144424446
 11
2572.0397992563612
 21
187.25015271383
  0
LINE
  8
_e-0_
  6
CONTINUOUS
 62
    7
 10
2524.5896829795606
 20
175.30061163898437
 11
2572.0397992563612
 21
192.57104157620943
  0
LINE
  8
_e-0_
  6
CONTINUOUS
 62
    7
 10
2557.3930775458175
 20
208.52362629350906
 11
2561.8028673926596
 21
210.12865853712895
  0
LINE
  8
_e-0_
  6
CONTINUOUS
 62
    7
 10
2557.3930775458175
 20
203.20273743112977
 11
2572.0397992563612
 21
208.53370816334788
  0
LINE
  8
_e-0_
  6
CONTINUOUS
 62
    7
 10
2557.3930775458175
 20
197.88184856875005
 11
2572.0397992563612
 21
203.21281930096859
  0
LINE
  8
_e-0_
  6
CONTINUOUS
 62
    7
 10
2557.3930775458175
 20
192.56095970637034
 11
2572.0397992563612
 21
197.89193043858915
  0
LINE
  8
_e-0_
  6
CONTINUOUS
 62
    7
 10
2531.3600319802562
 20
183.08570601321093
 11
2545.8030101140193
 21
188.34252014805827
  0
LINE
  8
_e-0_
  6
CONTINUOUS
 62
    7
 10
2548.0525958796984
 20
173.19863581905565
 11
2572.0397992563612
 21
181.92926385145057
  0
LINE
  8
_e-0_
  6
CONTINUOUS
 62
    7
 10
2521.2864022906337
 20
163.45653806802943
 11
2538.3752084417083
 21
169.67635484616607
  0
LINE
  8
_e-0_
  6
CONTINUOUS
 62
    7
 10
2521.6554107736333
 20
158.26995730965364
 11
2535.4846691325356
 21
163.30339571427089
  0
LINE
  8
_e-0_
  6
CONTINUOUS
 62
    7
 10
2522.9940114609526
 20
153.43627925302655
 11
2536.1404517985765
 21
158.22119222247806
  0
LINE
  8
_e-0_
  6
CONTINUOUS
 62
    7
 10
2525.2563435788042
 20
148.93881194156961
 11
2539.0354883761397
 21
153.95401050144357
  0
LINE
  8
_e-0_
  6
CONTINUOUS
 62
    7
 10
2528.5117312327797
 20
144.80278728623488
 11
2545.7561370732087
 21
151.07923771975691
  0
LINE
  8
_e-0_
  6
CONTINUOUS
 62
    7
 10
2554.2054905278623
 20
154.15455087604527
 11
2572.0397992563612
 21
160.64570840193255
  0
LINE
  8
_e-0_
  6
CONTINUOUS
 62
    7
 10
2557.505937791675
 20
160.67670430221767
 11
2572.0397992563612
 21
165.96659726431198
  0
LINE
  8
_e-0_
  6
CONTINUOUS
 62
    7
 10
2557.5903561511468
 20
166.02831893467055
 11
2572.0397992563612
 21
171.28748612669141
  0
LINE
  8
_e-0_
  6
CONTINUOUS
 62
    7
 10
2557.5903561511468
 20
171.34920779704998
 11
2572.0397992563612
 21
176.60837498907085
  0
LINE
  8
_e-0_
  6
CONTINUOUS
 62
    7
 10
2595.1467628188602
 20
185.01862193009401
 11
2601.869376832742
 21
187.46545332760774
  0
LINE
  8
_e-0_
  6
CONTINUOUS
 62
    7
 10
2585.5936460434281
 20
176.22068291698809
 11
2614.8426950414304
 21
186.86646613285404
  0
LINE
  8
_e-0_
  6
CONTINUOUS
 62
    7
 10
2608.5181174973608
 20
136.67650840108905
 11
2622.7000364868072
 21
141.83830477802189
  0
LINE
  8
_e-0_
  6
CONTINUOUS
 62
    7
 10
2598.2444761483161
 20
138.25809761488983
 11
2629.5534764025951
 21
149.65364177207987
  0
LINE
  8
_e-0_
  6
CONTINUOUS
 62
    7
 10
2582.6330921261528
 20
169.82224055178022
 11
2621.2234503919626
 21
183.86798229020314
  0
LINE
  8
_e-0_
  6
CONTINUOUS
 62
    7
 10
2592.2968185805402
 20
141.41421615899105
 11
2632.0809325371146
 21
155.89444943583799
  0
LINE
  8
_e-0_
  6
CONTINUOUS
 62
    7
 10
2588.0695495912832
 20
145.19650493704432
 11
2602.246111940276
 21
150.35635165629656
  0
LINE
  8
_e-0_
  6
CONTINUOUS
 62
    7
 10
2585.0094293819529
 20
149.40360112995108
 11
2597.3909335115822
 21
153.91010008858017
  0
LINE
  8
_e-0_
  6
CONTINUOUS
 62
    7
 10
2582.919829983693
 20
153.96393800982366
 11
2594.8695180063709
 21
158.31326875884542
  0
LINE
  8
_e-0_
  6
CONTINUOUS
 62
    7
 10
2581.7538748691904
 20
158.86045391603374
 11
2594.1774270088017
 21
163.38225709870641
  0
LINE
  8
_e-0_
  6
CONTINUOUS
 62
    7
 10
2581.5798124660104
 20
164.11798924475078
 11
2595.9853391150813
 21
169.36117215394091
  0
LINE
  8
_e-0_
  6
CONTINUOUS
 62
    7
 10
2611.9748325174678
 20
175.18087181340547
 11
2625.6969314853622
 21
180.17530738937352
  0
LINE
  8
_e-0_
  6
CONTINUOUS
 62
    7
 10
2617.2029460570038
 20
171.76286066078091
 11
2628.9430705154381
 21
176.03591651023151
  0
LINE
  8
_e-0_
  6
CONTINUOUS
 62
    7
 10
2619.9310564926913
 20
167.43492279278257
 11
2631.1973168341919
 21
171.53550620858254
  0
LINE
  8
_e-0_
  6
CONTINUOUS
 62
    7
 10
2620.8298424207368
 20
162.44116525518904
 11
2632.5279188691888
 21
166.69891688059578
  0
LINE
  8
_e-0_
  6
CONTINUOUS
 62
    7
 10
2619.394865425299
 20
156.5979874796136
 11
2632.8880000931144
 21
161.50908686564349
  0
TEXT
  8
_e-0_
 62
    7
 10
2642.8586825750176
 20
180.56247057449553
 40
35
 41
0.5714285714285713
 50
0
  1
ワンド
  0
TEXT
  8
_e-0_
 62
    7
 10
2649.7045100149039
 20
147.0179161190498
 40
30
 41
0.6666666666666666
 50
0
  1
株式
  0
TEXT
  8
_e-0_
 62
    7
 10
2649.0199272709155
 20
118.95002361551377
 40
30
 41
0.6666666666666666
 50
0
  1
会社
  0
TEXT
  8
_0-0_
 62
    7
 10
3582
 20
145
 40
30
 41
0.7333333333333332
 50
0
  1
Ｔ．Ｋ
  0
ENDSEC
  0
EOF
