  0
SECTION
  2
HEADER
  9
$ACADVER
  1
AC1009
  9
$INSBASE
 10
0
 20
0
 30
0
  9
$EXTMIN
 10
0
 20
0
  9
$EXTMAX
 10
4200
 20
2970
  9
$LIMMIN
 10
0
 20
0
  9
$LIMMAX
 10
4200
 20
2970
  9
$LTSCALE
 40
10
  0
ENDSEC
  0
SECTION
  2
TABLES
  0
TABLE
  2
LTYPE
 70
     9
  0
LTYPE
  2
CONTINUOUS
 70
    64
  3
実線
 72
    65
 73
     0
 40
0.0
  0
LTYPE
  2
DASHED1
 70
    64
  3
--  --  --  --  --  --  --  --  
 72
    65
 73
     2
 40
2.5
 49
1.25
 49
-1.25
  0
LTYPE
  2
DASHED2
 70
    64
  3
----    ----    ----    ----    
 72
    65
 73
     2
 40
5.0
 49
2.5
 49
-2.5
  0
LTYPE
  2
DASHED3
 70
    64
  3
------  ------  ------  ------  
 72
    65
 73
     2
 40
5.0
 49
3.75
 49
-1.25
  0
LTYPE
  2
CENTER1
 70
    64
  3
----- - ----- - ----- - ----- - 
 72
    65
 73
     4
 40
10.0
 49
6.25
 49
-1.25
 49
1.25
 49
-1.25
  0
LTYPE
  2
CENTER2
 70
    64
  3
----------  --  ----------  --  
 72
    65
 73
     4
 40
20.0
 49
12.5
 49
-2.5
 49
2.5
 49
-2.5
  0
LTYPE
  2
PHANTOM1
 70
    64
  3
--- - - --- - - --- - - --- - - 
 72
    65
 73
     6
 40
10.0
 49
3.25
 49
-1.25
 49
1.25
 49
-1.25
 49
1.25
 49
-1.25
  0
LTYPE
  2
PHANTOM2
 70
    64
  3
--------  -  -  --------  -  -  
 72
    65
 73
     6
 40
20.0
 49
10.0
 49
-2.5
 49
1.25
 49
-2.5
 49
1.25
 49
-2.5
  0
LTYPE
  2
DOT
 70
    64
  3
-   -   -   -   -   -   -   -   
 72
    65
 73
     2
 40
2.5
 49
0.625
 49
-1.875
  0
LTYPE
  2
DUMMY
 70
    64
  3
ダミー
 72
    65
 73
     0
 40
0.0
  0
LTYPE
  2
RAND1
 70
    64
  3
ランダム線1
 72
    65
 73
     4
 40
10.0
 49
1.0
 49
-2.0
 49
3.0
 49
-4.0
  0
LTYPE
  2
RAND2
 70
    64
  3
ランダム線2
 72
    65
 73
     4
 40
14.0
 49
2.0
 49
-3.0
 49
4.0
 49
-5.0
  0
LTYPE
  2
RAND3
 70
    64
  3
ランダム線3
 72
    65
 73
     4
 40
18.0
 49
3.0
 49
-4.0
 49
5.0
 49
-6.0
  0
LTYPE
  2
RAND4
 70
    64
  3
ランダム線4
 72
    65
 73
     4
 40
22.0
 49
4.0
 49
-5.0
 49
6.0
 49
-7.0
  0
LTYPE
  2
RAND5
 70
    64
  3
ランダム線5
 72
    65
 73
     4
 40
26.0
 49
5.0
 49
-6.0
 49
7.0
 49
-8.0
  0
LTYPE
  2
LONG1
 70
    64
  3
----------  --  ----------  --  
 72
    65
 73
     4
 40
40.0
 49
32.5
 49
-2.5
 49
2.5
 49
-2.5
  0
LTYPE
  2
LONG2
 70
    64
  3
--------  -  -  --------  -  -  
 72
    65
 73
     6
 40
40.0
 49
30.0
 49
-2.5
 49
1.25
 49
-2.5
 49
1.25
 49
-2.5
  0
LTYPE
  2
LONG3
 70
    64
  3
+++++++++++++++..+++++++++++++++
 72
    65
 73
     2
 40
40.0
 49
37.5
 49
-2.5
  0
LTYPE
  2
LONG4
 70
    64
  3
+++++++++++++++..+++++++++++++++
 72
    65
 73
     2
 40
80.0
 49
75.0
 49
-5.0
  0
LTYPE
  2
LONG5
 70
    64
  3
----------  --  ----------  --  
 72
    65
 73
     4
 40
60.0
 49
37.5
 49
-7.5
 49
7.5
 49
-7.5
  0
LTYPE
  2
dashed
 70
   64
  3
-------   -------------   ------
 72
   65
 73
    2
 40
7.5
 49
6
 49
-1.5
  0
LTYPE
  2
dashed_spaced
 70
   64
  3
----        --------        ----
 72
   65
 73
    2
 40
12
 49
6
 49
-6
  0
LTYPE
  2
long_dashed_dotted
 70
   64
  3
------------- --- --------------
 72
   65
 73
    4
 40
15.25
 49
12
 49
-1.5
 49
0.25
 49
-1.5
  0
LTYPE
  2
long_dashed_double-dotted
 70
   64
  3
----------- --- --- ------------
 72
   65
 73
    6
 40
17
 49
12
 49
-1.5
 49
0.25
 49
-1.5
 49
0.25
 49
-1.5
  0
LTYPE
  2
long_dashed_triplicate-dotted
 70
   64
  3
--------- --- --- --- ----------
 72
   65
 73
    8
 40
18.75
 49
12
 49
-1.5
 49
0.25
 49
-1.5
 49
0.25
 49
-1.5
 49
0.25
 49
-1.5
  0
LTYPE
  2
dotted
 70
   64
  3
   -       -       -       -    
 72
   65
 73
    2
 40
1.75
 49
0.25
 49
-1.5
  0
LTYPE
  2
chain
 70
   64
  3
-------------- -- --------------
 72
   65
 73
    4
 40
18.5
 49
12
 49
-1.5
 49
3.5
 49
-1.5
  0
LTYPE
  2
chain_double_dash
 70
   64
  3
------------ -- -- -------------
 72
   65
 73
    6
 40
23.5
 49
12
 49
-1.5
 49
3.5
 49
-1.5
 49
3.5
 49
-1.5
  0
LTYPE
  2
dashed_dotted
 70
   64
  3
-----------     -     ----------
 72
   65
 73
    4
 40
9.25
 49
6
 49
-1.5
 49
0.25
 49
-1.5
  0
LTYPE
  2
double-dashed_dotted
 70
   64
  3
------   -----------   -   -----
 72
   65
 73
    6
 40
16.75
 49
6
 49
-1.5
 49
6
 49
-1.5
 49
0.25
 49
-1.5
  0
LTYPE
  2
dashed_double-dotted
 70
   64
  3
---------    -    -    ---------
 72
   65
 73
    6
 40
11
 49
6
 49
-1.5
 49
0.25
 49
-1.5
 49
0.25
 49
-1.5
  0
LTYPE
  2
double-dashed_double-dotted
 70
   64
  3
-----   ---------   -   -   ----
 72
   65
 73
    8
 40
18.5
 49
6
 49
-1.5
 49
6
 49
-1.5
 49
0.25
 49
-1.5
 49
0.25
 49
-1.5
  0
LTYPE
  2
dashed_triplicate-dotted
 70
   64
  3
-------    -    -    -    ------
 72
   65
 73
    8
 40
12.75
 49
6
 49
-1.5
 49
0.25
 49
-1.5
 49
0.25
 49
-1.5
 49
0.25
 49
-1.5
  0
LTYPE
  2
double-dashed_triplicate-dotted
 70
   64
  3
-----  ---------  -  -  -  -----
 72
   65
 73
   10
 40
20.25
 49
6
 49
-1.5
 49
6
 49
-1.5
 49
0.25
 49
-1.5
 49
0.25
 49
-1.5
 49
0.25
 49
-1.5
  0
LTYPE
  2
undefined
 70
   64
  3
--------------------------------
 72
   65
 73
    0
 40
0
  0
LTYPE
  2
_
 70
   64
  3
                                
 72
   65
 73
    0
 40
0
  0
LTYPE
  2
__18
 70
   64
  3
                                
 72
   65
 73
    0
 40
0
  0
LTYPE
  2
__19
 70
   64
  3
                                
 72
   65
 73
    0
 40
0
  0
LTYPE
  2
__20
 70
   64
  3
                                
 72
   65
 73
    0
 40
0
  0
LTYPE
  2
__21
 70
   64
  3
                                
 72
   65
 73
    0
 40
0
  0
LTYPE
  2
__22
 70
   64
  3
                                
 72
   65
 73
    0
 40
0
  0
LTYPE
  2
__23
 70
   64
  3
                                
 72
   65
 73
    0
 40
0
  0
LTYPE
  2
__24
 70
   64
  3
                                
 72
   65
 73
    0
 40
0
  0
LTYPE
  2
__25
 70
   64
  3
                                
 72
   65
 73
    0
 40
0
  0
LTYPE
  2
__26
 70
   64
  3
                                
 72
   65
 73
    0
 40
0
  0
LTYPE
  2
__27
 70
   64
  3
                                
 72
   65
 73
    0
 40
0
  0
LTYPE
  2
__28
 70
   64
  3
                                
 72
   65
 73
    0
 40
0
  0
LTYPE
  2
__29
 70
   64
  3
                                
 72
   65
 73
    0
 40
0
  0
LTYPE
  2
__30
 70
   64
  3
                                
 72
   65
 73
    0
 40
0
  0
LTYPE
  2
__31
 70
   64
  3
                                
 72
   65
 73
    0
 40
0
  0
LTYPE
  2
__32
 70
   64
  3
                                
 72
   65
 73
    0
 40
0
  0
ENDTAB
  0
TABLE
  2
STYLE
  5
3
100
AcDbSymbolTable
 70
     1
  0
STYLE
  5
10
100
AcDbSymbolTableRecord
100
AcDbTextStyleTableRecord
  2
STANDARD
 70
     0
 40
0.0
 41
1.0
 50
0.0
 71
     0
 42
0.2
  3
txt
  4
bigfont.shx
  0
STYLE
  5
26
100
AcDbSymbolTableRecord
100
AcDbTextStyleTableRecord
  2
TATEGAKI
 70
    68
 40
0.0
 41
1.0
 50
0.0
 71
     0
 42
1.0
  3
txt
  4
bigfont.shx
  0
ENDTAB
  0
TABLE
  2
LAYER
 70
   17
  0
LAYER
  2
_0-0_
 70
   64
 62
    7
  6
CONTINUOUS
  0
LAYER
  2
_0-2_天板
 70
   64
 62
    7
  6
CONTINUOUS
  0
LAYER
  2
_0-3_キャビネット
 70
   64
 62
    7
  6
CONTINUOUS
  0
LAYER
  2
_0-4_扉
 70
   64
 62
    7
  6
CONTINUOUS
  0
LAYER
  2
_0-5_把手
 70
   64
 62
    7
  6
CONTINUOUS
  0
LAYER
  2
_0-6_
 70
   64
 62
    7
  6
CONTINUOUS
  0
LAYER
  2
_0-7_
 70
   64
 62
    7
  6
CONTINUOUS
  0
LAYER
  2
_0-8_
 70
   64
 62
    7
  6
CONTINUOUS
  0
LAYER
  2
_0-9_寸法線
 70
   64
 62
    7
  6
CONTINUOUS
  0
LAYER
  2
_0-b_
 70
   64
 62
    7
  6
CONTINUOUS
  0
LAYER
  2
_0-d_仕様表
 70
   64
 62
    7
  6
CONTINUOUS
  0
LAYER
  2
_e-0_
 70
   64
 62
    7
  6
CONTINUOUS
  0
LAYER
  2
_f-7_
 70
   64
 62
    7
  6
CONTINUOUS
  0
LAYER
  2
_f-8_
 70
   64
 62
    7
  6
CONTINUOUS
  0
LAYER
  2
_f-9_
 70
   64
 62
    7
  6
CONTINUOUS
  0
LAYER
  2
_f-d_固定文字
 70
   64
 62
    7
  6
CONTINUOUS
  0
LAYER
  2
ADD_LINE
 70
   64
 62
    7
  6
CONTINUOUS
  0
ENDTAB
  0
ENDSEC
  0
SECTION
  2
BLOCKS
  0
ENDSEC
  0
SECTION
  2
ENTITIES
  0
TEXT
  8
_0-9_寸法線
 62
    7
 10
1129.762526035422
 20
602.95000000000004
 40
35
 41
0.6285714285714286
 50
90
  1
９０
  0
LINE
  8
_0-3_キャビネット
  6
CONTINUOUS
 62
    2
 10
935.26252603542275
 20
1267.5
 11
494.76252603542263
 21
1267.5
  0
LINE
  8
_0-3_キャビネット
  6
CONTINUOUS
 62
    9
 10
2270.9214458965811
 20
1375
 11
1930.9214458965811
 21
1375
  0
LINE
  8
_0-6_
  6
CONTINUOUS
 62
    5
 10
2133.4212809366995
 20
648.50006928315042
 11
2136.9212809366995
 21
651.00006928315042
  0
LINE
  8
_0-6_
  6
CONTINUOUS
 62
    5
 10
2136.9212809366995
 20
651.00006928315042
 11
2133.4212809366995
 21
653.50006928315042
  0
LINE
  8
_0-6_
  6
CONTINUOUS
 62
    5
 10
2133.4212809366995
 20
653.50006928315042
 11
2136.9212809366995
 21
656.00006928315042
  0
LINE
  8
_0-6_
  6
CONTINUOUS
 62
    5
 10
2136.9212809366995
 20
656.00006928315042
 11
2133.4212809366995
 21
658.50006928315042
  0
LINE
  8
_0-6_
  6
CONTINUOUS
 62
    5
 10
2136.9212809366995
 20
646.00006928315042
 11
2133.4212809366995
 21
648.50006928315042
  0
LINE
  8
_0-6_
  6
CONTINUOUS
 62
    5
 10
2150.9212149527465
 20
1070.9995744035052
 11
2164.9213601174424
 21
1070.9995744035052
  0
LINE
  8
_0-6_
  6
CONTINUOUS
 62
    5
 10
2136.9210697880507
 20
1075.9995908994937
 11
2150.9212149527465
 21
1075.9995908994937
  0
LINE
  8
_0-6_
  6
CONTINUOUS
 62
    5
 10
2136.9210697880507
 20
1065.9995579075171
 11
2150.9212149527465
 21
1065.9995579075171
  0
LINE
  8
_0-6_
  6
CONTINUOUS
 62
    5
 10
2136.9210697880507
 20
1045.9997393633871
 11
2150.9212149527465
 21
1045.9997393633871
  0
LINE
  8
_0-6_
  6
CONTINUOUS
 62
    5
 10
2150.9212149527465
 20
1050.9997558593754
 11
2164.9213601174424
 21
1050.9997558593754
  0
LINE
  8
_0-6_
  6
CONTINUOUS
 62
    5
 10
2136.9210697880507
 20
1055.9997723553635
 11
2150.9212149527465
 21
1055.9997723553635
  0
LINE
  8
_0-6_
  6
CONTINUOUS
 62
    5
 10
2150.9212149527465
 20
1060.9997888513516
 11
2164.9213601174424
 21
1060.9997888513516
  0
LINE
  8
_0-6_
  6
CONTINUOUS
 62
    5
 10
2150.9212149527465
 20
1050.999755859375
 11
2164.9213601174424
 21
1050.999755859375
  0
LINE
  8
_0-6_
  6
CONTINUOUS
 62
    5
 10
2136.9210697880507
 20
1055.9997723553635
 11
2150.9212149527465
 21
1055.9997723553635
  0
LINE
  8
_0-6_
  6
CONTINUOUS
 62
    5
 10
2136.9210697880507
 20
1045.9997393633871
 11
2150.9212149527465
 21
1045.9997393633871
  0
LINE
  8
_0-6_
  6
CONTINUOUS
 62
    5
 10
2136.9210697880507
 20
1025.9999208192566
 11
2150.9212149527465
 21
1025.9999208192566
  0
LINE
  8
_0-6_
  6
CONTINUOUS
 62
    5
 10
2150.9212149527465
 20
1030.9999373152454
 11
2164.9213601174424
 21
1030.9999373152454
  0
LINE
  8
_0-6_
  6
CONTINUOUS
 62
    5
 10
2136.9210697880507
 20
1035.9999538112333
 11
2150.9212149527465
 21
1035.9999538112333
  0
LINE
  8
_0-6_
  6
CONTINUOUS
 62
    5
 10
2150.9212149527465
 20
1040.9999703072212
 11
2164.9213601174424
 21
1040.9999703072212
  0
LINE
  8
_0-6_
  6
LONG3
 62
    5
 10
2136.9210697880507
 20
705.99993731524489
 11
2135.5210394746209
 21
704.99990152221744
  0
LINE
  8
_0-6_
  6
LONG3
 62
    5
 10
2133.4212809366995
 20
708.50006928315042
 11
2136.9210697880507
 21
705.99993731524489
  0
LINE
  8
_0-6_
  6
LONG3
 62
    5
 10
2136.9210697880507
 20
710.99995381123324
 11
2133.4212809366995
 21
708.50006928315042
  0
LINE
  8
_0-6_
  6
LONG3
 62
    5
 10
2133.4212809366995
 20
713.50008577913843
 11
2136.9210697880507
 21
710.99995381123324
  0
LINE
  8
_0-6_
  6
LONG3
 62
    5
 10
2136.9210697880507
 20
715.99997030722124
 11
2133.4212809366995
 21
713.50008577913843
  0
LINE
  8
_0-6_
  6
LONG3
 62
    5
 10
2133.4212809366995
 20
718.50010227512666
 11
2136.9210697880507
 21
715.99997030722124
  0
LINE
  8
_0-6_
  6
LONG3
 62
    5
 10
2136.9210697880507
 20
720.99998680320948
 11
2133.4212809366995
 21
718.50010227512666
  0
LINE
  8
_0-6_
  6
LONG3
 62
    5
 10
2133.4212809366995
 20
723.50011877111501
 11
2136.9210697880507
 21
720.99998680320948
  0
LINE
  8
_0-6_
  6
LONG3
 62
    5
 10
2136.9210697880507
 20
726.00000329919748
 11
2133.4212809366995
 21
723.50011877111501
  0
LINE
  8
_0-6_
  6
LONG3
 62
    5
 10
2133.4212809366995
 20
728.4998878272803
 11
2136.9210697880507
 21
726.00000329919748
  0
LINE
  8
_0-6_
  6
LONG3
 62
    5
 10
2136.9210697880507
 20
731.00001979518583
 11
2133.4212809366995
 21
728.4998878272803
  0
LINE
  8
_0-6_
  6
LONG3
 62
    5
 10
2133.4212809366995
 20
733.49990432326865
 11
2136.9210697880507
 21
731.00001979518583
  0
LINE
  8
_0-6_
  6
LONG3
 62
    5
 10
2136.9210697880507
 20
736.00003629117406
 11
2133.4212809366995
 21
733.49990432326865
  0
LINE
  8
_0-6_
  6
LONG3
 62
    5
 10
2133.4212809366995
 20
738.49992081925688
 11
2136.9210697880507
 21
736.00003629117406
  0
LINE
  8
_0-6_
  6
LONG3
 62
    5
 10
2136.9210697880507
 20
741.00005278716207
 11
2133.4212809366995
 21
738.49992081925688
  0
LINE
  8
_0-6_
  6
LONG3
 62
    5
 10
2133.4212809366995
 20
743.49993731524489
 11
2136.9210697880507
 21
741.00005278716207
  0
LINE
  8
_0-6_
  6
LONG3
 62
    5
 10
2136.9210697880507
 20
746.00006928315042
 11
2133.4212809366995
 21
743.49993731524489
  0
LINE
  8
_0-6_
  6
LONG3
 62
    5
 10
2133.4212809366995
 20
748.49995381123324
 11
2136.9210697880507
 21
746.00006928315042
  0
LINE
  8
_0-6_
  6
LONG3
 62
    5
 10
2136.9210697880507
 20
751.00008577913843
 11
2133.4212809366995
 21
748.49995381123324
  0
LINE
  8
_0-6_
  6
LONG3
 62
    5
 10
2133.4212809366995
 20
753.49997030722124
 11
2136.9210697880507
 21
751.00008577913843
  0
LINE
  8
_0-6_
  6
LONG3
 62
    5
 10
2136.9210697880507
 20
756.00010227512666
 11
2133.4212809366995
 21
753.49997030722124
  0
LINE
  8
_0-6_
  6
LONG3
 62
    5
 10
2133.4212809366995
 20
758.49998680320948
 11
2136.9210697880507
 21
756.00010227512666
  0
LINE
  8
_0-6_
  6
LONG3
 62
    5
 10
2136.9210697880507
 20
761.00011877111501
 11
2133.4212809366995
 21
758.49998680320948
  0
LINE
  8
_0-6_
  6
LONG3
 62
    5
 10
2133.4212809366995
 20
763.50000329919748
 11
2136.9210697880507
 21
761.00011877111501
  0
LINE
  8
_0-6_
  6
LONG3
 62
    5
 10
2136.9210697880507
 20
765.9998878272803
 11
2133.4212809366995
 21
763.50000329919748
  0
LINE
  8
_0-6_
  6
LONG3
 62
    5
 10
2133.4212809366995
 20
768.50001979518583
 11
2136.9210697880507
 21
765.9998878272803
  0
LINE
  8
_0-6_
  6
LONG3
 62
    5
 10
2136.9210697880507
 20
770.99990432326865
 11
2133.4212809366995
 21
768.50001979518583
  0
LINE
  8
_0-6_
  6
LONG3
 62
    5
 10
2133.4212809366995
 20
773.50003629117406
 11
2136.9210697880507
 21
770.99990432326865
  0
LINE
  8
_0-6_
  6
LONG3
 62
    5
 10
2136.9210697880507
 20
775.99992081925688
 11
2133.4212809366995
 21
773.50003629117406
  0
LINE
  8
_0-6_
  6
LONG3
 62
    5
 10
2133.4212809366995
 20
778.50005278716207
 11
2136.9210697880507
 21
775.99992081925688
  0
LINE
  8
_0-6_
  6
LONG3
 62
    5
 10
2136.9210697880507
 20
780.99993731524489
 11
2133.4212809366995
 21
778.50005278716207
  0
LINE
  8
_0-6_
  6
LONG3
 62
    5
 10
2133.4212809366995
 20
783.50006928315042
 11
2136.9210697880507
 21
780.99993731524489
  0
LINE
  8
_0-6_
  6
LONG3
 62
    5
 10
2136.9210697880507
 20
785.99995381123324
 11
2133.4212809366995
 21
783.50006928315042
  0
LINE
  8
_0-6_
  6
LONG3
 62
    5
 10
2133.4212809366995
 20
788.50008577913843
 11
2136.9210697880507
 21
785.99995381123324
  0
LINE
  8
_0-6_
  6
LONG3
 62
    5
 10
2136.9210697880507
 20
790.99997030722124
 11
2133.4212809366995
 21
788.50008577913843
  0
LINE
  8
_0-6_
  6
LONG3
 62
    5
 10
2133.4212809366995
 20
793.50010227512666
 11
2136.9210697880507
 21
790.99997030722124
  0
LINE
  8
_0-6_
  6
LONG3
 62
    5
 10
2136.9210697880507
 20
795.99998680320948
 11
2133.4212809366995
 21
793.50010227512666
  0
LINE
  8
_0-6_
  6
LONG3
 62
    5
 10
2133.4212809366995
 20
798.50011877111501
 11
2136.9210697880507
 21
795.99998680320948
  0
LINE
  8
_0-6_
  6
LONG3
 62
    5
 10
2136.9210697880507
 20
801.00000329919748
 11
2133.4212809366995
 21
798.50011877111501
  0
LINE
  8
_0-6_
  6
LONG3
 62
    5
 10
2133.4212809366995
 20
803.4998878272803
 11
2136.9210697880507
 21
801.00000329919748
  0
LINE
  8
_0-6_
  6
LONG3
 62
    5
 10
2136.9210697880507
 20
806.00001979518583
 11
2133.4212809366995
 21
803.4998878272803
  0
LINE
  8
_0-6_
  6
LONG3
 62
    5
 10
2133.4212809366995
 20
808.49990432326865
 11
2136.9210697880507
 21
806.00001979518583
  0
LINE
  8
_0-6_
  6
LONG3
 62
    5
 10
2136.9210697880507
 20
811.00003629117406
 11
2133.4212809366995
 21
808.49990432326865
  0
LINE
  8
_0-6_
  6
LONG3
 62
    5
 10
2133.4212809366995
 20
813.49992081925688
 11
2136.9210697880507
 21
811.00003629117406
  0
LINE
  8
_0-6_
  6
LONG3
 62
    5
 10
2136.9210697880507
 20
816.00005278716207
 11
2133.4212809366995
 21
813.49992081925688
  0
LINE
  8
_0-6_
  6
LONG3
 62
    5
 10
2133.4212809366995
 20
818.49993731524489
 11
2136.9210697880507
 21
816.00005278716207
  0
LINE
  8
_0-6_
  6
LONG3
 62
    5
 10
2136.9210697880507
 20
821.00006928315042
 11
2133.4212809366995
 21
818.49993731524489
  0
LINE
  8
_0-6_
  6
LONG3
 62
    5
 10
2133.4212809366995
 20
823.49995381123324
 11
2136.9210697880507
 21
821.00006928315042
  0
LINE
  8
_0-6_
  6
LONG3
 62
    5
 10
2136.9210697880507
 20
826.00008577913843
 11
2133.4212809366995
 21
823.49995381123324
  0
LINE
  8
_0-6_
  6
LONG3
 62
    5
 10
2133.4212809366995
 20
828.49997030722124
 11
2136.9210697880507
 21
826.00008577913843
  0
LINE
  8
_0-6_
  6
LONG3
 62
    5
 10
2136.9210697880507
 20
831.00010227512666
 11
2133.4212809366995
 21
828.49997030722124
  0
LINE
  8
_0-6_
  6
LONG3
 62
    5
 10
2133.4212809366995
 20
833.49998680320948
 11
2136.9210697880507
 21
831.00010227512666
  0
LINE
  8
_0-6_
  6
LONG3
 62
    5
 10
2136.9210697880507
 20
836.00011877111501
 11
2133.4212809366995
 21
833.49998680320948
  0
LINE
  8
_0-6_
  6
LONG3
 62
    5
 10
2133.4212809366995
 20
838.50000329919748
 11
2136.9210697880507
 21
836.00011877111501
  0
LINE
  8
_0-6_
  6
LONG3
 62
    5
 10
2136.9210697880507
 20
840.9998878272803
 11
2133.4212809366995
 21
838.50000329919748
  0
LINE
  8
_0-6_
  6
LONG3
 62
    5
 10
2133.4212809366995
 20
843.50001979518583
 11
2136.9210697880507
 21
840.9998878272803
  0
LINE
  8
_0-6_
  6
LONG3
 62
    5
 10
2136.9210697880507
 20
845.99990432326853
 11
2133.4212809366995
 21
843.50001979518583
  0
LINE
  8
_0-6_
  6
LONG3
 62
    5
 10
2133.4212809366995
 20
848.50003629117395
 11
2136.9210697880507
 21
845.99990432326853
  0
LINE
  8
_0-6_
  6
LONG3
 62
    5
 10
2136.9210697880507
 20
850.99992081925677
 11
2133.4212809366995
 21
848.50003629117395
  0
LINE
  8
_0-6_
  6
LONG3
 62
    5
 10
2133.4212809366995
 20
853.50005278716196
 11
2136.9210697880507
 21
850.99992081925677
  0
LINE
  8
_0-6_
  6
LONG3
 62
    5
 10
2136.9210697880507
 20
855.99993731524477
 11
2133.4212809366995
 21
853.50005278716196
  0
LINE
  8
_0-6_
  6
LONG3
 62
    5
 10
2133.4212809366995
 20
858.50006928314996
 11
2136.9210697880507
 21
855.99993731524477
  0
LINE
  8
_0-6_
  6
LONG3
 62
    5
 10
2136.9210697880507
 20
860.99995381123278
 11
2133.4212809366995
 21
858.50006928314996
  0
LINE
  8
_0-6_
  6
LONG3
 62
    5
 10
2133.4212809366995
 20
863.50008577913854
 11
2136.9210697880507
 21
860.99995381123278
  0
LINE
  8
_0-6_
  6
LONG3
 62
    5
 10
2136.9210697880507
 20
865.99997030722136
 11
2133.4212809366995
 21
863.50008577913854
  0
LINE
  8
_0-6_
  6
LONG3
 62
    5
 10
2133.4212809366995
 20
868.50010227512655
 11
2136.9210697880507
 21
865.99997030722136
  0
LINE
  8
_0-6_
  6
LONG3
 62
    5
 10
2136.9210697880507
 20
870.99998680320936
 11
2133.4212809366995
 21
868.50010227512655
  0
LINE
  8
_0-6_
  6
LONG3
 62
    5
 10
2133.4212809366995
 20
873.50011877111455
 11
2136.9210697880507
 21
870.99998680320936
  0
LINE
  8
_0-6_
  6
LONG3
 62
    5
 10
2136.9210697880507
 20
876.00000329919737
 11
2133.4212809366995
 21
873.50011877111455
  0
LINE
  8
_0-6_
  6
LONG3
 62
    5
 10
2133.4212809366995
 20
878.49988782728019
 11
2136.9210697880507
 21
876.00000329919737
  0
LINE
  8
_0-6_
  6
LONG3
 62
    5
 10
2136.9210697880507
 20
881.00001979518594
 11
2133.4212809366995
 21
878.49988782728019
  0
LINE
  8
_0-6_
  6
LONG3
 62
    5
 10
2133.4212809366995
 20
883.49990432326819
 11
2136.9210697880507
 21
881.00001979518594
  0
LINE
  8
_0-6_
  6
LONG3
 62
    5
 10
2136.9210697880507
 20
886.00003629117395
 11
2133.4212809366995
 21
883.49990432326819
  0
LINE
  8
_0-6_
  6
LONG3
 62
    5
 10
2133.4212809366995
 20
888.49992081925677
 11
2136.9210697880507
 21
886.00003629117395
  0
LINE
  8
_0-6_
  6
LONG3
 62
    5
 10
2136.9210697880507
 20
891.00005278716196
 11
2133.4212809366995
 21
888.49992081925677
  0
LINE
  8
_0-6_
  6
LONG3
 62
    5
 10
2133.4212809366995
 20
893.49993731524477
 11
2136.9210697880507
 21
891.00005278716196
  0
LINE
  8
_0-6_
  6
LONG3
 62
    5
 10
2136.9210697880507
 20
896.00006928314996
 11
2133.4212809366995
 21
893.49993731524477
  0
LINE
  8
_0-6_
  6
LONG3
 62
    5
 10
2133.4212809366995
 20
898.49995381123278
 11
2136.9210697880507
 21
896.00006928314996
  0
LINE
  8
_0-6_
  6
LONG3
 62
    5
 10
2136.9210697880507
 20
901.00008577913854
 11
2133.4212809366995
 21
898.49995381123278
  0
LINE
  8
_0-6_
  6
LONG3
 62
    5
 10
2133.4212809366995
 20
903.49997030722136
 11
2136.9210697880507
 21
901.00008577913854
  0
LINE
  8
_0-6_
  6
LONG3
 62
    5
 10
2136.9210697880507
 20
906.00010227512655
 11
2133.4212809366995
 21
903.49997030722136
  0
LINE
  8
_0-6_
  6
LONG3
 62
    5
 10
2133.4212809366995
 20
908.49998680320936
 11
2136.9210697880507
 21
906.00010227512655
  0
LINE
  8
_0-6_
  6
LONG3
 62
    5
 10
2136.9210697880507
 20
911.00011877111455
 11
2133.4212809366995
 21
908.49998680320936
  0
LINE
  8
_0-6_
  6
LONG3
 62
    5
 10
2133.4212809366995
 20
913.50000329919737
 11
2136.9210697880507
 21
911.00011877111455
  0
LINE
  8
_0-6_
  6
LONG3
 62
    5
 10
2136.9210697880507
 20
915.99988782728019
 11
2133.4212809366995
 21
913.50000329919737
  0
LINE
  8
_0-6_
  6
LONG3
 62
    5
 10
2133.4212809366995
 20
918.50001979518594
 11
2136.9210697880507
 21
915.99988782728019
  0
LINE
  8
_0-6_
  6
LONG3
 62
    5
 10
2136.9210697880507
 20
920.99990432326819
 11
2133.4212809366995
 21
918.50001979518594
  0
LINE
  8
_0-6_
  6
LONG3
 62
    5
 10
2133.4212809366995
 20
923.50003629117395
 11
2136.9210697880507
 21
920.99990432326819
  0
LINE
  8
_0-6_
  6
LONG3
 62
    5
 10
2136.9210697880507
 20
925.99992081925677
 11
2133.4212809366995
 21
923.50003629117395
  0
LINE
  8
_0-6_
  6
LONG3
 62
    5
 10
2133.4212809366995
 20
928.50005278716196
 11
2136.9210697880507
 21
925.99992081925677
  0
LINE
  8
_0-6_
  6
LONG3
 62
    5
 10
2136.9210697880507
 20
930.99993731524477
 11
2133.4212809366995
 21
928.50005278716196
  0
LINE
  8
_0-6_
  6
LONG3
 62
    5
 10
2133.4212809366995
 20
933.50006928314996
 11
2136.9210697880507
 21
930.99993731524477
  0
LINE
  8
_0-6_
  6
LONG3
 62
    5
 10
2136.9210697880507
 20
935.99995381123278
 11
2133.4212809366995
 21
933.50006928314996
  0
LINE
  8
_0-6_
  6
LONG3
 62
    5
 10
2133.4212809366995
 20
938.50008577913854
 11
2136.9210697880507
 21
935.99995381123278
  0
LINE
  8
_0-6_
  6
LONG3
 62
    5
 10
2136.9210697880507
 20
940.99997030722136
 11
2133.4212809366995
 21
938.50008577913854
  0
LINE
  8
_0-6_
  6
LONG3
 62
    5
 10
2133.4212809366995
 20
943.50010227512655
 11
2136.9210697880507
 21
940.99997030722136
  0
LINE
  8
_0-6_
  6
LONG3
 62
    5
 10
2136.9210697880507
 20
945.99998680320936
 11
2133.4212809366995
 21
943.50010227512655
  0
LINE
  8
_0-6_
  6
LONG3
 62
    5
 10
2133.4212809366995
 20
948.50011877111455
 11
2136.9210697880507
 21
945.99998680320936
  0
LINE
  8
_0-6_
  6
LONG3
 62
    5
 10
2136.9210697880507
 20
951.00000329919737
 11
2133.4212809366995
 21
948.50011877111455
  0
LINE
  8
_0-6_
  6
LONG3
 62
    5
 10
2133.4212809366995
 20
953.49988782728019
 11
2136.9210697880507
 21
951.00000329919737
  0
LINE
  8
_0-6_
  6
LONG3
 62
    5
 10
2136.9210697880507
 20
956.00001979518594
 11
2133.4212809366995
 21
953.49988782728019
  0
LINE
  8
_0-6_
  6
LONG3
 62
    5
 10
2133.4212809366995
 20
958.49990432326819
 11
2136.9210697880507
 21
956.00001979518594
  0
LINE
  8
_0-6_
  6
LONG3
 62
    5
 10
2136.9210697880507
 20
961.00003629117395
 11
2133.4212809366995
 21
958.49990432326819
  0
LINE
  8
_0-6_
  6
LONG3
 62
    5
 10
2133.4212809366995
 20
963.49992081925677
 11
2136.9210697880507
 21
961.00003629117395
  0
LINE
  8
_0-6_
  6
LONG3
 62
    5
 10
2136.9210697880507
 20
966.00005278716196
 11
2133.4212809366995
 21
963.49992081925677
  0
LINE
  8
_0-6_
  6
LONG3
 62
    5
 10
2133.4212809366995
 20
968.49993731524477
 11
2136.9210697880507
 21
966.00005278716196
  0
LINE
  8
_0-6_
  6
LONG3
 62
    5
 10
2136.9210697880507
 20
971.00006928314996
 11
2133.4212809366995
 21
968.49993731524477
  0
LINE
  8
_0-6_
  6
LONG3
 62
    5
 10
2133.4212809366995
 20
973.49995381123278
 11
2136.9210697880507
 21
971.00006928314996
  0
LINE
  8
_0-6_
  6
LONG3
 62
    5
 10
2136.9210697880507
 20
976.00008577913854
 11
2133.4212809366995
 21
973.49995381123278
  0
LINE
  8
_0-6_
  6
LONG3
 62
    5
 10
2133.4212809366995
 20
978.49997030722136
 11
2136.9210697880507
 21
976.00008577913854
  0
LINE
  8
_0-6_
  6
LONG3
 62
    5
 10
2136.9210697880507
 20
981.00010227512655
 11
2133.4212809366995
 21
978.49997030722136
  0
LINE
  8
_0-6_
  6
LONG3
 62
    5
 10
2133.4212809366995
 20
983.49998680320936
 11
2136.9210697880507
 21
981.00010227512655
  0
LINE
  8
_0-6_
  6
LONG3
 62
    5
 10
2136.9210697880507
 20
986.00011877111455
 11
2133.4212809366995
 21
983.49998680320936
  0
LINE
  8
_0-6_
  6
LONG3
 62
    5
 10
2133.4212809366995
 20
988.50000329919737
 11
2136.9210697880507
 21
986.00011877111455
  0
LINE
  8
_0-6_
  6
LONG3
 62
    5
 10
2136.9210697880507
 20
990.99988782728019
 11
2133.4212809366995
 21
988.50000329919737
  0
LINE
  8
_0-6_
  6
LONG3
 62
    5
 10
2133.4212809366995
 20
993.50001979518594
 11
2136.9210697880507
 21
990.99988782728019
  0
LINE
  8
_0-6_
  6
LONG3
 62
    5
 10
2136.9210697880507
 20
995.99990432326819
 11
2133.4212809366995
 21
993.50001979518594
  0
LINE
  8
_0-6_
  6
LONG3
 62
    5
 10
2133.4212809366995
 20
998.50003629117395
 11
2136.9210697880507
 21
995.99990432326819
  0
LINE
  8
_0-6_
  6
LONG3
 62
    5
 10
2136.9210697880507
 20
1000.9999208192564
 11
2133.4212809366995
 21
998.50003629117395
  0
LINE
  8
_0-6_
  6
LONG3
 62
    5
 10
2133.4212809366995
 20
1003.5000527871618
 11
2136.9210697880507
 21
1000.9999208192564
  0
LINE
  8
_0-6_
  6
LONG3
 62
    5
 10
2136.9210697880507
 20
1005.9999373152445
 11
2133.4212809366995
 21
1003.5000527871618
  0
LINE
  8
_0-6_
  6
LONG3
 62
    5
 10
2133.4212809366995
 20
1008.5000692831498
 11
2136.9210697880507
 21
1005.9999373152445
  0
LINE
  8
_0-6_
  6
LONG3
 62
    5
 10
2136.9210697880507
 20
1010.9999538112324
 11
2133.4212809366995
 21
1008.5000692831498
  0
LINE
  8
_0-6_
  6
LONG3
 62
    5
 10
2133.4212809366995
 20
1013.5000857791385
 11
2136.9210697880507
 21
1010.9999538112324
  0
LINE
  8
_0-6_
  6
LONG3
 62
    5
 10
2136.9210697880507
 20
1015.9999703072212
 11
2133.4212809366995
 21
1013.5000857791385
  0
LINE
  8
_0-6_
  6
LONG3
 62
    5
 10
2133.4212809366995
 20
1018.5001022751265
 11
2136.9210697880507
 21
1015.9999703072212
  0
LINE
  8
_0-6_
  6
LONG3
 62
    5
 10
2136.9210697880507
 20
1020.9999868032092
 11
2133.4212809366995
 21
1018.5001022751265
  0
LINE
  8
_0-6_
  6
LONG3
 62
    5
 10
2133.4212809366995
 20
1023.5001187711144
 11
2136.9210697880507
 21
1020.9999868032092
  0
LINE
  8
_0-6_
  6
LONG3
 62
    5
 10
2136.9210697880507
 20
1026.0000032991974
 11
2133.4212809366995
 21
1023.5001187711144
  0
LINE
  8
_0-6_
  6
LONG3
 62
    5
 10
2133.4212809366995
 20
1028.4998878272801
 11
2136.9210697880507
 21
1026.0000032991974
  0
LINE
  8
_0-6_
  6
LONG3
 62
    5
 10
2136.9210697880507
 20
1031.0000197951858
 11
2133.4212809366995
 21
1028.4998878272801
  0
LINE
  8
_0-6_
  6
LONG3
 62
    5
 10
2133.4212809366995
 20
1033.4999043232683
 11
2136.9210697880507
 21
1031.0000197951858
  0
LINE
  8
_0-6_
  6
LONG3
 62
    5
 10
2136.9210697880507
 20
1036.0000362911739
 11
2133.4212809366995
 21
1033.4999043232683
  0
LINE
  8
_0-6_
  6
LONG3
 62
    5
 10
2133.4212809366995
 20
1038.4999208192566
 11
2136.9210697880507
 21
1036.0000362911739
  0
LINE
  8
_0-6_
  6
LONG3
 62
    5
 10
2136.9210697880507
 20
1041.000052787162
 11
2133.4212809366995
 21
1038.4999208192566
  0
LINE
  8
_0-6_
  6
LONG3
 62
    5
 10
2133.4212809366995
 20
1043.4999373152447
 11
2136.9210697880507
 21
1041.000052787162
  0
LINE
  8
_0-6_
  6
LONG3
 62
    5
 10
2136.9210697880507
 20
1046.0000692831499
 11
2133.4212809366995
 21
1043.4999373152447
  0
LINE
  8
_0-6_
  6
LONG3
 62
    5
 10
2133.4212809366995
 20
1048.4999538112328
 11
2136.9210697880507
 21
1046.0000692831499
  0
LINE
  8
_0-6_
  6
LONG3
 62
    5
 10
2136.9210697880507
 20
1051.0000857791385
 11
2133.4212809366995
 21
1048.4999538112328
  0
LINE
  8
_0-6_
  6
LONG3
 62
    5
 10
2133.4212809366995
 20
1053.4999703072212
 11
2136.9210697880507
 21
1051.0000857791385
  0
LINE
  8
_0-6_
  6
LONG3
 62
    5
 10
2136.9210697880507
 20
1056.0001022751266
 11
2133.4212809366995
 21
1053.4999703072212
  0
LINE
  8
_0-6_
  6
LONG3
 62
    5
 10
2133.4212809366995
 20
1058.4999868032093
 11
2136.9210697880507
 21
1056.0001022751266
  0
LINE
  8
_0-6_
  6
LONG3
 62
    5
 10
2136.9210697880507
 20
1061.0001187711145
 11
2133.4212809366995
 21
1058.4999868032093
  0
LINE
  8
_0-6_
  6
LONG3
 62
    5
 10
2133.4212809366995
 20
1063.5000032991974
 11
2136.9210697880507
 21
1061.0001187711145
  0
LINE
  8
_0-6_
  6
LONG3
 62
    5
 10
2136.9210697880507
 20
1065.9998878272801
 11
2133.4212809366995
 21
1063.5000032991974
  0
LINE
  8
_0-6_
  6
LONG3
 62
    5
 10
2133.4212809366995
 20
1068.5000197951858
 11
2136.9210697880507
 21
1065.9998878272801
  0
LINE
  8
_0-6_
  6
LONG3
 62
    5
 10
2136.9210697880507
 20
1070.9999043232683
 11
2133.4212809366995
 21
1068.5000197951858
  0
LINE
  8
_0-6_
  6
LONG3
 62
    5
 10
2133.4212809366995
 20
1073.5000362911739
 11
2136.9210697880507
 21
1070.9999043232683
  0
LINE
  8
_0-6_
  6
LONG3
 62
    5
 10
2136.9210697880507
 20
1075.9999208192566
 11
2133.4212809366995
 21
1073.5000362911739
  0
LINE
  8
_0-6_
  6
LONG3
 62
    5
 10
2133.4212809366995
 20
1078.500052787162
 11
2136.9210697880507
 21
1075.9999208192566
  0
LINE
  8
_0-6_
  6
LONG3
 62
    5
 10
2136.9210697880507
 20
1080.9999373152447
 11
2133.4212809366995
 21
1078.500052787162
  0
LINE
  8
_0-6_
  6
LONG3
 62
    5
 10
2133.4212809366995
 20
1083.5000692831499
 11
2136.9210697880507
 21
1080.9999373152447
  0
LINE
  8
_0-6_
  6
LONG3
 62
    5
 10
2136.9210697880507
 20
1085.9999538112328
 11
2133.4212809366995
 21
1083.5000692831499
  0
LINE
  8
_0-6_
  6
LONG3
 62
    5
 10
2133.4212809366995
 20
1088.5000857791385
 11
2136.9210697880507
 21
1085.9999538112328
  0
LINE
  8
_0-6_
  6
LONG3
 62
    5
 10
2135.0712096740307
 20
1090.9999703072212
 11
2133.4212809366995
 21
1088.5000857791385
  0
LINE
  8
_0-6_
  6
LONG3
 62
    5
 10
2166.3213904308722
 20
704.99990152221744
 11
2164.9213601174424
 21
705.99993731524489
  0
LINE
  8
_0-6_
  6
LONG3
 62
    5
 10
2164.9213601174424
 20
705.99993731524489
 11
2168.4211489687941
 21
708.50006928315042
  0
LINE
  8
_0-6_
  6
LONG3
 62
    5
 10
2168.4211489687941
 20
708.50006928315042
 11
2164.9213601174424
 21
710.99995381123324
  0
LINE
  8
_0-6_
  6
LONG3
 62
    5
 10
2164.9213601174424
 20
710.99995381123324
 11
2168.4211489687941
 21
713.50008577913843
  0
LINE
  8
_0-6_
  6
LONG3
 62
    5
 10
2168.4211489687941
 20
713.50008577913843
 11
2164.9213601174424
 21
715.99997030722124
  0
LINE
  8
_0-6_
  6
LONG3
 62
    5
 10
2164.9213601174424
 20
715.99997030722124
 11
2168.4211489687941
 21
718.50010227512666
  0
LINE
  8
_0-6_
  6
LONG3
 62
    5
 10
2168.4211489687941
 20
718.50010227512666
 11
2164.9213601174424
 21
720.99998680320948
  0
LINE
  8
_0-6_
  6
LONG3
 62
    5
 10
2164.9213601174424
 20
720.99998680320948
 11
2168.4211489687941
 21
723.50011877111501
  0
LINE
  8
_0-6_
  6
LONG3
 62
    5
 10
2168.4211489687941
 20
723.50011877111501
 11
2164.9213601174424
 21
726.00000329919748
  0
LINE
  8
_0-6_
  6
LONG3
 62
    5
 10
2164.9213601174424
 20
726.00000329919748
 11
2168.4211489687941
 21
728.4998878272803
  0
LINE
  8
_0-6_
  6
LONG3
 62
    5
 10
2168.4211489687941
 20
728.4998878272803
 11
2164.9213601174424
 21
731.00001979518583
  0
LINE
  8
_0-6_
  6
LONG3
 62
    5
 10
2164.9213601174424
 20
731.00001979518583
 11
2168.4211489687941
 21
733.49990432326865
  0
LINE
  8
_0-6_
  6
LONG3
 62
    5
 10
2168.4211489687941
 20
733.49990432326865
 11
2164.9213601174424
 21
736.00003629117406
  0
LINE
  8
_0-6_
  6
LONG3
 62
    5
 10
2164.9213601174424
 20
736.00003629117406
 11
2168.4211489687941
 21
738.49992081925688
  0
LINE
  8
_0-6_
  6
LONG3
 62
    5
 10
2168.4211489687941
 20
738.49992081925688
 11
2164.9213601174424
 21
741.00005278716207
  0
LINE
  8
_0-6_
  6
LONG3
 62
    5
 10
2164.9213601174424
 20
741.00005278716207
 11
2168.4211489687941
 21
743.49993731524489
  0
LINE
  8
_0-6_
  6
LONG3
 62
    5
 10
2168.4211489687941
 20
743.49993731524489
 11
2164.9213601174424
 21
746.00006928315042
  0
LINE
  8
_0-6_
  6
LONG3
 62
    5
 10
2164.9213601174424
 20
746.00006928315042
 11
2168.4211489687941
 21
748.49995381123324
  0
LINE
  8
_0-6_
  6
LONG3
 62
    5
 10
2168.4211489687941
 20
748.49995381123324
 11
2164.9213601174424
 21
751.00008577913843
  0
LINE
  8
_0-6_
  6
LONG3
 62
    5
 10
2164.9213601174424
 20
751.00008577913843
 11
2168.4211489687941
 21
753.49997030722124
  0
LINE
  8
_0-6_
  6
LONG3
 62
    5
 10
2168.4211489687941
 20
753.49997030722124
 11
2164.9213601174424
 21
756.00010227512666
  0
LINE
  8
_0-6_
  6
LONG3
 62
    5
 10
2164.9213601174424
 20
756.00010227512666
 11
2168.4211489687941
 21
758.49998680320948
  0
LINE
  8
_0-6_
  6
LONG3
 62
    5
 10
2168.4211489687941
 20
758.49998680320948
 11
2164.9213601174424
 21
761.00011877111501
  0
LINE
  8
_0-6_
  6
LONG3
 62
    5
 10
2164.9213601174424
 20
761.00011877111501
 11
2168.4211489687941
 21
763.50000329919748
  0
LINE
  8
_0-6_
  6
LONG3
 62
    5
 10
2168.4211489687941
 20
763.50000329919748
 11
2164.9213601174424
 21
765.9998878272803
  0
LINE
  8
_0-6_
  6
LONG3
 62
    5
 10
2164.9213601174424
 20
765.9998878272803
 11
2168.4211489687941
 21
768.50001979518583
  0
LINE
  8
_0-6_
  6
LONG3
 62
    5
 10
2168.4211489687941
 20
768.50001979518583
 11
2164.9213601174424
 21
770.99990432326865
  0
LINE
  8
_0-6_
  6
LONG3
 62
    5
 10
2164.9213601174424
 20
770.99990432326865
 11
2168.4211489687941
 21
773.50003629117406
  0
LINE
  8
_0-6_
  6
LONG3
 62
    5
 10
2168.4211489687941
 20
773.50003629117406
 11
2164.9213601174424
 21
775.99992081925688
  0
LINE
  8
_0-6_
  6
LONG3
 62
    5
 10
2164.9213601174424
 20
775.99992081925688
 11
2168.4211489687941
 21
778.50005278716207
  0
LINE
  8
_0-6_
  6
LONG3
 62
    5
 10
2168.4211489687941
 20
778.50005278716207
 11
2164.9213601174424
 21
780.99993731524489
  0
LINE
  8
_0-6_
  6
LONG3
 62
    5
 10
2164.9213601174424
 20
780.99993731524489
 11
2168.4211489687941
 21
783.50006928315042
  0
LINE
  8
_0-6_
  6
LONG3
 62
    5
 10
2168.4211489687941
 20
783.50006928315042
 11
2164.9213601174424
 21
785.99995381123324
  0
LINE
  8
_0-6_
  6
LONG3
 62
    5
 10
2164.9213601174424
 20
785.99995381123324
 11
2168.4211489687941
 21
788.50008577913843
  0
LINE
  8
_0-6_
  6
LONG3
 62
    5
 10
2168.4211489687941
 20
788.50008577913843
 11
2164.9213601174424
 21
790.99997030722124
  0
LINE
  8
_0-6_
  6
LONG3
 62
    5
 10
2164.9213601174424
 20
790.99997030722124
 11
2168.4211489687941
 21
793.50010227512666
  0
LINE
  8
_0-6_
  6
LONG3
 62
    5
 10
2168.4211489687941
 20
793.50010227512666
 11
2164.9213601174424
 21
795.99998680320948
  0
LINE
  8
_0-6_
  6
LONG3
 62
    5
 10
2164.9213601174424
 20
795.99998680320948
 11
2168.4211489687941
 21
798.50011877111501
  0
LINE
  8
_0-6_
  6
LONG3
 62
    5
 10
2168.4211489687941
 20
798.50011877111501
 11
2164.9213601174424
 21
801.00000329919748
  0
LINE
  8
_0-6_
  6
LONG3
 62
    5
 10
2164.9213601174424
 20
801.00000329919748
 11
2168.4211489687941
 21
803.4998878272803
  0
LINE
  8
_0-6_
  6
LONG3
 62
    5
 10
2168.4211489687941
 20
803.4998878272803
 11
2164.9213601174424
 21
806.00001979518583
  0
LINE
  8
_0-6_
  6
LONG3
 62
    5
 10
2164.9213601174424
 20
806.00001979518583
 11
2168.4211489687941
 21
808.49990432326865
  0
LINE
  8
_0-6_
  6
LONG3
 62
    5
 10
2168.4211489687941
 20
808.49990432326865
 11
2164.9213601174424
 21
811.00003629117406
  0
LINE
  8
_0-6_
  6
LONG3
 62
    5
 10
2164.9213601174424
 20
811.00003629117406
 11
2168.4211489687941
 21
813.49992081925688
  0
LINE
  8
_0-6_
  6
LONG3
 62
    5
 10
2168.4211489687941
 20
813.49992081925688
 11
2164.9213601174424
 21
816.00005278716207
  0
LINE
  8
_0-6_
  6
LONG3
 62
    5
 10
2164.9213601174424
 20
816.00005278716207
 11
2168.4211489687941
 21
818.49993731524489
  0
LINE
  8
_0-6_
  6
LONG3
 62
    5
 10
2168.4211489687941
 20
818.49993731524489
 11
2164.9213601174424
 21
821.00006928315042
  0
LINE
  8
_0-6_
  6
LONG3
 62
    5
 10
2164.9213601174424
 20
821.00006928315042
 11
2168.4211489687941
 21
823.49995381123324
  0
LINE
  8
_0-6_
  6
LONG3
 62
    5
 10
2168.4211489687941
 20
823.49995381123324
 11
2164.9213601174424
 21
826.00008577913843
  0
LINE
  8
_0-6_
  6
LONG3
 62
    5
 10
2164.9213601174424
 20
826.00008577913843
 11
2168.4211489687941
 21
828.49997030722124
  0
LINE
  8
_0-6_
  6
LONG3
 62
    5
 10
2168.4211489687941
 20
828.49997030722124
 11
2164.9213601174424
 21
831.00010227512666
  0
LINE
  8
_0-6_
  6
LONG3
 62
    5
 10
2164.9213601174424
 20
831.00010227512666
 11
2168.4211489687941
 21
833.49998680320948
  0
LINE
  8
_0-6_
  6
LONG3
 62
    5
 10
2168.4211489687941
 20
833.49998680320948
 11
2164.9213601174424
 21
836.00011877111501
  0
LINE
  8
_0-6_
  6
LONG3
 62
    5
 10
2164.9213601174424
 20
836.00011877111501
 11
2168.4211489687941
 21
838.50000329919748
  0
LINE
  8
_0-6_
  6
LONG3
 62
    5
 10
2168.4211489687941
 20
838.50000329919748
 11
2164.9213601174424
 21
840.9998878272803
  0
LINE
  8
_0-6_
  6
LONG3
 62
    5
 10
2164.9213601174424
 20
840.9998878272803
 11
2168.4211489687941
 21
843.50001979518583
  0
LINE
  8
_0-6_
  6
LONG3
 62
    5
 10
2168.4211489687941
 20
843.50001979518583
 11
2164.9213601174424
 21
845.99990432326853
  0
LINE
  8
_0-6_
  6
LONG3
 62
    5
 10
2164.9213601174424
 20
845.99990432326853
 11
2168.4211489687941
 21
848.50003629117395
  0
LINE
  8
_0-6_
  6
LONG3
 62
    5
 10
2168.4211489687941
 20
848.50003629117395
 11
2164.9213601174424
 21
850.99992081925677
  0
LINE
  8
_0-6_
  6
LONG3
 62
    5
 10
2164.9213601174424
 20
850.99992081925677
 11
2168.4211489687941
 21
853.50005278716196
  0
LINE
  8
_0-6_
  6
LONG3
 62
    5
 10
2168.4211489687941
 20
853.50005278716196
 11
2164.9213601174424
 21
855.99993731524477
  0
LINE
  8
_0-6_
  6
LONG3
 62
    5
 10
2164.9213601174424
 20
855.99993731524477
 11
2168.4211489687941
 21
858.50006928314996
  0
LINE
  8
_0-6_
  6
LONG3
 62
    5
 10
2168.4211489687941
 20
858.50006928314996
 11
2164.9213601174424
 21
860.99995381123278
  0
LINE
  8
_0-6_
  6
LONG3
 62
    5
 10
2164.9213601174424
 20
860.99995381123278
 11
2168.4211489687941
 21
863.50008577913854
  0
LINE
  8
_0-6_
  6
LONG3
 62
    5
 10
2168.4211489687941
 20
863.50008577913854
 11
2164.9213601174424
 21
865.99997030722136
  0
LINE
  8
_0-6_
  6
LONG3
 62
    5
 10
2164.9213601174424
 20
865.99997030722136
 11
2168.4211489687941
 21
868.50010227512655
  0
LINE
  8
_0-6_
  6
LONG3
 62
    5
 10
2168.4211489687941
 20
868.50010227512655
 11
2164.9213601174424
 21
870.99998680320936
  0
LINE
  8
_0-6_
  6
LONG3
 62
    5
 10
2164.9213601174424
 20
870.99998680320936
 11
2168.4211489687941
 21
873.50011877111455
  0
LINE
  8
_0-6_
  6
LONG3
 62
    5
 10
2168.4211489687941
 20
873.50011877111455
 11
2164.9213601174424
 21
876.00000329919737
  0
LINE
  8
_0-6_
  6
LONG3
 62
    5
 10
2164.9213601174424
 20
876.00000329919737
 11
2168.4211489687941
 21
878.49988782728019
  0
LINE
  8
_0-6_
  6
LONG3
 62
    5
 10
2168.4211489687941
 20
878.49988782728019
 11
2164.9213601174424
 21
881.00001979518594
  0
LINE
  8
_0-6_
  6
LONG3
 62
    5
 10
2164.9213601174424
 20
881.00001979518594
 11
2168.4211489687941
 21
883.49990432326819
  0
LINE
  8
_0-6_
  6
LONG3
 62
    5
 10
2168.4211489687941
 20
883.49990432326819
 11
2164.9213601174424
 21
886.00003629117395
  0
LINE
  8
_0-6_
  6
LONG3
 62
    5
 10
2164.9213601174424
 20
886.00003629117395
 11
2168.4211489687941
 21
888.49992081925677
  0
LINE
  8
_0-6_
  6
LONG3
 62
    5
 10
2168.4211489687941
 20
888.49992081925677
 11
2164.9213601174424
 21
891.00005278716196
  0
LINE
  8
_0-6_
  6
LONG3
 62
    5
 10
2164.9213601174424
 20
891.00005278716196
 11
2168.4211489687941
 21
893.49993731524477
  0
LINE
  8
_0-6_
  6
LONG3
 62
    5
 10
2168.4211489687941
 20
893.49993731524477
 11
2164.9213601174424
 21
896.00006928314996
  0
LINE
  8
_0-6_
  6
LONG3
 62
    5
 10
2164.9213601174424
 20
896.00006928314996
 11
2168.4211489687941
 21
898.49995381123278
  0
LINE
  8
_0-6_
  6
LONG3
 62
    5
 10
2168.4211489687941
 20
898.49995381123278
 11
2164.9213601174424
 21
901.00008577913854
  0
LINE
  8
_0-6_
  6
LONG3
 62
    5
 10
2164.9213601174424
 20
901.00008577913854
 11
2168.4211489687941
 21
903.49997030722136
  0
LINE
  8
_0-6_
  6
LONG3
 62
    5
 10
2168.4211489687941
 20
903.49997030722136
 11
2164.9213601174424
 21
906.00010227512655
  0
LINE
  8
_0-6_
  6
LONG3
 62
    5
 10
2164.9213601174424
 20
906.00010227512655
 11
2168.4211489687941
 21
908.49998680320936
  0
LINE
  8
_0-6_
  6
LONG3
 62
    5
 10
2168.4211489687941
 20
908.49998680320936
 11
2164.9213601174424
 21
911.00011877111455
  0
LINE
  8
_0-6_
  6
LONG3
 62
    5
 10
2164.9213601174424
 20
911.00011877111455
 11
2168.4211489687941
 21
913.50000329919737
  0
LINE
  8
_0-6_
  6
LONG3
 62
    5
 10
2168.4211489687941
 20
913.50000329919737
 11
2164.9213601174424
 21
915.99988782728019
  0
LINE
  8
_0-6_
  6
LONG3
 62
    5
 10
2164.9213601174424
 20
915.99988782728019
 11
2168.4211489687941
 21
918.50001979518594
  0
LINE
  8
_0-6_
  6
LONG3
 62
    5
 10
2168.4211489687941
 20
918.50001979518594
 11
2164.9213601174424
 21
920.99990432326819
  0
LINE
  8
_0-6_
  6
LONG3
 62
    5
 10
2164.9213601174424
 20
920.99990432326819
 11
2168.4211489687941
 21
923.50003629117395
  0
LINE
  8
_0-6_
  6
LONG3
 62
    5
 10
2168.4211489687941
 20
923.50003629117395
 11
2164.9213601174424
 21
925.99992081925677
  0
LINE
  8
_0-6_
  6
LONG3
 62
    5
 10
2164.9213601174424
 20
925.99992081925677
 11
2168.4211489687941
 21
928.50005278716196
  0
LINE
  8
_0-6_
  6
LONG3
 62
    5
 10
2168.4211489687941
 20
928.50005278716196
 11
2164.9213601174424
 21
930.99993731524477
  0
LINE
  8
_0-6_
  6
LONG3
 62
    5
 10
2164.9213601174424
 20
930.99993731524477
 11
2168.4211489687941
 21
933.50006928314996
  0
LINE
  8
_0-6_
  6
LONG3
 62
    5
 10
2168.4211489687941
 20
933.50006928314996
 11
2164.9213601174424
 21
935.99995381123278
  0
LINE
  8
_0-6_
  6
LONG3
 62
    5
 10
2164.9213601174424
 20
935.99995381123278
 11
2168.4211489687941
 21
938.50008577913854
  0
LINE
  8
_0-6_
  6
LONG3
 62
    5
 10
2168.4211489687941
 20
938.50008577913854
 11
2164.9213601174424
 21
940.99997030722136
  0
LINE
  8
_0-6_
  6
LONG3
 62
    5
 10
2164.9213601174424
 20
940.99997030722136
 11
2168.4211489687941
 21
943.50010227512655
  0
LINE
  8
_0-6_
  6
LONG3
 62
    5
 10
2168.4211489687941
 20
943.50010227512655
 11
2164.9213601174424
 21
945.99998680320936
  0
LINE
  8
_0-6_
  6
LONG3
 62
    5
 10
2164.9213601174424
 20
945.99998680320936
 11
2168.4211489687941
 21
948.50011877111455
  0
LINE
  8
_0-6_
  6
LONG3
 62
    5
 10
2168.4211489687941
 20
948.50011877111455
 11
2164.9213601174424
 21
951.00000329919737
  0
LINE
  8
_0-6_
  6
LONG3
 62
    5
 10
2164.9213601174424
 20
951.00000329919737
 11
2168.4211489687941
 21
953.49988782728019
  0
LINE
  8
_0-6_
  6
LONG3
 62
    5
 10
2168.4211489687941
 20
953.49988782728019
 11
2164.9213601174424
 21
956.00001979518594
  0
LINE
  8
_0-6_
  6
LONG3
 62
    5
 10
2164.9213601174424
 20
956.00001979518594
 11
2168.4211489687941
 21
958.49990432326819
  0
LINE
  8
_0-6_
  6
LONG3
 62
    5
 10
2168.4211489687941
 20
958.49990432326819
 11
2164.9213601174424
 21
961.00003629117395
  0
LINE
  8
_0-6_
  6
LONG3
 62
    5
 10
2164.9213601174424
 20
961.00003629117395
 11
2168.4211489687941
 21
963.49992081925677
  0
LINE
  8
_0-6_
  6
LONG3
 62
    5
 10
2168.4211489687941
 20
963.49992081925677
 11
2164.9213601174424
 21
966.00005278716196
  0
LINE
  8
_0-6_
  6
LONG3
 62
    5
 10
2164.9213601174424
 20
966.00005278716196
 11
2168.4211489687941
 21
968.49993731524477
  0
LINE
  8
_0-6_
  6
LONG3
 62
    5
 10
2168.4211489687941
 20
968.49993731524477
 11
2164.9213601174424
 21
971.00006928314996
  0
LINE
  8
_0-6_
  6
LONG3
 62
    5
 10
2164.9213601174424
 20
971.00006928314996
 11
2168.4211489687941
 21
973.49995381123278
  0
LINE
  8
_0-6_
  6
LONG3
 62
    5
 10
2168.4211489687941
 20
973.49995381123278
 11
2164.9213601174424
 21
976.00008577913854
  0
LINE
  8
_0-6_
  6
LONG3
 62
    5
 10
2164.9213601174424
 20
976.00008577913854
 11
2168.4211489687941
 21
978.49997030722136
  0
LINE
  8
_0-6_
  6
LONG3
 62
    5
 10
2168.4211489687941
 20
978.49997030722136
 11
2164.9213601174424
 21
981.00010227512655
  0
LINE
  8
_0-6_
  6
LONG3
 62
    5
 10
2164.9213601174424
 20
981.00010227512655
 11
2168.4211489687941
 21
983.49998680320936
  0
LINE
  8
_0-6_
  6
LONG3
 62
    5
 10
2168.4211489687941
 20
983.49998680320936
 11
2164.9213601174424
 21
986.00011877111455
  0
LINE
  8
_0-6_
  6
LONG3
 62
    5
 10
2164.9213601174424
 20
986.00011877111455
 11
2168.4211489687941
 21
988.50000329919737
  0
LINE
  8
_0-6_
  6
LONG3
 62
    5
 10
2168.4211489687941
 20
988.50000329919737
 11
2164.9213601174424
 21
990.99988782728019
  0
LINE
  8
_0-6_
  6
LONG3
 62
    5
 10
2164.9213601174424
 20
990.99988782728019
 11
2168.4211489687941
 21
993.50001979518594
  0
LINE
  8
_0-6_
  6
LONG3
 62
    5
 10
2168.4211489687941
 20
993.50001979518594
 11
2164.9213601174424
 21
995.99990432326819
  0
LINE
  8
_0-6_
  6
LONG3
 62
    5
 10
2164.9213601174424
 20
995.99990432326819
 11
2168.4211489687941
 21
998.50003629117395
  0
LINE
  8
_0-6_
  6
LONG3
 62
    5
 10
2168.4211489687941
 20
998.50003629117395
 11
2164.9213601174424
 21
1000.9999208192564
  0
LINE
  8
_0-6_
  6
LONG3
 62
    5
 10
2164.9213601174424
 20
1000.9999208192564
 11
2168.4211489687941
 21
1003.5000527871618
  0
LINE
  8
_0-6_
  6
LONG3
 62
    5
 10
2168.4211489687941
 20
1003.5000527871618
 11
2164.9213601174424
 21
1005.9999373152445
  0
LINE
  8
_0-6_
  6
LONG3
 62
    5
 10
2164.9213601174424
 20
1005.9999373152445
 11
2168.4211489687941
 21
1008.5000692831498
  0
LINE
  8
_0-6_
  6
LONG3
 62
    5
 10
2168.4211489687941
 20
1008.5000692831498
 11
2164.9213601174424
 21
1010.9999538112324
  0
LINE
  8
_0-6_
  6
LONG3
 62
    5
 10
2164.9213601174424
 20
1010.9999538112324
 11
2168.4211489687941
 21
1013.5000857791385
  0
LINE
  8
_0-6_
  6
LONG3
 62
    5
 10
2168.4211489687941
 20
1013.5000857791385
 11
2164.9213601174424
 21
1015.9999703072212
  0
LINE
  8
_0-6_
  6
LONG3
 62
    5
 10
2164.9213601174424
 20
1015.9999703072212
 11
2168.4211489687941
 21
1018.5001022751265
  0
LINE
  8
_0-6_
  6
LONG3
 62
    5
 10
2168.4211489687941
 20
1018.5001022751265
 11
2164.9213601174424
 21
1020.9999868032092
  0
LINE
  8
_0-6_
  6
LONG3
 62
    5
 10
2164.9213601174424
 20
1020.9999868032092
 11
2168.4211489687941
 21
1023.5001187711144
  0
LINE
  8
_0-6_
  6
LONG3
 62
    5
 10
2168.4211489687941
 20
1023.5001187711144
 11
2164.9213601174424
 21
1026.0000032991974
  0
LINE
  8
_0-6_
  6
LONG3
 62
    5
 10
2164.9213601174424
 20
1026.0000032991974
 11
2168.4211489687941
 21
1028.4998878272801
  0
LINE
  8
_0-6_
  6
LONG3
 62
    5
 10
2168.4211489687941
 20
1028.4998878272801
 11
2164.9213601174424
 21
1031.0000197951858
  0
LINE
  8
_0-6_
  6
LONG3
 62
    5
 10
2164.9213601174424
 20
1031.0000197951858
 11
2168.4211489687941
 21
1033.4999043232683
  0
LINE
  8
_0-6_
  6
LONG3
 62
    5
 10
2168.4211489687941
 20
1033.4999043232683
 11
2164.9213601174424
 21
1036.0000362911739
  0
LINE
  8
_0-6_
  6
LONG3
 62
    5
 10
2164.9213601174424
 20
1036.0000362911739
 11
2168.4211489687941
 21
1038.4999208192566
  0
LINE
  8
_0-6_
  6
LONG3
 62
    5
 10
2168.4211489687941
 20
1038.4999208192566
 11
2164.9213601174424
 21
1041.000052787162
  0
LINE
  8
_0-6_
  6
LONG3
 62
    5
 10
2164.9213601174424
 20
1041.000052787162
 11
2168.4211489687941
 21
1043.4999373152447
  0
LINE
  8
_0-6_
  6
LONG3
 62
    5
 10
2168.4211489687941
 20
1043.4999373152447
 11
2164.9213601174424
 21
1046.0000692831499
  0
LINE
  8
_0-6_
  6
LONG3
 62
    5
 10
2164.9213601174424
 20
1046.0000692831499
 11
2168.4211489687941
 21
1048.4999538112328
  0
LINE
  8
_0-6_
  6
LONG3
 62
    5
 10
2168.4211489687941
 20
1048.4999538112328
 11
2164.9213601174424
 21
1051.0000857791385
  0
LINE
  8
_0-6_
  6
LONG3
 62
    5
 10
2164.9213601174424
 20
1051.0000857791385
 11
2168.4211489687941
 21
1053.4999703072212
  0
LINE
  8
_0-6_
  6
LONG3
 62
    5
 10
2168.4211489687941
 20
1053.4999703072212
 11
2164.9213601174424
 21
1056.0001022751266
  0
LINE
  8
_0-6_
  6
LONG3
 62
    5
 10
2164.9213601174424
 20
1056.0001022751266
 11
2168.4211489687941
 21
1058.4999868032093
  0
LINE
  8
_0-6_
  6
LONG3
 62
    5
 10
2168.4211489687941
 20
1058.4999868032093
 11
2164.9213601174424
 21
1061.0001187711145
  0
LINE
  8
_0-6_
  6
LONG3
 62
    5
 10
2164.9213601174424
 20
1061.0001187711145
 11
2168.4211489687941
 21
1063.5000032991974
  0
LINE
  8
_0-6_
  6
LONG3
 62
    5
 10
2168.4211489687941
 20
1063.5000032991974
 11
2164.9213601174424
 21
1065.9998878272801
  0
LINE
  8
_0-6_
  6
LONG3
 62
    5
 10
2164.9213601174424
 20
1065.9998878272801
 11
2168.4211489687941
 21
1068.5000197951858
  0
LINE
  8
_0-6_
  6
LONG3
 62
    5
 10
2168.4211489687941
 20
1068.5000197951858
 11
2164.9213601174424
 21
1070.9999043232683
  0
LINE
  8
_0-6_
  6
LONG3
 62
    5
 10
2164.9213601174424
 20
1070.9999043232683
 11
2168.4211489687941
 21
1073.5000362911739
  0
LINE
  8
_0-6_
  6
LONG3
 62
    5
 10
2168.4211489687941
 20
1073.5000362911739
 11
2164.9213601174424
 21
1075.9999208192566
  0
LINE
  8
_0-6_
  6
LONG3
 62
    5
 10
2164.9213601174424
 20
1075.9999208192566
 11
2168.4211489687941
 21
1078.500052787162
  0
LINE
  8
_0-6_
  6
LONG3
 62
    5
 10
2168.4211489687941
 20
1078.500052787162
 11
2164.9213601174424
 21
1080.9999373152447
  0
LINE
  8
_0-6_
  6
LONG3
 62
    5
 10
2164.9213601174424
 20
1080.9999373152447
 11
2168.4211489687941
 21
1083.5000692831499
  0
LINE
  8
_0-6_
  6
LONG3
 62
    5
 10
2168.4211489687941
 20
1083.5000692831499
 11
2164.9213601174424
 21
1085.9999538112328
  0
LINE
  8
_0-6_
  6
LONG3
 62
    5
 10
2164.9213601174424
 20
1085.9999538112328
 11
2168.4211489687941
 21
1088.5000857791385
  0
LINE
  8
_0-6_
  6
LONG3
 62
    5
 10
2168.4211489687941
 20
1088.5000857791385
 11
2166.7712202314628
 21
1090.9999703072212
  0
ARC
  8
_0-6_
  6
LONG3
 62
    5
 10
2072.5174327525783
 20
1064.9237720386399
 40
40.000000515499635
 50
317.6935424804688
 51
358.67658996582036
  0
ARC
  8
_0-6_
  6
LONG3
 62
    5
 10
2074.8829574569699
 20
1051.8478146114864
 40
15.000000193312361
 50
216.14378356933599
 51
310.37396240234375
  0
ARC
  8
_0-6_
  6
LONG3
 62
    5
 10
2095.0710777061253
 20
1066.5932485219593
 40
40.000000515499635
 50
180
 51
216.14378356933593
  0
ARC
  8
_0-6_
  6
LONG3
 62
    5
 10
2106.0994706009732
 20
1019.5000065983953
 40
1.5000000193312361
 50
270
 51
0
  0
ARC
  8
_0-6_
  6
LONG3
 62
    5
 10
2063.0993782234395
 20
1019.5000065983953
 40
1.5000000193312361
 50
180
 51
270
  0
LINE
  8
_0-6_
  6
LONG3
 62
    5
 10
2097.3495035929495
 20
1034.50005608636
 11
2097.3495035929495
 21
1019.5000065983953
  0
LINE
  8
_0-6_
  6
LONG3
 62
    5
 10
2071.8493452314628
 20
1034.50005608636
 11
2071.8493452314628
 21
1019.5000065983953
  0
LINE
  8
_0-6_
  6
LONG3
 62
    5
 10
2092.8827199147399
 20
1019.5000065983953
 11
2092.8827199147399
 21
1034.50005608636
  0
LINE
  8
_0-6_
  6
LONG3
 62
    5
 10
2076.3156340300274
 20
1019.5000065983953
 11
2076.3156340300274
 21
1034.50005608636
  0
LINE
  8
_0-6_
  6
LONG3
 62
    5
 10
2061.5993980186253
 20
1019.5000065983953
 11
2061.5993980186253
 21
1034.50005608636
  0
LINE
  8
_0-6_
  6
LONG3
 62
    5
 10
2107.5994508057874
 20
1019.5000065983953
 11
2107.5994508057874
 21
1034.50005608636
  0
LINE
  8
_0-6_
  6
LONG3
 62
    5
 10
2105.4531577842503
 20
1018.0000263935803
 11
2105.4531577842503
 21
1034.50005608636
  0
LINE
  8
_0-6_
  6
LONG3
 62
    5
 10
2063.7456910401624
 20
1018.0000263935803
 11
2063.7456910401624
 21
1034.50005608636
  0
LINE
  8
_0-6_
  6
LONG3
 62
    5
 10
2063.0993782234395
 20
1018.0000263935803
 11
2106.0994706009732
 21
1018.0000263935803
  0
LINE
  8
_0-6_
  6
LONG3
 62
    5
 10
2061.5993980186253
 20
1034.50005608636
 11
2107.5994508057874
 21
1034.50005608636
  0
LINE
  8
_0-6_
  6
LONG3
 62
    5
 10
2102.6773778539291
 20
1064.0000791807433
 11
2116.7774887069699
 21
1064.0000791807433
  0
LINE
  8
_0-6_
  6
LONG3
 62
    5
 10
2102.0993584282537
 20
1069.0000956767312
 11
2102.0993584282537
 21
1034.50005608636
  0
LINE
  8
_0-6_
  6
LONG3
 62
    5
 10
2067.0994903961591
 20
1039.0252355627108
 11
2067.0994903961591
 21
1034.50005608636
  0
LINE
  8
_0-6_
  6
LONG3
 62
    5
 10
2116.7774887069699
 20
1093.9999307168495
 11
2116.7774887069699
 21
1064.0000791807433
  0
LINE
  8
_0-6_
  6
LONG3
 62
    5
 10
2086.7714511752978
 20
1069.0000956767312
 11
2102.0993584282537
 21
1069.0000956767312
  0
LINE
  8
_0-6_
  6
LONG3
 62
    5
 10
2086.7714511752978
 20
1104.3500910578545
 11
2086.7714511752978
 21
1064.0000791807433
  0
LINE
  8
_0-6_
  6
LONG3
 62
    5
 10
2055.0714406178649
 20
1104.3500910578545
 11
2055.0714406178649
 21
1066.5932485219593
  0
LINE
  8
_0-6_
  6
LONG3
 62
    5
 10
2166.7712202314628
 20
1090.9999703072212
 11
2166.7712202314628
 21
1119.5000890783358
  0
LINE
  8
_0-6_
  6
CONTINUOUS
 62
    5
 10
2150.9212149527465
 20
1080.9999373152447
 11
2164.9213601174424
 21
1080.9999373152447
  0
LINE
  8
_0-6_
  6
LONG3
 62
    5
 10
2135.0712096740307
 20
1090.9999703072212
 11
2166.7712202314628
 21
1090.9999703072212
  0
ARC
  8
_0-6_
  6
LONG3
 62
    5
 10
2119.6774834282537
 20
1109.9998845280829
 40
2.0000000257749817
 50
0
 51
90
  0
LINE
  8
_0-6_
  6
LONG3
 62
    5
 10
2135.0712096740307
 20
1118.8280425200587
 11
2135.0712096740307
 21
1090.9999703072212
  0
LINE
  8
_0-6_
  6
CONTINUOUS
 62
    5
 10
2136.9210697880507
 20
1085.9999538112328
 11
2150.9212149527465
 21
1085.9999538112328
  0
LINE
  8
_0-6_
  6
LONG3
 62
    5
 10
2121.6772920747912
 20
1109.9998845280829
 11
2121.6772920747912
 21
1093.9999307168495
  0
ARC
  8
_0-6_
  6
LONG3
 62
    5
 10
2081.1713931094191
 20
1216.7501253695099
 40
22.249999561825312
 50
248.84129333496093
 51
291.15869140625
  0
ARC
  8
_0-6_
  6
LONG3
 62
    5
 10
2060.6714986837437
 20
1216.7501253695099
 40
22.249999561825312
 50
248.84129333496093
 51
291.15869140625
  0
ARC
  8
_0-6_
  6
LONG3
 62
    5
 10
2124.599556380112
 20
1118.8280425200587
 40
10.471874636572762
 50
0
 51
180
  0
ARC
  8
_0-6_
  6
LONG3
 62
    5
 10
2124.599556380112
 20
1118.8280425200587
 40
42.171876494948932
 50
0
 51
135.88710021972656
  0
ARC
  8
_0-6_
  6
LONG3
 62
    5
 10
2092.3215263970037
 20
1157.9999934016045
 40
2.0000000257749817
 50
0
 51
90
  0
ARC
  8
_0-6_
  6
LONG3
 62
    5
 10
2049.5213653961591
 20
1157.9999934016045
 40
2.0000000257749817
 50
90
 51
180
  0
LINE
  8
_0-6_
  6
LONG3
 62
    5
 10
2086.6714854869533
 20
1184.50005608636
 11
2086.6714854869533
 21
1160.0000494879645
  0
LINE
  8
_0-6_
  6
LONG3
 62
    5
 10
2055.1714063062099
 20
1184.50005608636
 11
2055.1714063062099
 21
1160.0000494879645
  0
LINE
  8
_0-6_
  6
LONG3
 62
    5
 10
2089.4210367960745
 20
1194.5000890783358
 11
2089.4210367960745
 21
1187.2501022751266
  0
LINE
  8
_0-6_
  6
LONG3
 62
    5
 10
2086.6714854869533
 20
1184.50005608636
 11
2089.4210367960745
 21
1187.2501022751266
  0
LINE
  8
_0-6_
  6
LONG3
 62
    5
 10
2055.1714063062099
 20
1184.50005608636
 11
2052.4213601174424
 21
1187.2501022751266
  0
LINE
  8
_0-6_
  6
LONG3
 62
    5
 10
2052.4213601174424
 20
1194.5000890783358
 11
2052.4213601174424
 21
1187.2501022751266
  0
LINE
  8
_0-6_
  6
LONG3
 62
    5
 10
2055.1714063062099
 20
1184.50005608636
 11
2086.6714854869533
 21
1184.50005608636
  0
LINE
  8
_0-6_
  6
LONG3
 62
    5
 10
2099.4210697880507
 20
1217.500115471917
 11
2094.4213007318853
 21
1220
  0
LINE
  8
_0-6_
  6
LONG3
 62
    5
 10
2042.4213271254666
 20
1217.500115471917
 11
2047.4210961816322
 21
1220
  0
LINE
  8
_0-6_
  6
LONG3
 62
    5
 10
2099.4210697880507
 20
1217.500115471917
 11
2099.4210697880507
 21
1214.4999076224662
  0
LINE
  8
_0-6_
  6
LONG3
 62
    5
 10
2042.4213271254666
 20
1217.500115471917
 11
2099.4210697880507
 21
1217.500115471917
  0
LINE
  8
_0-6_
  6
LONG3
 62
    5
 10
2042.4213271254666
 20
1217.500115471917
 11
2042.4213271254666
 21
1214.4999076224662
  0
LINE
  8
_0-6_
  6
LONG3
 62
    5
 10
2042.4213271254666
 20
1214.4999076224662
 11
2099.4210697880507
 21
1214.4999076224662
  0
LINE
  8
_0-6_
  6
LONG3
 62
    5
 10
2089.2022999928649
 20
1196.0000692831499
 11
2091.4213403222574
 21
1196.0000692831499
  0
LINE
  8
_0-6_
  6
LONG3
 62
    5
 10
2068.7024055671895
 20
1196.0000692831499
 11
2073.1399913463283
 21
1196.0000692831499
  0
LINE
  8
_0-6_
  6
LONG3
 62
    5
 10
2050.4210565912603
 20
1196.0000692831499
 11
2052.6400969206524
 21
1196.0000692831499
  0
LINE
  8
_0-6_
  6
LONG3
 62
    5
 10
2089.2022999928649
 20
1211.4999472128374
 11
2089.2022999928649
 21
1196.0000692831499
  0
LINE
  8
_0-6_
  6
LONG3
 62
    5
 10
2050.4210565912603
 20
1211.4999472128374
 11
2050.4210565912603
 21
1194.5000890783358
  0
LINE
  8
_0-6_
  6
LONG3
 62
    5
 10
2052.6400969206524
 20
1211.4999472128374
 11
2052.6400969206524
 21
1196.0000692831499
  0
LINE
  8
_0-6_
  6
LONG3
 62
    5
 10
2068.7024055671895
 20
1211.4999472128374
 11
2068.7024055671895
 21
1196.0000692831499
  0
LINE
  8
_0-6_
  6
LONG3
 62
    5
 10
2073.1399913463283
 20
1211.4999472128374
 11
2073.1399913463283
 21
1196.0000692831499
  0
LINE
  8
_0-6_
  6
LONG3
 62
    5
 10
2091.4213403222574
 20
1211.4999472128374
 11
2091.4213403222574
 21
1194.5000890783358
  0
LINE
  8
_0-6_
  6
LONG3
 62
    5
 10
2097.4212611415141
 20
1214.4999076224662
 11
2097.4212611415141
 21
1211.4999472128374
  0
LINE
  8
_0-6_
  6
LONG3
 62
    5
 10
2044.4211357720037
 20
1214.4999076224662
 11
2044.4211357720037
 21
1211.4999472128374
  0
LINE
  8
_0-6_
  6
LONG3
 62
    5
 10
2091.4213403222574
 20
1194.5000890783358
 11
2050.4210565912603
 21
1194.5000890783358
  0
LINE
  8
_0-6_
  6
LONG3
 62
    5
 10
2044.4211357720037
 20
1211.4999472128374
 11
2097.4212611415141
 21
1211.4999472128374
  0
LINE
  8
_0-6_
  6
LONG3
 62
    5
 10
2114.1274082065478
 20
1118.8280425200587
 11
2114.1274082065478
 21
1111.9999406144427
  0
LINE
  8
_0-6_
  6
LONG3
 62
    5
 10
2055.0714406178649
 20
1104.3500910578545
 11
2086.7714511752978
 21
1104.3500910578545
  0
LINE
  8
_0-6_
  6
LONG3
 62
    5
 10
2115.407661848862
 20
1109.9998845280829
 11
2115.407661848862
 21
1093.9999307168495
  0
LINE
  8
_0-6_
  6
LONG3
 62
    5
 10
2104.5475280334057
 20
1109.9998845280829
 11
2104.5475280334057
 21
1093.9999307168495
  0
LINE
  8
_0-6_
  6
LONG3
 62
    5
 10
2092.0072778222574
 20
1109.9998845280829
 11
2092.0072778222574
 21
1093.9999307168495
  0
LINE
  8
_0-6_
  6
LONG3
 62
    5
 10
2089.4210367960745
 20
1111.9999406144427
 11
2119.6774834282537
 21
1111.9999406144427
  0
LINE
  8
_0-6_
  6
LONG3
 62
    5
 10
2086.7714511752978
 20
1093.9999307168495
 11
2121.6772920747912
 21
1093.9999307168495
  0
LINE
  8
_0-6_
  6
LONG3
 62
    5
 10
2094.3213350435412
 20
1157.9999934016045
 11
2094.3213350435412
 21
1142.0000395903712
  0
LINE
  8
_0-6_
  6
LONG3
 62
    5
 10
2088.0512099379666
 20
1157.9999934016045
 11
2088.0512099379666
 21
1142.0000395903712
  0
LINE
  8
_0-6_
  6
LONG3
 62
    5
 10
2077.1910761225103
 20
1157.9999934016045
 11
2077.1910761225103
 21
1142.0000395903712
  0
LINE
  8
_0-6_
  6
LONG3
 62
    5
 10
2064.6513207910074
 20
1157.9999934016045
 11
2064.6513207910074
 21
1142.0000395903712
  0
LINE
  8
_0-6_
  6
LONG3
 62
    5
 10
2053.7911869755507
 20
1157.9999934016045
 11
2053.7911869755507
 21
1142.0000395903712
  0
LINE
  8
_0-6_
  6
LONG3
 62
    5
 10
2047.5210618699766
 20
1157.9999934016045
 11
2047.5210618699766
 21
1142.0000395903712
  0
LINE
  8
_0-6_
  6
LONG3
 62
    5
 10
2049.5213653961591
 20
1160.0000494879645
 11
2092.3215263970037
 21
1160.0000494879645
  0
LINE
  8
_0-6_
  6
LONG3
 62
    5
 10
2047.5210618699766
 20
1142.0000395903712
 11
2094.3213350435412
 21
1142.0000395903712
  0
LINE
  8
_0-6_
  6
LONG3
 62
    5
 10
2052.4213601174424
 20
1106.9999241184541
 11
2055.0714406178649
 21
1104.3500910578545
  0
LINE
  8
_0-6_
  6
LONG3
 62
    5
 10
2089.4210367960745
 20
1106.9999241184541
 11
2086.7714511752978
 21
1104.3500910578545
  0
LINE
  8
_0-6_
  6
LONG3
 62
    5
 10
2089.4210367960745
 20
1142.0000395903712
 11
2089.4210367960745
 21
1106.9999241184541
  0
LINE
  8
_0-6_
  6
LONG3
 62
    5
 10
2052.4213601174424
 20
1142.0000395903712
 11
2052.4213601174424
 21
1106.9999241184541
  0
ARC
  8
_0-2_天板
  6
CONTINUOUS
 62
    4
 10
1898.9214458965809
 20
1285
 40
5
 50
238.72600000000005
 51
0.0000000000001272
  0
ARC
  8
_0-2_天板
  6
DASHED2
 62
    4
 10
2260.9214458965811
 20
1385
 40
10
 50
270.00000000000005
 51
0.0000000000000508
  0
ARC
  8
_0-2_天板
  6
CONTINUOUS
 62
    4
 10
2253.7830458965809
 20
1446
 40
9
 50
90.000000000000028
 51
169.30700000000004
  0
ARC
  8
_0-2_天板
  6
CONTINUOUS
 62
    4
 10
1829.9214458965809
 20
1396
 40
9
 50
99.067000000000021
 51
188.17700000000004
  0
ARC
  8
_0-2_天板
  6
CONTINUOUS
 62
    4
 10
1781.2278458965809
 20
1701.1392
 40
300
 50
279.06700000000012
 51
288.10300000000006
  0
ARC
  8
_0-2_天板
  6
CONTINUOUS
 62
    4
 10
1905.5166458965811
 20
1320.9387999999999
 40
100
 50
93.198000000000007
 51
108.10299999999999
  0
ARC
  8
_0-2_天板
  6
CONTINUOUS
 62
    4
 10
2235.1130458965812
 20
1449.5252
 40
10
 50
273.19800000000003
 51
349.30700000000007
  0
ARC
  8
_0-2_天板
  6
CONTINUOUS
 62
    4
 10
1979.3862458965809
 20
1417.478
 40
160
 50
188.17700000000004
 51
238.72600000000005
  0
LINE
  8
_0-2_天板
  6
CONTINUOUS
 62
    4
 10
1905.136645896581
 20
1339.6659999999999
 11
1903.920245896581
 21
1284.8887999999999
  0
LINE
  8
_0-2_天板
  6
DASHED2
 62
    4
 10
1905.580645896581
 20
1359.6591999999998
 11
1905.136645896581
 21
1339.6659999999999
  0
LINE
  8
_0-2_天板
  6
DASHED2
 62
    4
 10
1920.9214458965811
 20
1375
 11
2260.9214458965811
 21
1375
  0
LINE
  8
_0-2_天板
  6
DASHED2
 62
    4
 10
1905.580645896581
 20
1359.6591999999998
 11
1920.9214458965811
 21
1375
  0
LINE
  8
_0-2_天板
  6
CONTINUOUS
 62
    4
 10
2253.7830458965809
 20
1455
 11
2270.9214458965811
 21
1455
  0
LINE
  8
_0-2_天板
  6
CONTINUOUS
 62
    4
 10
1899.938245896581
 20
1420.7831999999998
 11
2235.6706458965809
 21
1439.5407999999999
  0
LINE
  8
_0-6_
  6
LONG3
 62
    5
 10
2166.3213904308722
 20
654.99990152221744
 11
2164.9213601174424
 21
655.99993731524489
  0
LINE
  8
_0-6_
  6
LONG3
 62
    5
 10
2164.9213601174424
 20
655.99993731524489
 11
2168.4211489687941
 21
658.50006928315042
  0
LINE
  8
_0-6_
  6
LONG3
 62
    5
 10
2168.4211489687941
 20
658.50006928315042
 11
2164.9213601174424
 21
660.99995381123324
  0
LINE
  8
_0-6_
  6
LONG3
 62
    5
 10
2164.9213601174424
 20
660.99995381123324
 11
2168.4211489687941
 21
663.50008577913843
  0
LINE
  8
_0-6_
  6
LONG3
 62
    5
 10
2168.4211489687941
 20
663.50008577913843
 11
2164.9213601174424
 21
665.99997030722124
  0
LINE
  8
_0-6_
  6
LONG3
 62
    5
 10
2164.9213601174424
 20
665.99997030722124
 11
2168.4211489687941
 21
668.50010227512666
  0
LINE
  8
_0-6_
  6
LONG3
 62
    5
 10
2168.4211489687941
 20
668.50010227512666
 11
2164.9213601174424
 21
670.99998680320948
  0
LINE
  8
_0-6_
  6
LONG3
 62
    5
 10
2164.9213601174424
 20
670.99998680320948
 11
2168.4211489687941
 21
673.50011877111501
  0
LINE
  8
_0-6_
  6
LONG3
 62
    5
 10
2168.4211489687941
 20
673.50011877111501
 11
2164.9213601174424
 21
676.00000329919748
  0
LINE
  8
_0-6_
  6
LONG3
 62
    5
 10
2164.9213601174424
 20
676.00000329919748
 11
2168.4211489687941
 21
678.4998878272803
  0
LINE
  8
_0-6_
  6
LONG3
 62
    5
 10
2168.4211489687941
 20
678.4998878272803
 11
2164.9213601174424
 21
681.00001979518583
  0
LINE
  8
_0-6_
  6
LONG3
 62
    5
 10
2164.9213601174424
 20
681.00001979518583
 11
2168.4211489687941
 21
683.49990432326865
  0
LINE
  8
_0-6_
  6
LONG3
 62
    5
 10
2168.4211489687941
 20
683.49990432326865
 11
2164.9213601174424
 21
686.00003629117406
  0
LINE
  8
_0-6_
  6
LONG3
 62
    5
 10
2164.9213601174424
 20
686.00003629117406
 11
2168.4211489687941
 21
688.49992081925688
  0
LINE
  8
_0-6_
  6
LONG3
 62
    5
 10
2168.4211489687941
 20
688.49992081925688
 11
2164.9213601174424
 21
691.00005278716207
  0
LINE
  8
_0-6_
  6
LONG3
 62
    5
 10
2164.9213601174424
 20
691.00005278716207
 11
2168.4211489687941
 21
693.49993731524489
  0
LINE
  8
_0-6_
  6
LONG3
 62
    5
 10
2168.4211489687941
 20
693.49993731524489
 11
2164.9213601174424
 21
696.00006928315042
  0
LINE
  8
_0-6_
  6
LONG3
 62
    5
 10
2164.9213601174424
 20
696.00006928315042
 11
2168.4211489687941
 21
698.49995381123324
  0
LINE
  8
_0-6_
  6
LONG3
 62
    5
 10
2168.4211489687941
 20
698.49995381123324
 11
2164.9213601174424
 21
701.00008577913843
  0
LINE
  8
_0-6_
  6
LONG3
 62
    5
 10
2164.9213601174424
 20
701.00008577913843
 11
2168.4211489687941
 21
703.49997030722124
  0
LINE
  8
_0-6_
  6
LONG3
 62
    5
 10
2168.4211489687941
 20
703.49997030722124
 11
2164.9213601174424
 21
706.00010227512666
  0
LINE
  8
_0-6_
  6
LONG3
 62
    5
 10
2164.9213601174424
 20
706.00010227512666
 11
2168.4211489687941
 21
708.49998680320948
  0
LINE
  8
_0-6_
  6
LONG3
 62
    5
 10
2168.4211489687941
 20
708.49998680320948
 11
2164.9213601174424
 21
711.00011877111501
  0
LINE
  8
_0-6_
  6
LONG3
 62
    5
 10
2164.9213601174424
 20
711.00011877111501
 11
2168.4211489687941
 21
713.50000329919748
  0
LINE
  8
_0-6_
  6
LONG3
 62
    5
 10
2168.4211489687941
 20
713.50000329919748
 11
2164.9213601174424
 21
715.9998878272803
  0
LINE
  8
_0-6_
  6
LONG3
 62
    5
 10
2164.9213601174424
 20
715.9998878272803
 11
2168.4211489687941
 21
718.50001979518583
  0
LINE
  8
_0-6_
  6
LONG3
 62
    5
 10
2168.4211489687941
 20
718.50001979518583
 11
2164.9213601174424
 21
720.99990432326865
  0
LINE
  8
_0-6_
  6
LONG3
 62
    5
 10
2164.9213601174424
 20
720.99990432326865
 11
2168.4211489687941
 21
723.50003629117406
  0
LINE
  8
_0-6_
  6
LONG3
 62
    5
 10
2168.4211489687941
 20
723.50003629117406
 11
2164.9213601174424
 21
725.99992081925688
  0
LINE
  8
_0-6_
  6
LONG3
 62
    5
 10
2164.9213601174424
 20
725.99992081925688
 11
2168.4211489687941
 21
728.50005278716207
  0
LINE
  8
_0-6_
  6
LONG3
 62
    5
 10
2168.4211489687941
 20
728.50005278716207
 11
2164.9213601174424
 21
730.99993731524489
  0
LINE
  8
_0-6_
  6
LONG3
 62
    5
 10
2164.9213601174424
 20
730.99993731524489
 11
2168.4211489687941
 21
733.50006928315042
  0
LINE
  8
_0-6_
  6
LONG3
 62
    5
 10
2168.4211489687941
 20
733.50006928315042
 11
2164.9213601174424
 21
735.99995381123324
  0
LINE
  8
_0-6_
  6
LONG3
 62
    5
 10
2164.9213601174424
 20
735.99995381123324
 11
2168.4211489687941
 21
738.50008577913843
  0
LINE
  8
_0-6_
  6
LONG3
 62
    5
 10
2168.4211489687941
 20
738.50008577913843
 11
2164.9213601174424
 21
740.99997030722124
  0
LINE
  8
_0-6_
  6
LONG3
 62
    5
 10
2164.9213601174424
 20
740.99997030722124
 11
2168.4211489687941
 21
743.50010227512666
  0
LINE
  8
_0-6_
  6
LONG3
 62
    5
 10
2168.4211489687941
 20
743.50010227512666
 11
2164.9213601174424
 21
745.99998680320948
  0
LINE
  8
_0-6_
  6
LONG3
 62
    5
 10
2164.9213601174424
 20
745.99998680320948
 11
2168.4211489687941
 21
748.50011877111501
  0
LINE
  8
_0-6_
  6
LONG3
 62
    5
 10
2168.4211489687941
 20
748.50011877111501
 11
2164.9213601174424
 21
751.00000329919748
  0
LINE
  8
_0-6_
  6
LONG3
 62
    5
 10
2164.9213601174424
 20
751.00000329919748
 11
2168.4211489687941
 21
753.4998878272803
  0
LINE
  8
_0-6_
  6
LONG3
 62
    5
 10
2168.4211489687941
 20
753.4998878272803
 11
2164.9213601174424
 21
756.00001979518583
  0
LINE
  8
_0-6_
  6
LONG3
 62
    5
 10
2164.9213601174424
 20
756.00001979518583
 11
2168.4211489687941
 21
758.49990432326865
  0
LINE
  8
_0-6_
  6
LONG3
 62
    5
 10
2168.4211489687941
 20
758.49990432326865
 11
2164.9213601174424
 21
761.00003629117406
  0
LINE
  8
_0-6_
  6
LONG3
 62
    5
 10
2164.9213601174424
 20
761.00003629117406
 11
2168.4211489687941
 21
763.49992081925688
  0
LINE
  8
_0-6_
  6
LONG3
 62
    5
 10
2168.4211489687941
 20
763.49992081925688
 11
2164.9213601174424
 21
766.00005278716207
  0
LINE
  8
_0-6_
  6
LONG3
 62
    5
 10
2164.9213601174424
 20
766.00005278716207
 11
2168.4211489687941
 21
768.49993731524489
  0
LINE
  8
_0-6_
  6
LONG3
 62
    5
 10
2168.4211489687941
 20
768.49993731524489
 11
2164.9213601174424
 21
771.00006928315042
  0
LINE
  8
_0-6_
  6
LONG3
 62
    5
 10
2164.9213601174424
 20
771.00006928315042
 11
2168.4211489687941
 21
773.49995381123324
  0
LINE
  8
_0-6_
  6
LONG3
 62
    5
 10
2168.4211489687941
 20
773.49995381123324
 11
2164.9213601174424
 21
776.00008577913843
  0
LINE
  8
_0-6_
  6
LONG3
 62
    5
 10
2164.9213601174424
 20
776.00008577913843
 11
2168.4211489687941
 21
778.49997030722124
  0
LINE
  8
_0-6_
  6
LONG3
 62
    5
 10
2168.4211489687941
 20
778.49997030722124
 11
2164.9213601174424
 21
781.00010227512666
  0
LINE
  8
_0-6_
  6
LONG3
 62
    5
 10
2164.9213601174424
 20
781.00010227512666
 11
2168.4211489687941
 21
783.49998680320948
  0
LINE
  8
_0-6_
  6
LONG3
 62
    5
 10
2168.4211489687941
 20
783.49998680320948
 11
2164.9213601174424
 21
786.00011877111501
  0
LINE
  8
_0-6_
  6
LONG3
 62
    5
 10
2164.9213601174424
 20
786.00011877111501
 11
2168.4211489687941
 21
788.50000329919748
  0
LINE
  8
_0-6_
  6
LONG3
 62
    5
 10
2168.4211489687941
 20
788.50000329919748
 11
2164.9213601174424
 21
790.9998878272803
  0
LINE
  8
_0-6_
  6
LONG3
 62
    5
 10
2164.9213601174424
 20
790.9998878272803
 11
2168.4211489687941
 21
793.50001979518583
  0
LINE
  8
_0-6_
  6
LONG3
 62
    5
 10
2168.4211489687941
 20
793.50001979518583
 11
2164.9213601174424
 21
795.99990432326865
  0
LINE
  8
_0-6_
  6
LONG3
 62
    5
 10
2164.9213601174424
 20
795.99990432326865
 11
2168.4211489687941
 21
798.50003629117406
  0
LINE
  8
_0-6_
  6
LONG3
 62
    5
 10
2168.4211489687941
 20
798.50003629117406
 11
2164.9213601174424
 21
800.99992081925688
  0
LINE
  8
_0-6_
  6
LONG3
 62
    5
 10
2164.9213601174424
 20
800.99992081925688
 11
2168.4211489687941
 21
803.50005278716207
  0
LINE
  8
_0-6_
  6
LONG3
 62
    5
 10
2168.4211489687941
 20
803.50005278716207
 11
2164.9213601174424
 21
805.99993731524489
  0
LINE
  8
_0-6_
  6
LONG3
 62
    5
 10
2164.9213601174424
 20
805.99993731524489
 11
2168.4211489687941
 21
808.50006928315008
  0
LINE
  8
_0-6_
  6
LONG3
 62
    5
 10
2168.4211489687941
 20
808.50006928315008
 11
2164.9213601174424
 21
810.99995381123289
  0
LINE
  8
_0-6_
  6
LONG3
 62
    5
 10
2164.9213601174424
 20
810.99995381123289
 11
2168.4211489687941
 21
813.50008577913865
  0
LINE
  8
_0-6_
  6
LONG3
 62
    5
 10
2168.4211489687941
 20
813.50008577913865
 11
2164.9213601174424
 21
815.99997030722147
  0
LINE
  8
_0-6_
  6
LONG3
 62
    5
 10
2164.9213601174424
 20
815.99997030722147
 11
2168.4211489687941
 21
818.50010227512666
  0
LINE
  8
_0-6_
  6
LONG3
 62
    5
 10
2168.4211489687941
 20
818.50010227512666
 11
2164.9213601174424
 21
820.99998680320948
  0
LINE
  8
_0-6_
  6
LONG3
 62
    5
 10
2164.9213601174424
 20
820.99998680320948
 11
2168.4211489687941
 21
823.50011877111467
  0
LINE
  8
_0-6_
  6
LONG3
 62
    5
 10
2168.4211489687941
 20
823.50011877111467
 11
2164.9213601174424
 21
826.00000329919748
  0
LINE
  8
_0-6_
  6
LONG3
 62
    5
 10
2164.9213601174424
 20
826.00000329919748
 11
2168.4211489687941
 21
828.4998878272803
  0
LINE
  8
_0-6_
  6
LONG3
 62
    5
 10
2168.4211489687941
 20
828.4998878272803
 11
2164.9213601174424
 21
831.00001979518606
  0
LINE
  8
_0-6_
  6
LONG3
 62
    5
 10
2164.9213601174424
 20
831.00001979518606
 11
2168.4211489687941
 21
833.49990432326831
  0
LINE
  8
_0-6_
  6
LONG3
 62
    5
 10
2168.4211489687941
 20
833.49990432326831
 11
2164.9213601174424
 21
836.00003629117406
  0
LINE
  8
_0-6_
  6
LONG3
 62
    5
 10
2164.9213601174424
 20
836.00003629117406
 11
2168.4211489687941
 21
838.49992081925688
  0
LINE
  8
_0-6_
  6
LONG3
 62
    5
 10
2168.4211489687941
 20
838.49992081925688
 11
2164.9213601174424
 21
841.00005278716207
  0
LINE
  8
_0-6_
  6
LONG3
 62
    5
 10
2164.9213601174424
 20
841.00005278716207
 11
2168.4211489687941
 21
843.49993731524489
  0
LINE
  8
_0-6_
  6
LONG3
 62
    5
 10
2168.4211489687941
 20
843.49993731524489
 11
2164.9213601174424
 21
846.00006928314996
  0
LINE
  8
_0-6_
  6
LONG3
 62
    5
 10
2164.9213601174424
 20
846.00006928314996
 11
2168.4211489687941
 21
848.49995381123278
  0
LINE
  8
_0-6_
  6
LONG3
 62
    5
 10
2168.4211489687941
 20
848.49995381123278
 11
2164.9213601174424
 21
851.00008577913854
  0
LINE
  8
_0-6_
  6
LONG3
 62
    5
 10
2164.9213601174424
 20
851.00008577913854
 11
2168.4211489687941
 21
853.49997030722136
  0
LINE
  8
_0-6_
  6
LONG3
 62
    5
 10
2168.4211489687941
 20
853.49997030722136
 11
2164.9213601174424
 21
856.00010227512655
  0
LINE
  8
_0-6_
  6
LONG3
 62
    5
 10
2164.9213601174424
 20
856.00010227512655
 11
2168.4211489687941
 21
858.49998680320936
  0
LINE
  8
_0-6_
  6
LONG3
 62
    5
 10
2168.4211489687941
 20
858.49998680320936
 11
2164.9213601174424
 21
861.00011877111455
  0
LINE
  8
_0-6_
  6
LONG3
 62
    5
 10
2164.9213601174424
 20
861.00011877111455
 11
2168.4211489687941
 21
863.50000329919737
  0
LINE
  8
_0-6_
  6
LONG3
 62
    5
 10
2168.4211489687941
 20
863.50000329919737
 11
2164.9213601174424
 21
865.99988782728019
  0
LINE
  8
_0-6_
  6
LONG3
 62
    5
 10
2164.9213601174424
 20
865.99988782728019
 11
2168.4211489687941
 21
868.50001979518594
  0
LINE
  8
_0-6_
  6
LONG3
 62
    5
 10
2168.4211489687941
 20
868.50001979518594
 11
2164.9213601174424
 21
870.99990432326819
  0
LINE
  8
_0-6_
  6
LONG3
 62
    5
 10
2164.9213601174424
 20
870.99990432326819
 11
2168.4211489687941
 21
873.50003629117395
  0
LINE
  8
_0-6_
  6
LONG3
 62
    5
 10
2168.4211489687941
 20
873.50003629117395
 11
2164.9213601174424
 21
875.99992081925677
  0
LINE
  8
_0-6_
  6
LONG3
 62
    5
 10
2164.9213601174424
 20
875.99992081925677
 11
2168.4211489687941
 21
878.50005278716196
  0
LINE
  8
_0-6_
  6
LONG3
 62
    5
 10
2168.4211489687941
 20
878.50005278716196
 11
2164.9213601174424
 21
880.99993731524477
  0
LINE
  8
_0-6_
  6
LONG3
 62
    5
 10
2164.9213601174424
 20
880.99993731524477
 11
2168.4211489687941
 21
883.50006928314996
  0
LINE
  8
_0-6_
  6
LONG3
 62
    5
 10
2168.4211489687941
 20
883.50006928314996
 11
2164.9213601174424
 21
885.99995381123278
  0
LINE
  8
_0-6_
  6
LONG3
 62
    5
 10
2164.9213601174424
 20
885.99995381123278
 11
2168.4211489687941
 21
888.50008577913854
  0
LINE
  8
_0-6_
  6
LONG3
 62
    5
 10
2168.4211489687941
 20
888.50008577913854
 11
2164.9213601174424
 21
890.99997030722136
  0
LINE
  8
_0-6_
  6
LONG3
 62
    5
 10
2164.9213601174424
 20
890.99997030722136
 11
2168.4211489687941
 21
893.50010227512655
  0
LINE
  8
_0-6_
  6
LONG3
 62
    5
 10
2168.4211489687941
 20
893.50010227512655
 11
2164.9213601174424
 21
895.99998680320936
  0
LINE
  8
_0-6_
  6
LONG3
 62
    5
 10
2164.9213601174424
 20
895.99998680320936
 11
2168.4211489687941
 21
898.50011877111455
  0
LINE
  8
_0-6_
  6
LONG3
 62
    5
 10
2168.4211489687941
 20
898.50011877111455
 11
2164.9213601174424
 21
901.00000329919737
  0
LINE
  8
_0-6_
  6
LONG3
 62
    5
 10
2164.9213601174424
 20
901.00000329919737
 11
2168.4211489687941
 21
903.49988782728019
  0
LINE
  8
_0-6_
  6
LONG3
 62
    5
 10
2168.4211489687941
 20
903.49988782728019
 11
2164.9213601174424
 21
906.00001979518594
  0
LINE
  8
_0-6_
  6
LONG3
 62
    5
 10
2164.9213601174424
 20
906.00001979518594
 11
2168.4211489687941
 21
908.49990432326819
  0
LINE
  8
_0-6_
  6
LONG3
 62
    5
 10
2168.4211489687941
 20
908.49990432326819
 11
2164.9213601174424
 21
911.00003629117395
  0
LINE
  8
_0-6_
  6
LONG3
 62
    5
 10
2164.9213601174424
 20
911.00003629117395
 11
2168.4211489687941
 21
913.49992081925677
  0
LINE
  8
_0-6_
  6
LONG3
 62
    5
 10
2168.4211489687941
 20
913.49992081925677
 11
2164.9213601174424
 21
916.00005278716196
  0
LINE
  8
_0-6_
  6
LONG3
 62
    5
 10
2164.9213601174424
 20
916.00005278716196
 11
2168.4211489687941
 21
918.49993731524477
  0
LINE
  8
_0-6_
  6
LONG3
 62
    5
 10
2168.4211489687941
 20
918.49993731524477
 11
2164.9213601174424
 21
921.00006928314996
  0
LINE
  8
_0-6_
  6
LONG3
 62
    5
 10
2164.9213601174424
 20
921.00006928314996
 11
2168.4211489687941
 21
923.49995381123278
  0
LINE
  8
_0-6_
  6
LONG3
 62
    5
 10
2168.4211489687941
 20
923.49995381123278
 11
2164.9213601174424
 21
926.00008577913854
  0
LINE
  8
_0-6_
  6
LONG3
 62
    5
 10
2164.9213601174424
 20
926.00008577913854
 11
2168.4211489687941
 21
928.49997030722136
  0
LINE
  8
_0-6_
  6
LONG3
 62
    5
 10
2168.4211489687941
 20
928.49997030722136
 11
2164.9213601174424
 21
931.00010227512655
  0
LINE
  8
_0-6_
  6
LONG3
 62
    5
 10
2164.9213601174424
 20
931.00010227512655
 11
2168.4211489687941
 21
933.49998680320936
  0
LINE
  8
_0-6_
  6
LONG3
 62
    5
 10
2168.4211489687941
 20
933.49998680320936
 11
2164.9213601174424
 21
936.00011877111455
  0
LINE
  8
_0-6_
  6
LONG3
 62
    5
 10
2164.9213601174424
 20
936.00011877111455
 11
2168.4211489687941
 21
938.50000329919737
  0
LINE
  8
_0-6_
  6
LONG3
 62
    5
 10
2168.4211489687941
 20
938.50000329919737
 11
2164.9213601174424
 21
940.99988782728019
  0
LINE
  8
_0-6_
  6
LONG3
 62
    5
 10
2164.9213601174424
 20
940.99988782728019
 11
2168.4211489687941
 21
943.50001979518594
  0
LINE
  8
_0-6_
  6
LONG3
 62
    5
 10
2168.4211489687941
 20
943.50001979518594
 11
2164.9213601174424
 21
945.99990432326819
  0
LINE
  8
_0-6_
  6
LONG3
 62
    5
 10
2164.9213601174424
 20
945.99990432326819
 11
2168.4211489687941
 21
948.50003629117395
  0
LINE
  8
_0-6_
  6
LONG3
 62
    5
 10
2168.4211489687941
 20
948.50003629117395
 11
2164.9213601174424
 21
950.99992081925677
  0
LINE
  8
_0-6_
  6
LONG3
 62
    5
 10
2164.9213601174424
 20
950.99992081925677
 11
2168.4211489687941
 21
953.50005278716196
  0
LINE
  8
_0-6_
  6
LONG3
 62
    5
 10
2168.4211489687941
 20
953.50005278716196
 11
2164.9213601174424
 21
955.99993731524477
  0
LINE
  8
_0-6_
  6
LONG3
 62
    5
 10
2164.9213601174424
 20
955.99993731524477
 11
2168.4211489687941
 21
958.50006928314996
  0
LINE
  8
_0-6_
  6
LONG3
 62
    5
 10
2168.4211489687941
 20
958.50006928314996
 11
2164.9213601174424
 21
960.99995381123278
  0
LINE
  8
_0-6_
  6
LONG3
 62
    5
 10
2164.9213601174424
 20
960.99995381123278
 11
2168.4211489687941
 21
963.50008577913854
  0
LINE
  8
_0-6_
  6
LONG3
 62
    5
 10
2168.4211489687941
 20
963.50008577913854
 11
2164.9213601174424
 21
965.99997030722136
  0
LINE
  8
_0-6_
  6
LONG3
 62
    5
 10
2164.9213601174424
 20
965.99997030722136
 11
2168.4211489687941
 21
968.50010227512655
  0
LINE
  8
_0-6_
  6
LONG3
 62
    5
 10
2168.4211489687941
 20
968.50010227512655
 11
2164.9213601174424
 21
970.99998680320936
  0
LINE
  8
_0-6_
  6
LONG3
 62
    5
 10
2164.9213601174424
 20
970.99998680320936
 11
2168.4211489687941
 21
973.50011877111455
  0
LINE
  8
_0-6_
  6
LONG3
 62
    5
 10
2168.4211489687941
 20
973.50011877111455
 11
2164.9213601174424
 21
976.00000329919737
  0
LINE
  8
_0-6_
  6
LONG3
 62
    5
 10
2164.9213601174424
 20
976.00000329919737
 11
2168.4211489687941
 21
978.49988782728019
  0
LINE
  8
_0-6_
  6
LONG3
 62
    5
 10
2168.4211489687941
 20
978.49988782728019
 11
2164.9213601174424
 21
981.00001979518594
  0
LINE
  8
_0-6_
  6
LONG3
 62
    5
 10
2164.9213601174424
 20
981.00001979518594
 11
2168.4211489687941
 21
983.49990432326819
  0
LINE
  8
_0-6_
  6
LONG3
 62
    5
 10
2168.4211489687941
 20
983.49990432326819
 11
2164.9213601174424
 21
986.00003629117395
  0
LINE
  8
_0-6_
  6
LONG3
 62
    5
 10
2164.9213601174424
 20
986.00003629117395
 11
2168.4211489687941
 21
988.49992081925677
  0
LINE
  8
_0-6_
  6
LONG3
 62
    5
 10
2168.4211489687941
 20
988.49992081925677
 11
2164.9213601174424
 21
991.00005278716196
  0
LINE
  8
_0-6_
  6
LONG3
 62
    5
 10
2164.9213601174424
 20
991.00005278716196
 11
2168.4211489687941
 21
993.49993731524477
  0
LINE
  8
_0-6_
  6
LONG3
 62
    5
 10
2168.4211489687941
 20
993.49993731524477
 11
2164.9213601174424
 21
996.00006928314996
  0
LINE
  8
_0-6_
  6
LONG3
 62
    5
 10
2164.9213601174424
 20
996.00006928314996
 11
2168.4211489687941
 21
998.49995381123278
  0
LINE
  8
_0-6_
  6
LONG3
 62
    5
 10
2168.4211489687941
 20
998.49995381123278
 11
2164.9213601174424
 21
1001.0000857791385
  0
LINE
  8
_0-6_
  6
LONG3
 62
    5
 10
2164.9213601174424
 20
1001.0000857791385
 11
2168.4211489687941
 21
1003.4999703072212
  0
LINE
  8
_0-6_
  6
LONG3
 62
    5
 10
2168.4211489687941
 20
1003.4999703072212
 11
2164.9213601174424
 21
1006.0001022751265
  0
LINE
  8
_0-6_
  6
LONG3
 62
    5
 10
2164.9213601174424
 20
1006.0001022751265
 11
2168.4211489687941
 21
1008.4999868032092
  0
LINE
  8
_0-6_
  6
LONG3
 62
    5
 10
2168.4211489687941
 20
1008.4999868032092
 11
2164.9213601174424
 21
1011.0001187711144
  0
LINE
  8
_0-6_
  6
LONG3
 62
    5
 10
2164.9213601174424
 20
1011.0001187711144
 11
2168.4211489687941
 21
1013.500003299197
  0
LINE
  8
_0-6_
  6
LONG3
 62
    5
 10
2168.4211489687941
 20
1013.500003299197
 11
2164.9213601174424
 21
1015.9998878272799
  0
LINE
  8
_0-6_
  6
LONG3
 62
    5
 10
2164.9213601174424
 20
1015.9998878272799
 11
2168.4211489687941
 21
1018.5000197951859
  0
LINE
  8
_0-6_
  6
LONG3
 62
    5
 10
2168.4211489687941
 20
1018.5000197951859
 11
2164.9213601174424
 21
1020.9999043232678
  0
LINE
  8
_0-6_
  6
LONG3
 62
    5
 10
2164.9213601174424
 20
1020.9999043232678
 11
2168.4211489687941
 21
1023.5000362911739
  0
LINE
  8
_0-6_
  6
LONG3
 62
    5
 10
2168.4211489687941
 20
1023.5000362911739
 11
2164.9213601174424
 21
1025.9999208192566
  0
LINE
  8
_0-6_
  6
LONG3
 62
    5
 10
2164.9213601174424
 20
1025.9999208192566
 11
2168.4211489687941
 21
1028.500052787162
  0
LINE
  8
_0-6_
  6
LONG3
 62
    5
 10
2168.4211489687941
 20
1028.500052787162
 11
2164.9213601174424
 21
1030.9999373152447
  0
LINE
  8
_0-6_
  6
LONG3
 62
    5
 10
2164.9213601174424
 20
1030.9999373152447
 11
2168.4211489687941
 21
1033.5000692831499
  0
LINE
  8
_0-6_
  6
LONG3
 62
    5
 10
2168.4211489687941
 20
1033.5000692831499
 11
2164.9213601174424
 21
1035.9999538112328
  0
LINE
  8
_0-6_
  6
LONG3
 62
    5
 10
2164.9213601174424
 20
1035.9999538112328
 11
2168.4211489687941
 21
1038.5000857791385
  0
LINE
  8
_0-6_
  6
LONG3
 62
    5
 10
2168.4211489687941
 20
1038.5000857791385
 11
2166.7712202314628
 21
1040.9999703072212
  0
LINE
  8
_0-6_
  6
CONTINUOUS
 62
    5
 10
2150.9212149527465
 20
1020.9999043232678
 11
2164.9213601174424
 21
1020.9999043232678
  0
LINE
  8
_0-6_
  6
CONTINUOUS
 62
    5
 10
2136.9210697880507
 20
1025.9999208192566
 11
2150.9212149527465
 21
1025.9999208192566
  0
LINE
  8
_0-6_
  6
CONTINUOUS
 62
    5
 10
2136.9210697880507
 20
1015.9998878272799
 11
2150.9212149527465
 21
1015.9998878272799
  0
LINE
  8
_0-6_
  6
CONTINUOUS
 62
    5
 10
2150.9212149527465
 20
660.99995381123324
 11
2164.9213601174424
 21
660.99995381123324
  0
LINE
  8
_0-6_
  6
CONTINUOUS
 62
    5
 10
2136.9210697880507
 20
665.99997030722124
 11
2150.9212149527465
 21
665.99997030722124
  0
LINE
  8
_0-6_
  6
CONTINUOUS
 62
    5
 10
2150.9212149527465
 20
670.99998680320948
 11
2164.9213601174424
 21
670.99998680320948
  0
LINE
  8
_0-6_
  6
CONTINUOUS
 62
    5
 10
2136.9210697880507
 20
676.00000329919748
 11
2150.9212149527465
 21
676.00000329919748
  0
LINE
  8
_0-6_
  6
CONTINUOUS
 62
    5
 10
2150.9212149527465
 20
681.00001979518583
 11
2164.9213601174424
 21
681.00001979518583
  0
LINE
  8
_0-6_
  6
CONTINUOUS
 62
    5
 10
2136.9210697880507
 20
686.00003629117406
 11
2150.9212149527465
 21
686.00003629117406
  0
LINE
  8
_0-6_
  6
CONTINUOUS
 62
    5
 10
2150.9212149527465
 20
691.00005278716207
 11
2164.9213601174424
 21
691.00005278716207
  0
LINE
  8
_0-6_
  6
CONTINUOUS
 62
    5
 10
2136.9210697880507
 20
696.00006928315042
 11
2150.9212149527465
 21
696.00006928315042
  0
LINE
  8
_0-6_
  6
CONTINUOUS
 62
    5
 10
2150.9212149527465
 20
701.00008577913843
 11
2164.9213601174424
 21
701.00008577913843
  0
LINE
  8
_0-6_
  6
CONTINUOUS
 62
    5
 10
2136.9210697880507
 20
706.00010227512666
 11
2150.9212149527465
 21
706.00010227512666
  0
LINE
  8
_0-6_
  6
CONTINUOUS
 62
    5
 10
2150.9212149527465
 20
711.00011877111501
 11
2164.9213601174424
 21
711.00011877111501
  0
LINE
  8
_0-6_
  6
CONTINUOUS
 62
    5
 10
2136.9210697880507
 20
715.9998878272803
 11
2150.9212149527465
 21
715.9998878272803
  0
LINE
  8
_0-6_
  6
CONTINUOUS
 62
    5
 10
2150.9212149527465
 20
720.99990432326865
 11
2164.9213601174424
 21
720.99990432326865
  0
LINE
  8
_0-6_
  6
CONTINUOUS
 62
    5
 10
2136.9210697880507
 20
725.99992081925688
 11
2150.9212149527465
 21
725.99992081925688
  0
LINE
  8
_0-6_
  6
CONTINUOUS
 62
    5
 10
2150.9212149527465
 20
730.99993731524489
 11
2164.9213601174424
 21
730.99993731524489
  0
LINE
  8
_0-6_
  6
CONTINUOUS
 62
    5
 10
2136.9210697880507
 20
735.99995381123324
 11
2150.9212149527465
 21
735.99995381123324
  0
LINE
  8
_0-6_
  6
CONTINUOUS
 62
    5
 10
2150.9212149527465
 20
740.99997030722124
 11
2164.9213601174424
 21
740.99997030722124
  0
LINE
  8
_0-6_
  6
CONTINUOUS
 62
    5
 10
2136.9210697880507
 20
745.99998680320948
 11
2150.9212149527465
 21
745.99998680320948
  0
LINE
  8
_0-6_
  6
CONTINUOUS
 62
    5
 10
2150.9212149527465
 20
751.00000329919748
 11
2164.9213601174424
 21
751.00000329919748
  0
LINE
  8
_0-6_
  6
CONTINUOUS
 62
    5
 10
2136.9210697880507
 20
756.00001979518583
 11
2150.9212149527465
 21
756.00001979518583
  0
LINE
  8
_0-6_
  6
CONTINUOUS
 62
    5
 10
2150.9212149527465
 20
761.00003629117406
 11
2164.9213601174424
 21
761.00003629117406
  0
LINE
  8
_0-6_
  6
CONTINUOUS
 62
    5
 10
2136.9210697880507
 20
766.00005278716207
 11
2150.9212149527465
 21
766.00005278716207
  0
LINE
  8
_0-6_
  6
CONTINUOUS
 62
    5
 10
2150.9212149527465
 20
771.00006928315042
 11
2164.9213601174424
 21
771.00006928315042
  0
LINE
  8
_0-6_
  6
CONTINUOUS
 62
    5
 10
2136.9210697880507
 20
776.00008577913843
 11
2150.9212149527465
 21
776.00008577913843
  0
LINE
  8
_0-6_
  6
CONTINUOUS
 62
    5
 10
2150.9212149527465
 20
781.00010227512666
 11
2164.9213601174424
 21
781.00010227512666
  0
LINE
  8
_0-6_
  6
CONTINUOUS
 62
    5
 10
2136.9210697880507
 20
786.00011877111501
 11
2150.9212149527465
 21
786.00011877111501
  0
LINE
  8
_0-6_
  6
CONTINUOUS
 62
    5
 10
2150.9212149527465
 20
790.9998878272803
 11
2164.9213601174424
 21
790.9998878272803
  0
LINE
  8
_0-6_
  6
CONTINUOUS
 62
    5
 10
2136.9210697880507
 20
795.99990432326865
 11
2150.9212149527465
 21
795.99990432326865
  0
LINE
  8
_0-6_
  6
CONTINUOUS
 62
    5
 10
2150.9212149527465
 20
800.99992081925688
 11
2164.9213601174424
 21
800.99992081925688
  0
LINE
  8
_0-6_
  6
CONTINUOUS
 62
    5
 10
2136.9210697880507
 20
805.99993731524489
 11
2150.9212149527465
 21
805.99993731524489
  0
LINE
  8
_0-6_
  6
CONTINUOUS
 62
    5
 10
2150.9212149527465
 20
810.99995381123289
 11
2164.9213601174424
 21
810.99995381123289
  0
LINE
  8
_0-6_
  6
CONTINUOUS
 62
    5
 10
2136.9210697880507
 20
815.99997030722147
 11
2150.9212149527465
 21
815.99997030722147
  0
LINE
  8
_0-6_
  6
CONTINUOUS
 62
    5
 10
2150.9212149527465
 20
820.99998680320948
 11
2164.9213601174424
 21
820.99998680320948
  0
LINE
  8
_0-6_
  6
CONTINUOUS
 62
    5
 10
2136.9210697880507
 20
826.00000329919748
 11
2150.9212149527465
 21
826.00000329919748
  0
LINE
  8
_0-6_
  6
CONTINUOUS
 62
    5
 10
2150.9212149527465
 20
831.00001979518606
 11
2164.9213601174424
 21
831.00001979518606
  0
LINE
  8
_0-6_
  6
CONTINUOUS
 62
    5
 10
2136.9210697880507
 20
836.00003629117406
 11
2150.9212149527465
 21
836.00003629117406
  0
LINE
  8
_0-6_
  6
CONTINUOUS
 62
    5
 10
2150.9212149527465
 20
841.00005278716207
 11
2164.9213601174424
 21
841.00005278716207
  0
LINE
  8
_0-6_
  6
CONTINUOUS
 62
    5
 10
2136.9210697880507
 20
846.00006928314996
 11
2150.9212149527465
 21
846.00006928314996
  0
LINE
  8
_0-6_
  6
CONTINUOUS
 62
    5
 10
2150.9212149527465
 20
851.00008577913854
 11
2164.9213601174424
 21
851.00008577913854
  0
LINE
  8
_0-6_
  6
CONTINUOUS
 62
    5
 10
2136.9210697880507
 20
856.00010227512655
 11
2150.9212149527465
 21
856.00010227512655
  0
LINE
  8
_0-6_
  6
CONTINUOUS
 62
    5
 10
2150.9212149527465
 20
861.00011877111455
 11
2164.9213601174424
 21
861.00011877111455
  0
LINE
  8
_0-6_
  6
CONTINUOUS
 62
    5
 10
2136.9210697880507
 20
865.99988782728019
 11
2150.9212149527465
 21
865.99988782728019
  0
LINE
  8
_0-6_
  6
CONTINUOUS
 62
    5
 10
2150.9212149527465
 20
870.99990432326819
 11
2164.9213601174424
 21
870.99990432326819
  0
LINE
  8
_0-6_
  6
CONTINUOUS
 62
    5
 10
2136.9210697880507
 20
875.99992081925677
 11
2150.9212149527465
 21
875.99992081925677
  0
LINE
  8
_0-6_
  6
CONTINUOUS
 62
    5
 10
2150.9212149527465
 20
880.99993731524477
 11
2164.9213601174424
 21
880.99993731524477
  0
LINE
  8
_0-6_
  6
CONTINUOUS
 62
    5
 10
2136.9210697880507
 20
885.99995381123278
 11
2150.9212149527465
 21
885.99995381123278
  0
LINE
  8
_0-6_
  6
CONTINUOUS
 62
    5
 10
2150.9212149527465
 20
890.99997030722136
 11
2164.9213601174424
 21
890.99997030722136
  0
LINE
  8
_0-6_
  6
CONTINUOUS
 62
    5
 10
2136.9210697880507
 20
895.99998680320936
 11
2150.9212149527465
 21
895.99998680320936
  0
LINE
  8
_0-6_
  6
CONTINUOUS
 62
    5
 10
2150.9212149527465
 20
901.00000329919737
 11
2164.9213601174424
 21
901.00000329919737
  0
LINE
  8
_0-6_
  6
CONTINUOUS
 62
    5
 10
2136.9210697880507
 20
906.00001979518594
 11
2150.9212149527465
 21
906.00001979518594
  0
LINE
  8
_0-6_
  6
CONTINUOUS
 62
    5
 10
2150.9212149527465
 20
911.00003629117395
 11
2164.9213601174424
 21
911.00003629117395
  0
LINE
  8
_0-6_
  6
CONTINUOUS
 62
    5
 10
2136.9210697880507
 20
916.00005278716196
 11
2150.9212149527465
 21
916.00005278716196
  0
LINE
  8
_0-6_
  6
CONTINUOUS
 62
    5
 10
2150.9212149527465
 20
921.00006928314996
 11
2164.9213601174424
 21
921.00006928314996
  0
LINE
  8
_0-6_
  6
CONTINUOUS
 62
    5
 10
2136.9210697880507
 20
926.00008577913854
 11
2150.9212149527465
 21
926.00008577913854
  0
LINE
  8
_0-6_
  6
CONTINUOUS
 62
    5
 10
2150.9212149527465
 20
931.00010227512655
 11
2164.9213601174424
 21
931.00010227512655
  0
LINE
  8
_0-6_
  6
CONTINUOUS
 62
    5
 10
2136.9210697880507
 20
936.00011877111455
 11
2150.9212149527465
 21
936.00011877111455
  0
LINE
  8
_0-6_
  6
CONTINUOUS
 62
    5
 10
2150.9212149527465
 20
940.99988782728019
 11
2164.9213601174424
 21
940.99988782728019
  0
LINE
  8
_0-6_
  6
CONTINUOUS
 62
    5
 10
2136.9210697880507
 20
945.99990432326819
 11
2150.9212149527465
 21
945.99990432326819
  0
LINE
  8
_0-6_
  6
CONTINUOUS
 62
    5
 10
2150.9212149527465
 20
950.99992081925677
 11
2164.9213601174424
 21
950.99992081925677
  0
LINE
  8
_0-6_
  6
CONTINUOUS
 62
    5
 10
2136.9210697880507
 20
955.99993731524477
 11
2150.9212149527465
 21
955.99993731524477
  0
LINE
  8
_0-6_
  6
CONTINUOUS
 62
    5
 10
2150.9212149527465
 20
960.99995381123278
 11
2164.9213601174424
 21
960.99995381123278
  0
LINE
  8
_0-6_
  6
CONTINUOUS
 62
    5
 10
2136.9210697880507
 20
965.99997030722136
 11
2150.9212149527465
 21
965.99997030722136
  0
LINE
  8
_0-6_
  6
CONTINUOUS
 62
    5
 10
2150.9212149527465
 20
970.99998680320936
 11
2164.9213601174424
 21
970.99998680320936
  0
LINE
  8
_0-6_
  6
CONTINUOUS
 62
    5
 10
2136.9210697880507
 20
976.00000329919737
 11
2150.9212149527465
 21
976.00000329919737
  0
LINE
  8
_0-6_
  6
CONTINUOUS
 62
    5
 10
2150.9212149527465
 20
981.00001979518594
 11
2164.9213601174424
 21
981.00001979518594
  0
LINE
  8
_0-6_
  6
CONTINUOUS
 62
    5
 10
2136.9210697880507
 20
986.00003629117395
 11
2150.9212149527465
 21
986.00003629117395
  0
LINE
  8
_0-6_
  6
CONTINUOUS
 62
    5
 10
2150.9212149527465
 20
991.00005278716196
 11
2164.9213601174424
 21
991.00005278716196
  0
LINE
  8
_0-6_
  6
CONTINUOUS
 62
    5
 10
2136.9210697880507
 20
996.00006928314996
 11
2150.9212149527465
 21
996.00006928314996
  0
LINE
  8
_0-6_
  6
CONTINUOUS
 62
    5
 10
2150.9212149527465
 20
1001.0000857791385
 11
2164.9213601174424
 21
1001.0000857791385
  0
LINE
  8
_0-6_
  6
CONTINUOUS
 62
    5
 10
2136.9210697880507
 20
1006.0001022751265
 11
2150.9212149527465
 21
1006.0001022751265
  0
LINE
  8
_0-6_
  6
CONTINUOUS
 62
    5
 10
2150.9212149527465
 20
1011.0001187711144
 11
2164.9213601174424
 21
1011.0001187711144
  0
LINE
  8
_0-6_
  6
LONG3
 62
    5
 10
2070.9214458965811
 20
1185.0000494879645
 11
2070.9214458965811
 21
1016.5932485219592
  0
LINE
  8
_0-6_
  6
LONG3
 62
    5
 10
2136.9210697880507
 20
655.99993731524489
 11
2135.5210394746209
 21
654.99990152221744
  0
LINE
  8
_0-6_
  6
LONG3
 62
    5
 10
2133.4212809366995
 20
658.50006928315042
 11
2136.9210697880507
 21
655.99993731524489
  0
LINE
  8
_0-6_
  6
LONG3
 62
    5
 10
2136.9210697880507
 20
660.99995381123324
 11
2133.4212809366995
 21
658.50006928315042
  0
LINE
  8
_0-6_
  6
LONG3
 62
    5
 10
2133.4212809366995
 20
663.50008577913843
 11
2136.9210697880507
 21
660.99995381123324
  0
LINE
  8
_0-6_
  6
LONG3
 62
    5
 10
2136.9210697880507
 20
665.99997030722124
 11
2133.4212809366995
 21
663.50008577913843
  0
LINE
  8
_0-6_
  6
LONG3
 62
    5
 10
2133.4212809366995
 20
668.50010227512666
 11
2136.9210697880507
 21
665.99997030722124
  0
LINE
  8
_0-6_
  6
LONG3
 62
    5
 10
2136.9210697880507
 20
670.99998680320948
 11
2133.4212809366995
 21
668.50010227512666
  0
LINE
  8
_0-6_
  6
LONG3
 62
    5
 10
2133.4212809366995
 20
673.50011877111501
 11
2136.9210697880507
 21
670.99998680320948
  0
LINE
  8
_0-6_
  6
LONG3
 62
    5
 10
2136.9210697880507
 20
676.00000329919748
 11
2133.4212809366995
 21
673.50011877111501
  0
LINE
  8
_0-6_
  6
LONG3
 62
    5
 10
2133.4212809366995
 20
678.4998878272803
 11
2136.9210697880507
 21
676.00000329919748
  0
LINE
  8
_0-6_
  6
LONG3
 62
    5
 10
2136.9210697880507
 20
681.00001979518583
 11
2133.4212809366995
 21
678.4998878272803
  0
LINE
  8
_0-6_
  6
LONG3
 62
    5
 10
2133.4212809366995
 20
683.49990432326865
 11
2136.9210697880507
 21
681.00001979518583
  0
LINE
  8
_0-6_
  6
LONG3
 62
    5
 10
2136.9210697880507
 20
686.00003629117406
 11
2133.4212809366995
 21
683.49990432326865
  0
LINE
  8
_0-6_
  6
LONG3
 62
    5
 10
2133.4212809366995
 20
688.49992081925688
 11
2136.9210697880507
 21
686.00003629117406
  0
LINE
  8
_0-6_
  6
LONG3
 62
    5
 10
2136.9210697880507
 20
691.00005278716207
 11
2133.4212809366995
 21
688.49992081925688
  0
LINE
  8
_0-6_
  6
LONG3
 62
    5
 10
2133.4212809366995
 20
693.49993731524489
 11
2136.9210697880507
 21
691.00005278716207
  0
LINE
  8
_0-6_
  6
LONG3
 62
    5
 10
2136.9210697880507
 20
696.00006928315042
 11
2133.4212809366995
 21
693.49993731524489
  0
LINE
  8
_0-6_
  6
LONG3
 62
    5
 10
2133.4212809366995
 20
698.49995381123324
 11
2136.9210697880507
 21
696.00006928315042
  0
LINE
  8
_0-6_
  6
LONG3
 62
    5
 10
2136.9210697880507
 20
701.00008577913843
 11
2133.4212809366995
 21
698.49995381123324
  0
LINE
  8
_0-6_
  6
LONG3
 62
    5
 10
2133.4212809366995
 20
703.49997030722124
 11
2136.9210697880507
 21
701.00008577913843
  0
LINE
  8
_0-6_
  6
LONG3
 62
    5
 10
2136.9210697880507
 20
706.00010227512666
 11
2133.4212809366995
 21
703.49997030722124
  0
LINE
  8
_0-6_
  6
LONG3
 62
    5
 10
2133.4212809366995
 20
708.49998680320948
 11
2136.9210697880507
 21
706.00010227512666
  0
LINE
  8
_0-6_
  6
LONG3
 62
    5
 10
2136.9210697880507
 20
711.00011877111501
 11
2133.4212809366995
 21
708.49998680320948
  0
LINE
  8
_0-6_
  6
LONG3
 62
    5
 10
2133.4212809366995
 20
713.50000329919748
 11
2136.9210697880507
 21
711.00011877111501
  0
LINE
  8
_0-6_
  6
LONG3
 62
    5
 10
2136.9210697880507
 20
715.9998878272803
 11
2133.4212809366995
 21
713.50000329919748
  0
LINE
  8
_0-6_
  6
LONG3
 62
    5
 10
2133.4212809366995
 20
718.50001979518583
 11
2136.9210697880507
 21
715.9998878272803
  0
LINE
  8
_0-6_
  6
LONG3
 62
    5
 10
2136.9210697880507
 20
720.99990432326865
 11
2133.4212809366995
 21
718.50001979518583
  0
LINE
  8
_0-6_
  6
LONG3
 62
    5
 10
2133.4212809366995
 20
723.50003629117406
 11
2136.9210697880507
 21
720.99990432326865
  0
LINE
  8
_0-6_
  6
LONG3
 62
    5
 10
2136.9210697880507
 20
725.99992081925688
 11
2133.4212809366995
 21
723.50003629117406
  0
LINE
  8
_0-6_
  6
LONG3
 62
    5
 10
2133.4212809366995
 20
728.50005278716207
 11
2136.9210697880507
 21
725.99992081925688
  0
LINE
  8
_0-6_
  6
LONG3
 62
    5
 10
2136.9210697880507
 20
730.99993731524489
 11
2133.4212809366995
 21
728.50005278716207
  0
LINE
  8
_0-6_
  6
LONG3
 62
    5
 10
2133.4212809366995
 20
733.50006928315042
 11
2136.9210697880507
 21
730.99993731524489
  0
LINE
  8
_0-6_
  6
LONG3
 62
    5
 10
2136.9210697880507
 20
735.99995381123324
 11
2133.4212809366995
 21
733.50006928315042
  0
LINE
  8
_0-6_
  6
LONG3
 62
    5
 10
2133.4212809366995
 20
738.50008577913843
 11
2136.9210697880507
 21
735.99995381123324
  0
LINE
  8
_0-6_
  6
LONG3
 62
    5
 10
2136.9210697880507
 20
740.99997030722124
 11
2133.4212809366995
 21
738.50008577913843
  0
LINE
  8
_0-6_
  6
LONG3
 62
    5
 10
2133.4212809366995
 20
743.50010227512666
 11
2136.9210697880507
 21
740.99997030722124
  0
LINE
  8
_0-6_
  6
LONG3
 62
    5
 10
2136.9210697880507
 20
745.99998680320948
 11
2133.4212809366995
 21
743.50010227512666
  0
LINE
  8
_0-6_
  6
LONG3
 62
    5
 10
2133.4212809366995
 20
748.50011877111501
 11
2136.9210697880507
 21
745.99998680320948
  0
LINE
  8
_0-6_
  6
LONG3
 62
    5
 10
2136.9210697880507
 20
751.00000329919748
 11
2133.4212809366995
 21
748.50011877111501
  0
LINE
  8
_0-6_
  6
LONG3
 62
    5
 10
2133.4212809366995
 20
753.4998878272803
 11
2136.9210697880507
 21
751.00000329919748
  0
LINE
  8
_0-6_
  6
LONG3
 62
    5
 10
2136.9210697880507
 20
756.00001979518583
 11
2133.4212809366995
 21
753.4998878272803
  0
LINE
  8
_0-6_
  6
LONG3
 62
    5
 10
2133.4212809366995
 20
758.49990432326865
 11
2136.9210697880507
 21
756.00001979518583
  0
LINE
  8
_0-6_
  6
LONG3
 62
    5
 10
2136.9210697880507
 20
761.00003629117406
 11
2133.4212809366995
 21
758.49990432326865
  0
LINE
  8
_0-6_
  6
LONG3
 62
    5
 10
2133.4212809366995
 20
763.49992081925688
 11
2136.9210697880507
 21
761.00003629117406
  0
LINE
  8
_0-6_
  6
LONG3
 62
    5
 10
2136.9210697880507
 20
766.00005278716207
 11
2133.4212809366995
 21
763.49992081925688
  0
LINE
  8
_0-6_
  6
LONG3
 62
    5
 10
2133.4212809366995
 20
768.49993731524489
 11
2136.9210697880507
 21
766.00005278716207
  0
LINE
  8
_0-6_
  6
LONG3
 62
    5
 10
2136.9210697880507
 20
771.00006928315042
 11
2133.4212809366995
 21
768.49993731524489
  0
LINE
  8
_0-6_
  6
LONG3
 62
    5
 10
2133.4212809366995
 20
773.49995381123324
 11
2136.9210697880507
 21
771.00006928315042
  0
LINE
  8
_0-6_
  6
LONG3
 62
    5
 10
2136.9210697880507
 20
776.00008577913843
 11
2133.4212809366995
 21
773.49995381123324
  0
LINE
  8
_0-6_
  6
LONG3
 62
    5
 10
2133.4212809366995
 20
778.49997030722124
 11
2136.9210697880507
 21
776.00008577913843
  0
LINE
  8
_0-6_
  6
LONG3
 62
    5
 10
2136.9210697880507
 20
781.00010227512666
 11
2133.4212809366995
 21
778.49997030722124
  0
LINE
  8
_0-6_
  6
LONG3
 62
    5
 10
2133.4212809366995
 20
783.49998680320948
 11
2136.9210697880507
 21
781.00010227512666
  0
LINE
  8
_0-6_
  6
LONG3
 62
    5
 10
2136.9210697880507
 20
786.00011877111501
 11
2133.4212809366995
 21
783.49998680320948
  0
LINE
  8
_0-6_
  6
LONG3
 62
    5
 10
2133.4212809366995
 20
788.50000329919748
 11
2136.9210697880507
 21
786.00011877111501
  0
LINE
  8
_0-6_
  6
LONG3
 62
    5
 10
2136.9210697880507
 20
790.9998878272803
 11
2133.4212809366995
 21
788.50000329919748
  0
LINE
  8
_0-6_
  6
LONG3
 62
    5
 10
2133.4212809366995
 20
793.50001979518583
 11
2136.9210697880507
 21
790.9998878272803
  0
LINE
  8
_0-6_
  6
LONG3
 62
    5
 10
2136.9210697880507
 20
795.99990432326865
 11
2133.4212809366995
 21
793.50001979518583
  0
LINE
  8
_0-6_
  6
LONG3
 62
    5
 10
2133.4212809366995
 20
798.50003629117406
 11
2136.9210697880507
 21
795.99990432326865
  0
LINE
  8
_0-6_
  6
LONG3
 62
    5
 10
2136.9210697880507
 20
800.99992081925688
 11
2133.4212809366995
 21
798.50003629117406
  0
LINE
  8
_0-6_
  6
LONG3
 62
    5
 10
2133.4212809366995
 20
803.50005278716207
 11
2136.9210697880507
 21
800.99992081925688
  0
LINE
  8
_0-6_
  6
LONG3
 62
    5
 10
2136.9210697880507
 20
805.99993731524489
 11
2133.4212809366995
 21
803.50005278716207
  0
LINE
  8
_0-6_
  6
LONG3
 62
    5
 10
2133.4212809366995
 20
808.50006928315008
 11
2136.9210697880507
 21
805.99993731524489
  0
LINE
  8
_0-6_
  6
LONG3
 62
    5
 10
2136.9210697880507
 20
810.99995381123289
 11
2133.4212809366995
 21
808.50006928315008
  0
LINE
  8
_0-6_
  6
LONG3
 62
    5
 10
2133.4212809366995
 20
813.50008577913865
 11
2136.9210697880507
 21
810.99995381123289
  0
LINE
  8
_0-6_
  6
LONG3
 62
    5
 10
2136.9210697880507
 20
815.99997030722147
 11
2133.4212809366995
 21
813.50008577913865
  0
LINE
  8
_0-6_
  6
LONG3
 62
    5
 10
2133.4212809366995
 20
818.50010227512666
 11
2136.9210697880507
 21
815.99997030722147
  0
LINE
  8
_0-6_
  6
LONG3
 62
    5
 10
2136.9210697880507
 20
820.99998680320948
 11
2133.4212809366995
 21
818.50010227512666
  0
LINE
  8
_0-6_
  6
LONG3
 62
    5
 10
2133.4212809366995
 20
823.50011877111467
 11
2136.9210697880507
 21
820.99998680320948
  0
LINE
  8
_0-6_
  6
LONG3
 62
    5
 10
2136.9210697880507
 20
826.00000329919748
 11
2133.4212809366995
 21
823.50011877111467
  0
LINE
  8
_0-6_
  6
LONG3
 62
    5
 10
2133.4212809366995
 20
828.4998878272803
 11
2136.9210697880507
 21
826.00000329919748
  0
LINE
  8
_0-6_
  6
LONG3
 62
    5
 10
2136.9210697880507
 20
831.00001979518606
 11
2133.4212809366995
 21
828.4998878272803
  0
LINE
  8
_0-6_
  6
LONG3
 62
    5
 10
2133.4212809366995
 20
833.49990432326831
 11
2136.9210697880507
 21
831.00001979518606
  0
LINE
  8
_0-6_
  6
LONG3
 62
    5
 10
2136.9210697880507
 20
836.00003629117406
 11
2133.4212809366995
 21
833.49990432326831
  0
LINE
  8
_0-6_
  6
LONG3
 62
    5
 10
2133.4212809366995
 20
838.49992081925688
 11
2136.9210697880507
 21
836.00003629117406
  0
LINE
  8
_0-6_
  6
LONG3
 62
    5
 10
2136.9210697880507
 20
841.00005278716207
 11
2133.4212809366995
 21
838.49992081925688
  0
LINE
  8
_0-6_
  6
LONG3
 62
    5
 10
2133.4212809366995
 20
843.49993731524489
 11
2136.9210697880507
 21
841.00005278716207
  0
LINE
  8
_0-6_
  6
LONG3
 62
    5
 10
2136.9210697880507
 20
846.00006928314996
 11
2133.4212809366995
 21
843.49993731524489
  0
LINE
  8
_0-6_
  6
LONG3
 62
    5
 10
2133.4212809366995
 20
848.49995381123278
 11
2136.9210697880507
 21
846.00006928314996
  0
LINE
  8
_0-6_
  6
LONG3
 62
    5
 10
2136.9210697880507
 20
851.00008577913854
 11
2133.4212809366995
 21
848.49995381123278
  0
LINE
  8
_0-6_
  6
LONG3
 62
    5
 10
2133.4212809366995
 20
853.49997030722136
 11
2136.9210697880507
 21
851.00008577913854
  0
LINE
  8
_0-6_
  6
LONG3
 62
    5
 10
2136.9210697880507
 20
856.00010227512655
 11
2133.4212809366995
 21
853.49997030722136
  0
LINE
  8
_0-6_
  6
LONG3
 62
    5
 10
2133.4212809366995
 20
858.49998680320936
 11
2136.9210697880507
 21
856.00010227512655
  0
LINE
  8
_0-6_
  6
LONG3
 62
    5
 10
2136.9210697880507
 20
861.00011877111455
 11
2133.4212809366995
 21
858.49998680320936
  0
LINE
  8
_0-6_
  6
LONG3
 62
    5
 10
2133.4212809366995
 20
863.50000329919737
 11
2136.9210697880507
 21
861.00011877111455
  0
LINE
  8
_0-6_
  6
LONG3
 62
    5
 10
2136.9210697880507
 20
865.99988782728019
 11
2133.4212809366995
 21
863.50000329919737
  0
LINE
  8
_0-6_
  6
LONG3
 62
    5
 10
2133.4212809366995
 20
868.50001979518594
 11
2136.9210697880507
 21
865.99988782728019
  0
LINE
  8
_0-6_
  6
LONG3
 62
    5
 10
2136.9210697880507
 20
870.99990432326819
 11
2133.4212809366995
 21
868.50001979518594
  0
LINE
  8
_0-6_
  6
LONG3
 62
    5
 10
2133.4212809366995
 20
873.50003629117395
 11
2136.9210697880507
 21
870.99990432326819
  0
LINE
  8
_0-6_
  6
LONG3
 62
    5
 10
2136.9210697880507
 20
875.99992081925677
 11
2133.4212809366995
 21
873.50003629117395
  0
LINE
  8
_0-6_
  6
LONG3
 62
    5
 10
2133.4212809366995
 20
878.50005278716196
 11
2136.9210697880507
 21
875.99992081925677
  0
LINE
  8
_0-6_
  6
LONG3
 62
    5
 10
2136.9210697880507
 20
880.99993731524477
 11
2133.4212809366995
 21
878.50005278716196
  0
LINE
  8
_0-6_
  6
LONG3
 62
    5
 10
2133.4212809366995
 20
883.50006928314996
 11
2136.9210697880507
 21
880.99993731524477
  0
LINE
  8
_0-6_
  6
LONG3
 62
    5
 10
2136.9210697880507
 20
885.99995381123278
 11
2133.4212809366995
 21
883.50006928314996
  0
LINE
  8
_0-6_
  6
LONG3
 62
    5
 10
2133.4212809366995
 20
888.50008577913854
 11
2136.9210697880507
 21
885.99995381123278
  0
LINE
  8
_0-6_
  6
LONG3
 62
    5
 10
2136.9210697880507
 20
890.99997030722136
 11
2133.4212809366995
 21
888.50008577913854
  0
LINE
  8
_0-6_
  6
LONG3
 62
    5
 10
2133.4212809366995
 20
893.50010227512655
 11
2136.9210697880507
 21
890.99997030722136
  0
LINE
  8
_0-6_
  6
LONG3
 62
    5
 10
2136.9210697880507
 20
895.99998680320936
 11
2133.4212809366995
 21
893.50010227512655
  0
LINE
  8
_0-6_
  6
LONG3
 62
    5
 10
2133.4212809366995
 20
898.50011877111455
 11
2136.9210697880507
 21
895.99998680320936
  0
LINE
  8
_0-6_
  6
LONG3
 62
    5
 10
2136.9210697880507
 20
901.00000329919737
 11
2133.4212809366995
 21
898.50011877111455
  0
LINE
  8
_0-6_
  6
LONG3
 62
    5
 10
2133.4212809366995
 20
903.49988782728019
 11
2136.9210697880507
 21
901.00000329919737
  0
LINE
  8
_0-6_
  6
LONG3
 62
    5
 10
2136.9210697880507
 20
906.00001979518594
 11
2133.4212809366995
 21
903.49988782728019
  0
LINE
  8
_0-6_
  6
LONG3
 62
    5
 10
2133.4212809366995
 20
908.49990432326819
 11
2136.9210697880507
 21
906.00001979518594
  0
LINE
  8
_0-6_
  6
LONG3
 62
    5
 10
2136.9210697880507
 20
911.00003629117395
 11
2133.4212809366995
 21
908.49990432326819
  0
LINE
  8
_0-6_
  6
LONG3
 62
    5
 10
2133.4212809366995
 20
913.49992081925677
 11
2136.9210697880507
 21
911.00003629117395
  0
LINE
  8
_0-6_
  6
LONG3
 62
    5
 10
2136.9210697880507
 20
916.00005278716196
 11
2133.4212809366995
 21
913.49992081925677
  0
LINE
  8
_0-6_
  6
LONG3
 62
    5
 10
2133.4212809366995
 20
918.49993731524477
 11
2136.9210697880507
 21
916.00005278716196
  0
LINE
  8
_0-6_
  6
LONG3
 62
    5
 10
2136.9210697880507
 20
921.00006928314996
 11
2133.4212809366995
 21
918.49993731524477
  0
LINE
  8
_0-6_
  6
LONG3
 62
    5
 10
2133.4212809366995
 20
923.49995381123278
 11
2136.9210697880507
 21
921.00006928314996
  0
LINE
  8
_0-6_
  6
LONG3
 62
    5
 10
2136.9210697880507
 20
926.00008577913854
 11
2133.4212809366995
 21
923.49995381123278
  0
LINE
  8
_0-6_
  6
LONG3
 62
    5
 10
2133.4212809366995
 20
928.49997030722136
 11
2136.9210697880507
 21
926.00008577913854
  0
LINE
  8
_0-6_
  6
LONG3
 62
    5
 10
2136.9210697880507
 20
931.00010227512655
 11
2133.4212809366995
 21
928.49997030722136
  0
LINE
  8
_0-6_
  6
LONG3
 62
    5
 10
2133.4212809366995
 20
933.49998680320936
 11
2136.9210697880507
 21
931.00010227512655
  0
LINE
  8
_0-6_
  6
LONG3
 62
    5
 10
2136.9210697880507
 20
936.00011877111455
 11
2133.4212809366995
 21
933.49998680320936
  0
LINE
  8
_0-6_
  6
LONG3
 62
    5
 10
2133.4212809366995
 20
938.50000329919737
 11
2136.9210697880507
 21
936.00011877111455
  0
LINE
  8
_0-6_
  6
LONG3
 62
    5
 10
2136.9210697880507
 20
940.99988782728019
 11
2133.4212809366995
 21
938.50000329919737
  0
LINE
  8
_0-6_
  6
LONG3
 62
    5
 10
2133.4212809366995
 20
943.50001979518594
 11
2136.9210697880507
 21
940.99988782728019
  0
LINE
  8
_0-6_
  6
LONG3
 62
    5
 10
2136.9210697880507
 20
945.99990432326819
 11
2133.4212809366995
 21
943.50001979518594
  0
LINE
  8
_0-6_
  6
LONG3
 62
    5
 10
2133.4212809366995
 20
948.50003629117395
 11
2136.9210697880507
 21
945.99990432326819
  0
LINE
  8
_0-6_
  6
LONG3
 62
    5
 10
2136.9210697880507
 20
950.99992081925677
 11
2133.4212809366995
 21
948.50003629117395
  0
LINE
  8
_0-6_
  6
LONG3
 62
    5
 10
2133.4212809366995
 20
953.50005278716196
 11
2136.9210697880507
 21
950.99992081925677
  0
LINE
  8
_0-6_
  6
LONG3
 62
    5
 10
2136.9210697880507
 20
955.99993731524477
 11
2133.4212809366995
 21
953.50005278716196
  0
LINE
  8
_0-6_
  6
LONG3
 62
    5
 10
2133.4212809366995
 20
958.50006928314996
 11
2136.9210697880507
 21
955.99993731524477
  0
LINE
  8
_0-6_
  6
LONG3
 62
    5
 10
2136.9210697880507
 20
960.99995381123278
 11
2133.4212809366995
 21
958.50006928314996
  0
LINE
  8
_0-6_
  6
LONG3
 62
    5
 10
2133.4212809366995
 20
963.50008577913854
 11
2136.9210697880507
 21
960.99995381123278
  0
LINE
  8
_0-6_
  6
LONG3
 62
    5
 10
2136.9210697880507
 20
965.99997030722136
 11
2133.4212809366995
 21
963.50008577913854
  0
LINE
  8
_0-6_
  6
LONG3
 62
    5
 10
2133.4212809366995
 20
968.50010227512655
 11
2136.9210697880507
 21
965.99997030722136
  0
LINE
  8
_0-6_
  6
LONG3
 62
    5
 10
2136.9210697880507
 20
970.99998680320936
 11
2133.4212809366995
 21
968.50010227512655
  0
LINE
  8
_0-6_
  6
LONG3
 62
    5
 10
2133.4212809366995
 20
973.50011877111455
 11
2136.9210697880507
 21
970.99998680320936
  0
LINE
  8
_0-6_
  6
LONG3
 62
    5
 10
2136.9210697880507
 20
976.00000329919737
 11
2133.4212809366995
 21
973.50011877111455
  0
LINE
  8
_0-6_
  6
LONG3
 62
    5
 10
2133.4212809366995
 20
978.49988782728019
 11
2136.9210697880507
 21
976.00000329919737
  0
LINE
  8
_0-6_
  6
LONG3
 62
    5
 10
2136.9210697880507
 20
981.00001979518594
 11
2133.4212809366995
 21
978.49988782728019
  0
LINE
  8
_0-6_
  6
LONG3
 62
    5
 10
2133.4212809366995
 20
983.49990432326819
 11
2136.9210697880507
 21
981.00001979518594
  0
LINE
  8
_0-6_
  6
LONG3
 62
    5
 10
2136.9210697880507
 20
986.00003629117395
 11
2133.4212809366995
 21
983.49990432326819
  0
LINE
  8
_0-6_
  6
LONG3
 62
    5
 10
2133.4212809366995
 20
988.49992081925677
 11
2136.9210697880507
 21
986.00003629117395
  0
LINE
  8
_0-6_
  6
LONG3
 62
    5
 10
2136.9210697880507
 20
991.00005278716196
 11
2133.4212809366995
 21
988.49992081925677
  0
LINE
  8
_0-6_
  6
LONG3
 62
    5
 10
2133.4212809366995
 20
993.49993731524477
 11
2136.9210697880507
 21
991.00005278716196
  0
LINE
  8
_0-6_
  6
LONG3
 62
    5
 10
2136.9210697880507
 20
996.00006928314996
 11
2133.4212809366995
 21
993.49993731524477
  0
LINE
  8
_0-6_
  6
LONG3
 62
    5
 10
2133.4212809366995
 20
998.49995381123278
 11
2136.9210697880507
 21
996.00006928314996
  0
LINE
  8
_0-6_
  6
LONG3
 62
    5
 10
2136.9210697880507
 20
1001.0000857791385
 11
2133.4212809366995
 21
998.49995381123278
  0
LINE
  8
_0-6_
  6
LONG3
 62
    5
 10
2133.4212809366995
 20
1003.4999703072212
 11
2136.9210697880507
 21
1001.0000857791385
  0
LINE
  8
_0-6_
  6
LONG3
 62
    5
 10
2136.9210697880507
 20
1006.0001022751265
 11
2133.4212809366995
 21
1003.4999703072212
  0
LINE
  8
_0-6_
  6
LONG3
 62
    5
 10
2133.4212809366995
 20
1008.4999868032092
 11
2136.9210697880507
 21
1006.0001022751265
  0
LINE
  8
_0-6_
  6
LONG3
 62
    5
 10
2136.9210697880507
 20
1011.0001187711144
 11
2133.4212809366995
 21
1008.4999868032092
  0
LINE
  8
_0-6_
  6
LONG3
 62
    5
 10
2133.4212809366995
 20
1013.500003299197
 11
2136.9210697880507
 21
1011.0001187711144
  0
LINE
  8
_0-6_
  6
LONG3
 62
    5
 10
2136.9210697880507
 20
1015.9998878272799
 11
2133.4212809366995
 21
1013.500003299197
  0
LINE
  8
_0-6_
  6
LONG3
 62
    5
 10
2133.4212809366995
 20
1018.5000197951859
 11
2136.9210697880507
 21
1015.9998878272799
  0
LINE
  8
_0-6_
  6
LONG3
 62
    5
 10
2136.9210697880507
 20
1020.9999043232678
 11
2133.4212809366995
 21
1018.5000197951859
  0
LINE
  8
_0-6_
  6
LONG3
 62
    5
 10
2133.4212809366995
 20
1023.5000362911739
 11
2136.9210697880507
 21
1020.9999043232678
  0
LINE
  8
_0-6_
  6
LONG3
 62
    5
 10
2136.9210697880507
 20
1025.9999208192566
 11
2133.4212809366995
 21
1023.5000362911739
  0
LINE
  8
_0-6_
  6
LONG3
 62
    5
 10
2133.4212809366995
 20
1028.500052787162
 11
2136.9210697880507
 21
1025.9999208192566
  0
LINE
  8
_0-6_
  6
LONG3
 62
    5
 10
2136.9210697880507
 20
1030.9999373152447
 11
2133.4212809366995
 21
1028.500052787162
  0
LINE
  8
_0-6_
  6
LONG3
 62
    5
 10
2133.4212809366995
 20
1033.5000692831499
 11
2136.9210697880507
 21
1030.9999373152447
  0
LINE
  8
_0-6_
  6
LONG3
 62
    5
 10
2136.9210697880507
 20
1035.9999538112328
 11
2133.4212809366995
 21
1033.5000692831499
  0
LINE
  8
_0-6_
  6
LONG3
 62
    5
 10
2133.4212809366995
 20
1038.5000857791385
 11
2136.9210697880507
 21
1035.9999538112328
  0
LINE
  8
_0-6_
  6
LONG3
 62
    5
 10
2135.0712096740307
 20
1040.9999703072212
 11
2133.4212809366995
 21
1038.5000857791385
  0
LINE
  8
_0-2_天板
  6
DASHED2
 62
    4
 10
729.76252603542206
 20
1385
 11
714.76252603542206
 21
1385
  0
LINE
  8
_0-2_天板
  6
DASHED2
 62
    4
 10
714.76252603542206
 20
1370
 11
729.76252603542206
 21
1370
  0
ARC
  8
_0-2_天板
  6
DASHED2
 62
    4
 10
729.76252603542206
 20
1377.5
 40
7.5
 50
269.99999999999988
 51
89.999999999999943
  0
ARC
  8
_0-2_天板
  6
DASHED2
 62
    4
 10
699.76252603542206
 20
1377.5
 40
7.5
 50
90.000000000000028
 51
270.00000000000011
  0
LINE
  8
_0-2_天板
  6
DASHED2
 62
    4
 10
714.76252603542206
 20
1370
 11
699.76252603542206
 21
1370
  0
LINE
  8
_0-2_天板
  6
DASHED2
 62
    4
 10
699.76252603542206
 20
1385
 11
714.76252603542206
 21
1385
  0
LINE
  8
_0-2_天板
  6
CONTINUOUS
 62
    4
 10
961.76252603542206
 20
1411
 11
961.76252603542206
 21
1447
  0
ARC
  8
_0-2_天板
  6
CONTINUOUS
 62
    4
 10
953.76252603542206
 20
1447
 40
8
 50
359.99999999999994
 51
89.999999999999943
  0
ARC
  8
_0-2_天板
  6
CONTINUOUS
 62
    4
 10
-37.879473964578096
 20
1437.6311999999998
 40
1000
 50
355.76599999999996
 51
358.45999999999997
  0
ARC
  8
_0-2_天板
  6
CONTINUOUS
 62
    4
 10
952.76252603542206
 20
1431
 40
9
 50
359.99999999999994
 51
109.13099999999997
  0
ARC
  8
_0-2_天板
  6
CONTINUOUS
 62
    4
 10
976.03172603542179
 20
1363.9211999999999
 40
80
 50
109.13099999999997
 51
133.17699999999999
  0
ARC
  8
_0-2_天板
  6
CONTINUOUS
 62
    4
 10
911.02812603542179
 20
1433.1999999999998
 40
15
 50
269.99999999999988
 51
313.1769999999999
  0
ARC
  8
_0-2_天板
  6
CONTINUOUS
 62
    4
 10
714.76252603542206
 20
1880
 40
600
 50
269.99999999999988
 51
284.25999999999987
  0
ARC
  8
_0-2_天板
  6
CONTINUOUS
 62
    4
 10
919.49892603542184
 20
1366.7316
 40
40
 50
303.36299999999994
 51
355.76499999999998
  0
ARC
  8
_0-2_天板
  6
CONTINUOUS
 62
    4
 10
798.51092603542213
 20
1550.4755999999999
 40
260
 50
284.25999999999993
 51
303.36299999999994
  0
ARC
  8
_0-2_天板
  6
CONTINUOUS
 62
    4
 10
952.76252603542206
 20
1411
 40
9
 50
358.45999999999997
 51
97.212999999999979
  0
ARC
  8
_0-2_天板
  6
CONTINUOUS
 62
    4
 10
714.76252603542206
 20
3291.6332000000002
 40
1886.6331999999999
 50
269.99999999999994
 51
277.21299999999996
  0
LINE
  8
_0-2_天板
  6
CONTINUOUS
 62
    4
 10
520.77092603542212
 20
1415
 11
852.02412603542188
 21
1415
  0
LINE
  8
_0-2_天板
  6
CONTINUOUS
 62
    4
 10
911.02812603542201
 20
1418.1999999999998
 11
518.49692603542223
 21
1418.1999999999998
  0
LINE
  8
_0-2_天板
  6
CONTINUOUS
 62
    4
 10
475.76252603542201
 20
1455
 11
953.76252603542206
 21
1455
  0
ARC
  8
_0-2_天板
  6
CONTINUOUS
 62
    4
 10
714.76252603542206
 20
3291.6332000000002
 40
1886.6331999999999
 50
262.78700000000003
 51
270.00000000000005
  0
ARC
  8
_0-2_天板
  6
CONTINUOUS
 62
    4
 10
476.76252603542195
 20
1411
 40
9
 50
82.78700000000002
 51
181.54000000000002
  0
ARC
  8
_0-2_天板
  6
CONTINUOUS
 62
    4
 10
631.014126035422
 20
1550.4755999999999
 40
260
 50
236.63700000000002
 51
255.74000000000006
  0
ARC
  8
_0-2_天板
  6
CONTINUOUS
 62
    4
 10
510.02612603542218
 20
1366.7316
 40
40
 50
184.23500000000004
 51
236.63700000000002
  0
ARC
  8
_0-2_天板
  6
CONTINUOUS
 62
    4
 10
714.76252603542206
 20
1880
 40
600
 50
255.74000000000006
 51
270.00000000000005
  0
ARC
  8
_0-2_天板
  6
CONTINUOUS
 62
    4
 10
518.49692603542223
 20
1433.1999999999998
 40
15
 50
226.82300000000006
 51
270.00000000000005
  0
ARC
  8
_0-2_天板
  6
CONTINUOUS
 62
    4
 10
453.49332603542222
 20
1363.9211999999999
 40
80
 50
46.823000000000014
 51
70.869000000000028
  0
ARC
  8
_0-2_天板
  6
CONTINUOUS
 62
    4
 10
476.76252603542195
 20
1431
 40
9
 50
70.869000000000028
 51
180.00000000000011
  0
ARC
  8
_0-2_天板
  6
CONTINUOUS
 62
    4
 10
1467.4045260354223
 20
1437.6311999999998
 40
1000
 50
181.54000000000002
 51
184.23400000000006
  0
ARC
  8
_0-2_天板
  6
CONTINUOUS
 62
    4
 10
475.76252603542201
 20
1447
 40
8
 50
90.000000000000028
 51
180.00000000000005
  0
LINE
  8
_0-2_天板
  6
CONTINUOUS
 62
    4
 10
467.76252603542218
 20
1411
 11
467.76252603542218
 21
1447
  0
LINE
  8
_0-3_キャビネット
  6
CONTINUOUS
 62
    5
 10
947.26252603542206
 20
1300
 11
947.26252603542206
 21
580
  0
POINT
  8
_0-9_寸法線
 62
    3
 10
947.26252603542206
 20
392.08277206296656
  0
POINT
  8
_0-9_寸法線
 62
    3
 10
1129.762526035422
 20
580
  0
POINT
  8
_0-9_寸法線
 62
    3
 10
1209.762526035422
 20
580
  0
LINE
  8
_0-9_寸法線
  6
CONTINUOUS
 62
    4
 10
1129.762526035422
 20
580
 11
1129.762526035422
 21
670
  0
POINT
  8
_0-9_寸法線
 62
    3
 10
482.26252603542206
 20
392.08277206296656
  0
LINE
  8
_0-9_寸法線
  6
CONTINUOUS
 62
    4
 10
947.26252603542206
 20
392.08277206296656
 11
482.26252603542206
 21
392.08277206296656
  0
TEXT
  8
_0-9_寸法線
 62
    7
 10
681.66252603542204
 20
392.08277206296656
 40
35
 41
0.6285714285714286
 50
0
  1
４６５
  0
LINE
  8
_0-3_キャビネット
  6
CONTINUOUS
 62
    5
 10
482.26252603542206
 20
580
 11
947.26252603542206
 21
580
  0
LINE
  8
_0-3_キャビネット
  6
CONTINUOUS
 62
    4
 10
482.26252603542206
 20
670
 11
947.26252603542206
 21
670
  0
LINE
  8
_0-4_扉
  6
CONTINUOUS
 62
    3
 10
484.76252603542206
 20
673
 11
944.76252603542252
 21
673
  0
LINE
  8
_f-8_
  6
CONTINUOUS
 62
    7
 10
2165
 20
2872
 11
2166.15
 21
2874.0000000000004
  0
LINE
  8
_f-8_
  6
CONTINUOUS
 62
    7
 10
2158.6399999999998
 20
2877
 11
2165
 21
2866
  0
LINE
  8
_f-8_
  6
CONTINUOUS
 62
    7
 10
2165
 20
2866
 11
2171.3499999999999
 21
2877
  0
LINE
  8
_f-8_
  6
CONTINUOUS
 62
    7
 10
2165
 20
2860
 11
2176.5399999999999
 21
2880
  0
LINE
  8
_f-8_
  6
CONTINUOUS
 62
    7
 10
2153.4499999999998
 20
2880
 11
2165
 21
2860
  0
LINE
  8
_f-8_
  6
CONTINUOUS
 62
    7
 10
2176.5399999999999
 20
2880
 11
2153.4499999999998
 21
2880
  0
LINE
  8
_f-8_
  6
CONTINUOUS
 62
    7
 10
2163.8400000000001
 20
2874.0000000000004
 11
2165
 21
2872
  0
LINE
  8
_f-8_
  6
CONTINUOUS
 62
    7
 10
2166.15
 20
2874.0000000000004
 11
2163.8400000000001
 21
2874.0000000000004
  0
LINE
  8
_f-8_
  6
CONTINUOUS
 62
    7
 10
2171.3499999999999
 20
2877
 11
2158.6399999999998
 21
2877
  0
LINE
  8
_f-9_
  6
CONTINUOUS
 62
    7
 10
630
 20
120
 11
630
 21
220
  0
LINE
  8
_f-9_
  6
CONTINUOUS
 62
    7
 10
170
 20
120
 11
610
 21
120
  0
LINE
  8
_f-9_
  6
CONTINUOUS
 62
    7
 10
170
 20
220
 11
610
 21
220
  0
LINE
  8
_f-9_
  6
CONTINUOUS
 62
    7
 10
1420
 20
120
 11
1420
 21
220
  0
LINE
  8
_f-9_
  6
CONTINUOUS
 62
    7
 10
2210
 20
120
 11
2210
 21
220
  0
LINE
  8
_f-9_
  6
CONTINUOUS
 62
    7
 10
2220
 20
120
 11
2220
 21
220
  0
LINE
  8
_f-9_
  6
CONTINUOUS
 62
    7
 10
630
 20
120
 11
2210
 21
120
  0
LINE
  8
_f-9_
  6
CONTINUOUS
 62
    7
 10
630
 20
220
 11
2210
 21
220
  0
LINE
  8
_f-9_
  6
CONTINUOUS
 62
    7
 10
2710
 20
120
 11
2710
 21
220
  0
LINE
  8
_f-9_
  6
CONTINUOUS
 62
    7
 10
2720
 20
120
 11
2720
 21
220
  0
LINE
  8
_f-9_
  6
CONTINUOUS
 62
    7
 10
2220
 20
120
 11
2710
 21
120
  0
LINE
  8
_f-9_
  6
CONTINUOUS
 62
    7
 10
2220
 20
220
 11
2710
 21
220
  0
LINE
  8
_f-9_
  6
CONTINUOUS
 62
    7
 10
3020
 20
120
 11
3020
 21
220
  0
LINE
  8
_f-9_
  6
CONTINUOUS
 62
    7
 10
3320
 20
120
 11
3320
 21
220
  0
LINE
  8
_f-9_
  6
CONTINUOUS
 62
    7
 10
3700
 20
120
 11
3700
 21
220
  0
LINE
  8
_f-9_
  6
CONTINUOUS
 62
    7
 10
2720
 20
120
 11
4110
 21
120
  0
LINE
  8
_f-9_
  6
CONTINUOUS
 62
    7
 10
4110
 20
120
 11
4110
 21
220
  0
LINE
  8
_f-9_
  6
CONTINUOUS
 62
    7
 10
2720
 20
220
 11
4110
 21
220
  0
LINE
  8
_0-0_
  6
CONTINUOUS
 62
    7
 10
4130
 20
2860
 11
4130
 21
100
  0
LINE
  8
_0-0_
  6
CONTINUOUS
 62
    7
 10
150
 20
2860
 11
4130
 21
2860
  0
LINE
  8
_0-0_
  6
CONTINUOUS
 62
    7
 10
150
 20
100
 11
4130
 21
100
  0
LINE
  8
_0-0_
  6
CONTINUOUS
 62
    7
 10
150
 20
100
 11
150
 21
2860
  0
TEXT
  8
_f-8_
 62
    7
 10
3040
 20
187.5
 40
25
 41
0.64
 50
0
  1
ＤＡＴＡ
  0
TEXT
  8
_f-8_
 62
    7
 10
3340
 20
187.5
 40
25
 41
0.64
 50
0
  1
ＣＨＥＣＫＥＤ
  0
TEXT
  8
_f-8_
 62
    7
 10
3720
 20
187.5
 40
25
 41
0.64
 50
0
  1
ＳＨＥＥＴ　ＮＯ．
  0
LINE
  8
_f-9_
  6
CONTINUOUS
 62
    7
 10
170
 20
170
 11
610
 21
170
  0
TEXT
  8
_f-8_
 62
    7
 10
2861
 20
142.5
 40
35
 41
0.5714285714285711
 50
0
  1
１／１０
  0
TEXT
  8
_f-8_
 62
    7
 10
2740.3739840854213
 20
187.46937299484983
 40
25
 41
0.64
 50
0
  1
ＳＣＡＬＥ
  0
TEXT
  8
_f-8_
 62
    7
 10
1445
 20
187.5
 40
25
 41
0.8
 50
0
  1
図面名称
  0
TEXT
  8
_f-8_
 62
    7
 10
655
 20
187.5
 40
25
 41
0.8
 50
0
  1
名　称
  0
LINE
  8
_f-7_
  6
CONTINUOUS
 62
    7
 10
120
 20
1462.6794919243113
 11
120
 21
1497.3205080756886
  0
LINE
  8
_f-7_
  6
CONTINUOUS
 62
    7
 10
120
 20
1497.3205080756886
 11
150
 21
1480
  0
LINE
  8
_f-7_
  6
CONTINUOUS
 62
    7
 10
150
 20
1480
 11
120
 21
1462.6794919243113
  0
LINE
  8
_f-7_
  6
CONTINUOUS
 62
    7
 10
125
 20
1471.3397459621555
 11
125
 21
1488.6602540378444
  0
LINE
  8
_f-7_
  6
CONTINUOUS
 62
    7
 10
125
 20
1488.6602540378444
 11
140
 21
1480
  0
LINE
  8
_f-7_
  6
CONTINUOUS
 62
    7
 10
140
 20
1480
 11
125
 21
1471.3397459621555
  0
LINE
  8
_f-7_
  6
CONTINUOUS
 62
    7
 10
128.99999999999977
 20
1478.2679491924309
 11
128.99999999999977
 21
1481.732050807569
  0
LINE
  8
_f-7_
  6
CONTINUOUS
 62
    7
 10
128.99999999999977
 20
1481.732050807569
 11
132.00000000000045
 21
1480
  0
LINE
  8
_f-7_
  6
CONTINUOUS
 62
    7
 10
132.00000000000045
 20
1480
 11
128.99999999999977
 21
1478.2679491924309
  0
LINE
  8
_f-7_
  6
CONTINUOUS
 62
    7
 10
4160
 20
1462.6794919243113
 11
4160
 21
1497.3205080756886
  0
LINE
  8
_f-7_
  6
CONTINUOUS
 62
    7
 10
4160
 20
1497.3205080756886
 11
4130
 21
1480
  0
LINE
  8
_f-7_
  6
CONTINUOUS
 62
    7
 10
4130
 20
1480
 11
4160
 21
1462.6794919243113
  0
LINE
  8
_f-7_
  6
CONTINUOUS
 62
    7
 10
4155
 20
1471.3397459621555
 11
4155
 21
1488.6602540378444
  0
LINE
  8
_f-7_
  6
CONTINUOUS
 62
    7
 10
4155
 20
1488.6602540378444
 11
4140
 21
1480
  0
LINE
  8
_f-7_
  6
CONTINUOUS
 62
    7
 10
4140
 20
1480
 11
4155
 21
1471.3397459621555
  0
LINE
  8
_f-7_
  6
CONTINUOUS
 62
    7
 10
4151
 20
1478.2679491924309
 11
4151
 21
1481.732050807569
  0
LINE
  8
_f-7_
  6
CONTINUOUS
 62
    7
 10
4151
 20
1481.732050807569
 11
4148
 21
1480
  0
LINE
  8
_f-7_
  6
CONTINUOUS
 62
    7
 10
4148
 20
1480
 11
4151
 21
1478.2679491924309
  0
LINE
  8
_0-d_仕様表
  6
CONTINUOUS
 62
    3
 10
4115
 20
2845
 11
3129.9989999999997
 21
2845
  0
LINE
  8
_0-d_仕様表
  6
CONTINUOUS
 62
    7
 10
4115
 20
2285
 11
3129.9989999999997
 21
2285
  0
LINE
  8
_0-d_仕様表
  6
CONTINUOUS
 62
    7
 10
4115
 20
2355
 11
3129.9989999999997
 21
2355
  0
LINE
  8
_0-d_仕様表
  6
CONTINUOUS
 62
    7
 10
4115
 20
2425
 11
3129.9989999999997
 21
2425
  0
LINE
  8
_0-d_仕様表
  6
CONTINUOUS
 62
    7
 10
4115
 20
2495
 11
3129.9989999999997
 21
2495
  0
LINE
  8
_0-d_仕様表
  6
CONTINUOUS
 62
    7
 10
4115
 20
2565
 11
3129.9989999999997
 21
2565
  0
LINE
  8
_0-d_仕様表
  6
CONTINUOUS
 62
    7
 10
4115
 20
2635
 11
3129.9989999999997
 21
2635
  0
LINE
  8
_0-d_仕様表
  6
CONTINUOUS
 62
    7
 10
4115
 20
2705
 11
3129.9989999999997
 21
2705
  0
LINE
  8
_0-d_仕様表
  6
CONTINUOUS
 62
    7
 10
4115
 20
2775
 11
3129.9989999999997
 21
2775
  0
LINE
  8
_0-d_仕様表
  6
CONTINUOUS
 62
    7
 10
4115
 20
2780
 11
3129.9989999999997
 21
2780
  0
TEXT
  8
_0-d_仕様表
 62
    7
 10
3216.9989999999997
 20
2302.5
 40
35
 41
0.8571428571428568
 50
0
  1
把　　手
  0
TEXT
  8
_0-d_仕様表
 62
    7
 10
3264.9989999999997
 20
2442.5
 40
35
 41
0.8571428571428568
 50
0
  1
扉
  0
TEXT
  8
_0-d_仕様表
 62
    7
 10
3216.9989999999997
 20
2372.5
 40
35
 41
0.8571428571428568
 50
0
  1
丁　　番
  0
TEXT
  8
_0-d_仕様表
 62
    7
 10
3216.9989999999997
 20
2512.5
 40
35
 41
0.8571428571428568
 50
0
  1
背　　板
  0
TEXT
  8
_0-d_仕様表
 62
    7
 10
3216.9989999999997
 20
2652.5
 40
35
 41
0.8571428571428568
 50
0
  1
側　　板
  0
TEXT
  8
_0-d_仕様表
 62
    7
 10
3216.9989999999997
 20
2582.5
 40
35
 41
0.8571428571428568
 50
0
  1
地　　板
  0
TEXT
  8
_0-d_仕様表
 62
    7
 10
3454.9989999999997
 20
2302.5
 40
35
 41
0.8571428571428568
 50
0
  1
アルミ一文字把手
  0
TEXT
  8
_0-d_仕様表
 62
    7
 10
3527.4994999999998
 20
2795
 40
35
 41
0.8571428571428568
 50
0
  1
仕　　　　様
  0
TEXT
  8
_0-d_仕様表
 62
    7
 10
3454.9989999999997
 20
2442.5
 40
35
 41
0.7714285714285713
 50
0
  1
低圧メラミン化粧パーティクルボード　１２ｔ
  0
TEXT
  8
_0-d_仕様表
 62
    7
 10
3454.9989999999997
 20
2652.5
 40
35
 41
0.7714285714285713
 50
0
  1
低圧メラミン化粧パーティクルボード　１２ｔ
  0
TEXT
  8
_f-d_固定文字
 62
    7
 10
150.01499999999992
 20
65
 40
20
 41
1
 50
0
  1
%f
  0
TEXT
  8
_f-d_固定文字
 62
    7
 10
3989
 20
65.00000323002979
 40
20
 41
1
 50
0
  1
%y
  0
TEXT
  8
_f-d_固定文字
 62
    7
 10
4020
 20
65.00000323002979
 40
20
 41
1
 50
0
  1
．
  0
TEXT
  8
_f-d_固定文字
 62
    7
 10
4049
 20
65.00000323002979
 40
20
 41
1
 50
0
  1
%m
  0
TEXT
  8
_f-d_固定文字
 62
    7
 10
4080
 20
65.00000323002979
 40
20
 41
1
 50
0
  1
．
  0
TEXT
  8
_f-d_固定文字
 62
    7
 10
4109
 20
65.00000323002979
 40
20
 41
1
 50
0
  1
%d
  0
LINE
  8
_0-d_仕様表
  6
CONTINUOUS
 62
    3
 10
3129.9989999999997
 20
2845
 11
3129.9989999999997
 21
2215
  0
LINE
  8
_0-d_仕様表
  6
CONTINUOUS
 62
    3
 10
4115
 20
2215
 11
3129.9989999999997
 21
2215
  0
LINE
  8
_0-d_仕様表
  6
CONTINUOUS
 62
    3
 10
4115
 20
2215
 11
4115
 21
2845
  0
LINE
  8
_0-d_仕様表
  6
CONTINUOUS
 62
    7
 10
3429.9989999999997
 20
2775
 11
3429.9989999999997
 21
2215
  0
TEXT
  8
_0-d_仕様表
 62
    7
 10
3204.9989999999997
 20
2235
 40
35
 41
0.8571428571428568
 50
0
  1
そ　の　他
  0
LINE
  8
_0-8_
  6
CONTINUOUS
 62
    4
 10
839.76252603542206
 20
261.86599999999998
 11
589.7625260354215
 21
261.86599999999998
  0
LINE
  8
_0-8_
  6
CONTINUOUS
 62
    4
 10
589.7625260354215
 20
261.86599999999998
 11
589.7625260354215
 21
331.86599999999998
  0
LINE
  8
_0-8_
  6
CONTINUOUS
 62
    4
 10
589.7625260354215
 20
331.86599999999998
 11
839.76252603542206
 21
331.86599999999998
  0
LINE
  8
_0-8_
  6
CONTINUOUS
 62
    4
 10
839.76252603542206
 20
331.86599999999998
 11
839.76252603542206
 21
261.86599999999998
  0
TEXT
  8
_0-8_
 62
    7
 10
667.76252603542161
 20
279.36599999999998
 40
35
 41
0.8571428571428568
 50
0
  1
立面図
  0
LINE
  8
_0-8_
  6
CONTINUOUS
 62
    4
 10
589.76252603542206
 20
1778.9636421607872
 11
839.76252603542206
 21
1778.9636421607872
  0
LINE
  8
_0-8_
  6
CONTINUOUS
 62
    4
 10
589.76252603542206
 20
1848.9636421607872
 11
589.76252603542206
 21
1778.9636421607872
  0
LINE
  8
_0-8_
  6
CONTINUOUS
 62
    4
 10
839.76252603542206
 20
1848.9636421607872
 11
589.76252603542206
 21
1848.9636421607872
  0
LINE
  8
_0-8_
  6
CONTINUOUS
 62
    4
 10
839.76252603542206
 20
1778.9636421607872
 11
839.76252603542206
 21
1848.9636421607872
  0
TEXT
  8
_0-8_
 62
    7
 10
667.76252603542218
 20
1796.4636421607872
 40
35
 41
0.8571428571428568
 50
0
  1
平面図
  0
TEXT
  8
_0-d_仕様表
 62
    7
 10
3200.9989999999993
 20
2722.5
 40
35
 41
0.8571428571428568
 50
0
  1
洗　面　器
  0
POINT
  8
_0-9_寸法線
 62
    3
 10
2095.3843106180665
 20
2640
  0
POINT
  8
_0-9_寸法線
 62
    3
 10
2095.3843106180665
 20
2640
  0
LINE
  8
_0-9_寸法線
  6
CENTER2
 62
    4
 10
765.76252603542206
 20
2490
 11
765.76252603542206
 21
2674.3023927506715
  0
LINE
  8
_0-9_寸法線
  6
CONTINUOUS
 62
    4
 10
2095.3843106180665
 20
2650
 11
2095.3843106180665
 21
2586.5760922319132
  0
LINE
  8
_0-8_
  6
CONTINUOUS
 62
    4
 10
1970.3843106180665
 20
1778.9636421607872
 11
2220.3843106180665
 21
1778.9636421607872
  0
LINE
  8
_0-8_
  6
CONTINUOUS
 62
    4
 10
1970.3843106180665
 20
1848.9636421607872
 11
1970.3843106180665
 21
1778.9636421607872
  0
LINE
  8
_0-8_
  6
CONTINUOUS
 62
    4
 10
2220.3843106180665
 20
1848.9636421607872
 11
1970.3843106180665
 21
1848.9636421607872
  0
LINE
  8
_0-8_
  6
CONTINUOUS
 62
    4
 10
2220.3843106180665
 20
1778.9636421607872
 11
2220.3843106180665
 21
1848.9636421607872
  0
TEXT
  8
_0-8_
 62
    7
 10
1984.3843106180665
 20
1796.463642160787
 40
35
 41
0.8571428571428568
 50
0
  1
排水取り合い図
  0
TEXT
  8
_0-d_仕様表
 62
    7
 10
3454.9989999999997
 20
2582.5
 40
35
 41
0.8571428571428568
 50
0
  1
片面フラッシュ合板　１７．５ｔ
  0
TEXT
  8
_0-d_仕様表
 62
    7
 10
3454.9989999999997
 20
2512.5
 40
35
 41
0.8571428571428568
 50
0
  1
ＭＤＦ　２．５ｔ
  0
POINT
  8
_0-9_寸法線
 62
    3
 10
1049.762526035422
 20
2560
  0
LINE
  8
_0-9_寸法線
  6
CONTINUOUS
 62
    4
 10
1049.762526035422
 20
2560
 11
1049.762526035422
 21
2602.2425051253435
  0
POINT
  8
_0-9_寸法線
 62
    3
 10
1209.762526035422
 20
2559.9999999999995
  0
LINE
  8
_0-9_寸法線
  6
CONTINUOUS
 62
    4
 10
1219.762526035422
 20
2560
 11
993.54692875710156
 21
2560
  0
POINT
  8
_0-9_寸法線
 62
    3
 10
1209.762526035422
 20
2109.9999999999995
  0
LINE
  8
_0-9_寸法線
  6
CONTINUOUS
 62
    4
 10
1209.762526035422
 20
2110
 11
1209.762526035422
 21
2559.9999999999995
  0
TEXT
  8
_0-9_寸法線
 62
    7
 10
1209.762526035422
 20
2301.9
 40
35
 41
0.6285714285714286
 50
90
  1
４５０
  0
LINE
  8
_0-9_寸法線
  6
CONTINUOUS
 62
    4
 10
1219.762526035422
 20
2110
 11
828.42905256918675
 21
2110
  0
LINE
  8
_0-9_寸法線
  6
CENTER2
 62
    4
 10
1043.5469287571015
 20
2480
 11
794.26252603542195
 21
2480
  0
LINE
  8
_0-9_寸法線
  6
CONTINUOUS
 62
    4
 10
1059.762526035422
 20
2480
 11
993.54692875710156
 21
2480
  0
POINT
  8
_0-9_寸法線
 62
    3
 10
1049.762526035422
 20
2480
  0
LINE
  8
_0-9_寸法線
  6
CONTINUOUS
 62
    4
 10
1049.762526035422
 20
2480
 11
1049.762526035422
 21
2560
  0
TEXT
  8
_0-9_寸法線
 62
    7
 10
1049.762526035422
 20
2561.0072238752909
 40
35
 41
0.6285714285714286
 50
90
  1
８０
  0
LINE
  8
_0-9_寸法線
  6
CENTER2
 62
    4
 10
663.76252603542206
 20
2490
 11
663.76252603542206
 21
2674.3023927506715
  0
LINE
  8
_0-2_天板
  6
CONTINUOUS
 62
    4
 10
663.76252603542206
 20
2496.5
 11
663.76252603542206
 21
2515.0896000000002
  0
LINE
  8
_0-2_天板
  6
CONTINUOUS
 62
    4
 10
765.76252603542206
 20
2496.5
 11
765.76252603542206
 21
2515.0896000000002
  0
LINE
  8
_0-2_天板
  6
CONTINUOUS
 62
    4
 10
532.26252603542206
 20
2530
 11
897.26252603542206
 21
2530
  0
LINE
  8
_0-2_天板
  6
CONTINUOUS
 62
    4
 10
512.26252603542206
 20
2510
 11
512.26252603542206
 21
2405
  0
LINE
  8
_0-2_天板
  6
CONTINUOUS
 62
    4
 10
917.26252603542206
 20
2510
 11
917.26252603542206
 21
2405
  0
LINE
  8
_0-2_天板
  6
CENTER2
 62
    4
 10
663.76252603542206
 20
2460.9895999999998
 11
663.76252603542206
 21
2498.6896000000001
  0
LINE
  8
_0-2_天板
  6
CENTER2
 62
    4
 10
765.76252603542206
 20
2461.2896
 11
765.76252603542206
 21
2498.1896000000001
  0
LINE
  8
_0-2_天板
  6
CONTINUOUS
 62
    4
 10
512.76252603542218
 20
2530
 11
475.54452603542216
 21
2535.0828000000001
  0
LINE
  8
_0-2_天板
  6
CONTINUOUS
 62
    4
 10
467.76252603542218
 20
2555
 11
467.76252603542218
 21
2195.1304
  0
LINE
  8
_0-2_天板
  6
CONTINUOUS
 62
    4
 10
916.76252603542206
 20
2530
 11
953.98052603542214
 21
2535.0828000000001
  0
LINE
  8
_0-2_天板
  6
CONTINUOUS
 62
    4
 10
472.76252603542218
 20
2560
 11
956.76252603542206
 21
2560
  0
LINE
  8
_0-2_天板
  6
CONTINUOUS
 62
    4
 10
476.76252603542195
 20
2535
 11
952.76252603542206
 21
2535
  0
LINE
  8
_0-2_天板
  6
CONTINUOUS
 62
    4
 10
961.76252603542206
 20
2555
 11
961.76252603542206
 21
2195.1304
  0
LINE
  8
_0-2_天板
  6
CENTER2
 62
    4
 10
785.16252603542193
 20
2480
 11
643.46252603542211
 21
2480
  0
CIRCLE
  8
_0-2_天板
  6
CONTINUOUS
 62
    4
 10
663.76252603542206
 20
2480
 40
13
  0
CIRCLE
  8
_0-2_天板
  6
CONTINUOUS
 62
    4
 10
765.76252603542206
 20
2480
 40
13
  0
CIRCLE
  8
_0-2_天板
  6
CONTINUOUS
 62
    4
 10
714.76252603542206
 20
2360
 40
30.500000000000003
  0
CIRCLE
  8
_0-2_天板
  6
CONTINUOUS
 62
    4
 10
714.76252603542206
 20
2360
 40
20.500000000000003
  0
ARC
  8
_0-2_天板
  6
CONTINUOUS
 62
    4
 10
532.26252603542206
 20
2510
 40
20
 50
90.000000000000028
 51
180.00000000000005
  0
ARC
  8
_0-2_天板
  6
CONTINUOUS
 62
    4
 10
897.26252603542206
 20
2510
 40
20
 50
0
 51
90.000000000000028
  0
ARC
  8
_0-2_天板
  6
CONTINUOUS
 62
    4
 10
582.52092603542223
 20
2365.4639999999999
 40
70
 50
93.929000000000044
 51
179.41399999999998
  0
ARC
  8
_0-2_天板
  6
CONTINUOUS
 62
    4
 10
5512.2625260354216
 20
2315
 40
5000
 50
179.41400000000001
 51
181.17400000000003
  0
ARC
  8
_0-2_天板
  6
CONTINUOUS
 62
    4
 10
558.30212603542213
 20
2213.5043999999998
 40
45
 50
181.174
 51
242.90600000000006
  0
ARC
  8
_0-2_天板
  6
CONTINUOUS
 62
    4
 10
755.08132603542208
 20
2440.5199999999999
 40
300
 50
285.59200000000009
 51
297.0940000000001
  0
ARC
  8
_0-2_天板
  6
CONTINUOUS
 62
    4
 10
871.222926035422
 20
2213.5043999999998
 40
45
 50
297.09400000000005
 51
358.82600000000007
  0
ARC
  8
_0-2_天板
  6
CONTINUOUS
 62
    4
 10
-4082.7374739645779
 20
2315
 40
5000
 50
358.82600000000007
 51
0.5860000000000741
  0
ARC
  8
_0-2_天板
  6
CONTINUOUS
 62
    4
 10
714.76252603542206
 20
440
 40
2000
 50
86.071000000000012
 51
93.92900000000003
  0
ARC
  8
_0-2_天板
  6
CONTINUOUS
 62
    4
 10
847.0041260354219
 20
2365.4639999999999
 40
70
 50
0.5859999999999998
 51
86.071000000000012
  0
ARC
  8
_0-2_天板
  6
CONTINUOUS
 62
    4
 10
674.44372603542205
 20
2440.5199999999999
 40
300
 50
242.90600000000006
 51
254.40800000000004
  0
ARC
  8
_0-2_天板
  6
CONTINUOUS
 62
    4
 10
714.76252603542206
 20
2585
 40
450
 50
254.40800000000001
 51
285.59200000000009
  0
ARC
  8
_0-2_天板
  6
CONTINUOUS
 62
    4
 10
472.76252603542218
 20
2555
 40
5
 50
90.000000000000028
 51
180.00000000000005
  0
ARC
  8
_0-2_天板
  6
CONTINUOUS
 62
    4
 10
476.76252603542195
 20
2544
 40
9
 50
180.00000000000005
 51
270.00000000000005
  0
ARC
  8
_0-2_天板
  6
CONTINUOUS
 62
    4
 10
507.76252603542218
 20
2195.1304
 40
40
 50
180.00000000000005
 51
239.80100000000004
  0
ARC
  8
_0-2_天板
  6
CONTINUOUS
 62
    4
 10
638.54532603542202
 20
2419.8431999999997
 40
300
 50
239.80100000000004
 51
255.28200000000003
  0
ARC
  8
_0-2_天板
  6
CONTINUOUS
 62
    4
 10
952.76252603542206
 20
2544
 40
9
 50
270.00000000000005
 51
0.0000000000000508
  0
ARC
  8
_0-2_天板
  6
CONTINUOUS
 62
    4
 10
956.76252603542206
 20
2555
 40
5
 50
0
 51
90.000000000000028
  0
ARC
  8
_0-2_天板
  6
CONTINUOUS
 62
    4
 10
790.97972603542211
 20
2419.8431999999997
 40
300
 50
284.71800000000007
 51
300.19900000000006
  0
ARC
  8
_0-2_天板
  6
CONTINUOUS
 62
    4
 10
921.76252603542206
 20
2195.1304
 40
40
 50
300.19900000000006
 51
0.0000000000000636
  0
ARC
  8
_0-2_天板
  6
CONTINUOUS
 62
    4
 10
714.76252603542206
 20
2710
 40
600
 50
255.28200000000006
 51
284.71800000000007
  0
LINE
  8
_0-2_天板
  6
CENTER2
 62
    4
 10
760.26252603542218
 20
2360
 11
669.16252603542204
 21
2360
  0
TEXT
  8
_0-d_仕様表
 62
    7
 10
3454.9989999999997
 20
2722.5
 40
35
 41
0.8571428571428568
 50
0
  1
陶器　　容量　６.５Ｌ
  0
CIRCLE
  8
_0-3_キャビネット
  6
CONTINUOUS
 62
    4
 10
2095.3843106180665
 20
2439.9999999999995
 40
67.5
  0
LINE
  8
_0-3_キャビネット
  6
CENTER2
 62
    4
 10
2095.3843106180665
 20
2522.4999999999995
 11
2095.3843106180665
 21
2357.4999999999995
  0
LINE
  8
_0-3_キャビネット
  6
CENTER2
 62
    4
 10
2012.8843106180665
 20
2439.9999999999995
 11
2177.8843106180665
 21
2439.9999999999995
  0
POINT
  8
_0-9_寸法線
 62
    3
 10
1774.8843106180663
 20
2559.9999999999995
  0
POINT
  8
_0-9_寸法線
 62
    3
 10
1774.8843106180663
 20
2509.9999999999995
  0
LINE
  8
_0-9_寸法線
  6
CONTINUOUS
 62
    4
 10
1774.8843106180663
 20
2509.9999999999995
 11
1774.8843106180663
 21
2559.9999999999995
  0
TEXT
  8
_0-9_寸法線
 62
    7
 10
1774.8843106180663
 20
2512.9499999999998
 40
35
 41
0.6285714285714286
 50
90
  1
５０
  0
POINT
  8
_0-9_寸法線
 62
    3
 10
1774.8843106180663
 20
2509.9999999999995
  0
LINE
  8
_0-9_寸法線
  6
CONTINUOUS
 62
    4
 10
1764.8843106180663
 20
2559.9999999999995
 11
1831.0999078963868
 21
2559.9999999999995
  0
LINE
  8
_0-9_寸法線
  6
CONTINUOUS
 62
    4
 10
1831.0999078963868
 20
2509.9999999999995
 11
1764.8843106180663
 21
2509.9999999999995
  0
LINE
  8
_0-3_キャビネット
  6
CONTINUOUS
 62
    5
 10
1869.8843106180665
 20
2544.5
 11
1869.8843106180665
 21
2542
  0
LINE
  8
_0-3_キャビネット
  6
CONTINUOUS
 62
    5
 10
1874.8843106180665
 20
2559.9999999999995
 11
1874.8843106180665
 21
2544.5
  0
POINT
  8
_0-9_寸法線
 62
    3
 10
1862.8843106180665
 20
2640
  0
POINT
  8
_0-9_寸法線
 62
    3
 10
1862.8843106180665
 20
2640
  0
LINE
  8
_0-9_寸法線
  6
CONTINUOUS
 62
    4
 10
1862.8843106180665
 20
2650
 11
1862.8843106180665
 21
2586.5760922319132
  0
POINT
  8
_0-9_寸法線
 62
    3
 10
1862.8843106180665
 20
2112.0827720629663
  0
LINE
  8
_0-9_寸法線
  6
CONTINUOUS
 62
    4
 10
1862.8843106180665
 20
2102.0827720629663
 11
1862.8843106180665
 21
2180.1758258282902
  0
POINT
  8
_0-9_寸法線
 62
    3
 10
1907.3843106180665
 20
2112.0827720629663
  0
LINE
  8
_0-9_寸法線
  6
CONTINUOUS
 62
    4
 10
1907.3843106180665
 20
2102.0827720629663
 11
1907.3843106180665
 21
2180.1758258282902
  0
LINE
  8
_0-9_寸法線
  6
CONTINUOUS
 62
    4
 10
1862.8843106180665
 20
2112.0827720629663
 11
1762.8843106180665
 21
2112.0827720629663
  0
LINE
  8
_0-9_寸法線
  6
CONTINUOUS
 62
    4
 10
1907.3843106180665
 20
2112.0827720629663
 11
1862.8843106180665
 21
2112.0827720629663
  0
TEXT
  8
_0-9_寸法線
 62
    7
 10
1768.1581089675823
 20
2112.9598980984314
 40
35
 41
0.6285714285714286
 50
0
  1
４４．５
  0
LINE
  8
_0-3_キャビネット
  6
CONTINUOUS
 62
    5
 10
1862.8843106180665
 20
2559.9999999999995
 11
1862.8843106180665
 21
2219.9999999999995
  0
LINE
  8
_0-3_キャビネット
  6
CONTINUOUS
 62
    5
 10
1874.8843106180665
 20
2542
 11
1874.8843106180665
 21
2219.9999999999995
  0
LINE
  8
_0-3_キャビネット
  6
CONTINUOUS
 62
    5
 10
2320.8843106180665
 20
2544.5
 11
2320.8843106180665
 21
2542
  0
LINE
  8
_0-3_キャビネット
  6
CONTINUOUS
 62
    5
 10
2315.8843106180665
 20
2559.9999999999995
 11
2315.8843106180665
 21
2544.5
  0
POINT
  8
_0-9_寸法線
 62
    3
 10
2415.8843106180665
 20
2559.9999999999995
  0
LINE
  8
_0-9_寸法線
  6
CONTINUOUS
 62
    4
 10
2425.8843106180665
 20
2559.9999999999995
 11
2359.6687133397463
 21
2559.9999999999995
  0
POINT
  8
_0-9_寸法線
 62
    3
 10
2495.8843106180665
 20
2559.9999999999995
  0
LINE
  8
_0-9_寸法線
  6
CONTINUOUS
 62
    4
 10
2505.8843106180665
 20
2559.9999999999995
 11
2415.8843106180665
 21
2559.9999999999995
  0
POINT
  8
_0-9_寸法線
 62
    3
 10
2327.8843106180665
 20
2640
  0
POINT
  8
_0-9_寸法線
 62
    3
 10
2327.8843106180665
 20
2640
  0
LINE
  8
_0-9_寸法線
  6
CONTINUOUS
 62
    4
 10
2327.8843106180665
 20
2650
 11
2327.8843106180665
 21
2586.5760922319132
  0
LINE
  8
_0-9_寸法線
  6
CONTINUOUS
 62
    4
 10
2425.8843106180665
 20
2439.9999999999995
 11
2359.6687133397463
 21
2439.9999999999995
  0
POINT
  8
_0-9_寸法線
 62
    3
 10
2415.8843106180665
 20
2439.9999999999995
  0
LINE
  8
_0-9_寸法線
  6
CONTINUOUS
 62
    4
 10
2415.8843106180665
 20
2439.9999999999995
 11
2415.8843106180665
 21
2559.9999999999995
  0
TEXT
  8
_0-9_寸法線
 62
    7
 10
2415.8843106180665
 20
2466.8999999999996
 40
35
 41
0.6285714285714286
 50
90
  1
１２０
  0
POINT
  8
_0-9_寸法線
 62
    3
 10
2495.8843106180665
 20
2219.9999999999995
  0
LINE
  8
_0-9_寸法線
  6
CONTINUOUS
 62
    4
 10
2505.8843106180665
 20
2220
 11
2359.6687133397463
 21
2220
  0
POINT
  8
_0-9_寸法線
 62
    3
 10
2327.8843106180665
 20
2112.0827720629663
  0
LINE
  8
_0-9_寸法線
  6
CONTINUOUS
 62
    4
 10
2327.8843106180665
 20
2102.0827720629663
 11
2327.8843106180665
 21
2180.1758258282902
  0
POINT
  8
_0-9_寸法線
 62
    3
 10
2283.3843106180665
 20
2112.0827720629663
  0
LINE
  8
_0-9_寸法線
  6
CONTINUOUS
 62
    4
 10
2283.3843106180665
 20
2102.0827720629663
 11
2283.3843106180665
 21
2180.1758258282902
  0
LINE
  8
_0-9_寸法線
  6
CONTINUOUS
 62
    4
 10
2327.8843106180665
 20
2112.0827720629663
 11
2427.8843106180665
 21
2112.0827720629663
  0
LINE
  8
_0-9_寸法線
  6
CONTINUOUS
 62
    4
 10
2327.8843106180665
 20
2112.0827720629663
 11
2283.3843106180665
 21
2112.0827720629663
  0
TEXT
  8
_0-9_寸法線
 62
    7
 10
2332.9865868915303
 20
2112.9598980984314
 40
35
 41
0.6285714285714286
 50
0
  1
４４．５
  0
LINE
  8
_0-3_キャビネット
  6
CONTINUOUS
 62
    5
 10
2315.8843106180665
 20
2542
 11
2315.8843106180665
 21
2219.9999999999995
  0
LINE
  8
_0-3_キャビネット
  6
CONTINUOUS
 62
    5
 10
2327.8843106180665
 20
2559.9999999999995
 11
2327.8843106180665
 21
2219.9999999999995
  0
LINE
  8
_0-9_寸法線
  6
CONTINUOUS
 62
    4
 10
2495.8843106180665
 20
2219.9999999999995
 11
2495.8843106180665
 21
2559.9999999999995
  0
TEXT
  8
_0-9_寸法線
 62
    7
 10
2495.8843106180665
 20
2356.8999999999996
 40
35
 41
0.6285714285714286
 50
90
  1
３４０
  0
LINE
  8
_0-3_キャビネット
  6
CENTER2
 62
    4
 10
2173.0464410457843
 20
2439.9999999999995
 11
2359.6687133397463
 21
2439.9999999999995
  0
LINE
  8
_0-3_キャビネット
  6
CONTINUOUS
 62
    5
 10
2327.8843106180665
 20
2219.9999999999995
 11
1862.8843106180665
 21
2219.9999999999995
  0
LINE
  8
_0-3_キャビネット
  6
CONTINUOUS
 62
    5
 10
2315.8843106180665
 20
2234.9999999999995
 11
1874.8843106180665
 21
2234.9999999999995
  0
LINE
  8
_0-3_キャビネット
  6
CONTINUOUS
 62
    5
 10
1862.8843106180665
 20
2559.9999999999995
 11
2327.8843106180665
 21
2559.9999999999995
  0
LINE
  8
_0-3_キャビネット
  6
CONTINUOUS
 62
    5
 10
1869.8843106180665
 20
2544.5
 11
2320.8843106180665
 21
2544.5
  0
LINE
  8
_0-3_キャビネット
  6
CONTINUOUS
 62
    5
 10
1869.8843106180665
 20
2542
 11
2320.8843106180665
 21
2542
  0
LINE
  8
_0-9_寸法線
  6
CONTINUOUS
 62
    4
 10
2283.3843106180665
 20
2112.0827720629663
 11
1907.3843106180665
 21
2112.0827720629663
  0
TEXT
  8
_0-9_寸法線
 62
    7
 10
2062.2843106180662
 20
2112.0827720629663
 40
35
 41
0.6285714285714286
 50
0
  1
３７６
  0
LINE
  8
_0-8_
  6
CONTINUOUS
 62
    4
 10
2456.6359958285593
 20
2139.8888490038716
 11
3068.1455731701134
 21
2139.8888490038716
  0
LINE
  8
_0-8_
  6
CONTINUOUS
 62
    4
 10
2456.6359958285593
 20
2139.8888490038716
 11
2148.2125575506788
 21
2397.9830233592783
  0
LINE
  8
_0-8_
  6
CONTINUOUS
 62
    3
 10
2148.2125575506788
 20
2397.9830233592783
 11
2170.8843962484897
 21
2387.4479519280803
  0
LINE
  8
_0-8_
  6
CONTINUOUS
 62
    3
 10
2148.2125575506788
 20
2397.9830233592783
 11
2162.5794100978873
 21
2377.5234645202722
  0
TEXT
  8
_0-8_
 62
    7
 10
2579.3947742247742
 20
2143.0994729657418
 40
35
 41
0.8571428571428568
 50
0
  1
樹脂製回転板　　１３５Φ
  0
TEXT
  8
_0-d_仕様表
 62
    7
 10
3454.9989999999997
 20
2232.5
 40
35
 41
0.8571428571428568
 50
0
  1
樹脂製回転板・Ｓトラップ　ホース付
  0
LINE
  8
_0-9_寸法線
  6
CONTINUOUS
 62
    4
 10
1862.8843106180665
 20
2640
 11
2095.3843106180665
 21
2640
  0
TEXT
  8
_0-9_寸法線
 62
    7
 10
1923.9343106180667
 20
2640
 40
35
 41
0.6285714285714286
 50
0
  1
２３２．５
  0
LINE
  8
_0-9_寸法線
  6
CONTINUOUS
 62
    4
 10
2327.8843106180665
 20
2640
 11
2095.3843106180665
 21
2640
  0
TEXT
  8
_0-9_寸法線
 62
    7
 10
2156.4343106180667
 20
2640
 40
35
 41
0.6285714285714286
 50
0
  1
２３２．５
  0
POINT
  8
_0-9_寸法線
 62
    3
 10
484.76252603542206
 20
472.08277206296656
  0
POINT
  8
_0-9_寸法線
 62
    3
 10
944.76252603542252
 20
472.08277206296656
  0
POINT
  8
_0-5_把手
 62
    3
 10
484.76252603542206
 20
472.08277206296656
  0
POINT
  8
_0-5_把手
 62
    3
 10
944.76252603542252
 20
472.08277206296656
  0
LINE
  8
_0-5_把手
  6
CONTINUOUS
 62
    4
 10
484.76252603542206
 20
472.08277206296656
 11
944.76252603542252
 21
472.08277206296656
  0
TEXT
  8
_0-5_把手
 62
    7
 10
681.66252603542238
 20
477.08277206296656
 40
35
 41
0.6285714285714286
 50
0
  1
４６０
  0
LINE
  8
_0-2_天板
  6
CENTER2
 62
    4
 10
714.76252603542206
 20
2634.5070587023842
 11
714.76252603542206
 21
2100
  0
POINT
  8
_0-9_寸法線
 62
    3
 10
663.76252603542206
 20
2660
  0
LINE
  8
_0-9_寸法線
  6
CONTINUOUS
 62
    4
 10
765.76252603542206
 20
2660
 11
663.76252603542206
 21
2660
  0
TEXT
  8
_0-9_寸法線
 62
    7
 10
681.66252603542204
 20
2660
 40
35
 41
0.6285714285714286
 50
0
  1
１０２
  0
POINT
  8
_0-9_寸法線
 62
    3
 10
765.76252603542206
 20
2660
  0
TEXT
  8
_0-7_
 62
    7
 10
763.01104327144025
 20
2742.4728815730322
 40
20
 41
0.75
 50
0
  1
５
  0
TEXT
  8
_0-7_
 62
    7
 10
750.78932945723499
 20
2748.6025239947157
 40
15
 41
0.6666666666666666
 50
0
  1
＋
  0
TEXT
  8
_0-7_
 62
    7
 10
750.59000908021687
 20
2737.2864911247206
 40
15
 41
0.6666666666666666
 50
0
  1
－
  0
POINT
  8
_0-9_寸法線
 62
    3
 10
467.76252603542218
 20
2720
  0
LINE
  8
_0-9_寸法線
  6
CONTINUOUS
 62
    4
 10
467.76252603542218
 20
2730
 11
467.76252603542218
 21
2586.5760922319132
  0
LINE
  8
_0-9_寸法線
  6
CONTINUOUS
 62
    4
 10
961.76252603542206
 20
2720
 11
961.76252603542206
 21
2652.5263690832907
  0
POINT
  8
_0-9_寸法線
 62
    3
 10
961.76252603542206
 20
2720
  0
LINE
  8
_0-9_寸法線
  6
CONTINUOUS
 62
    4
 10
961.76252603542206
 20
2730
 11
961.76252603542206
 21
2586.5760922319132
  0
LINE
  8
_0-9_寸法線
  6
CONTINUOUS
 62
    4
 10
961.76252603542206
 20
2720
 11
467.76252603542218
 21
2720
  0
TEXT
  8
_0-9_寸法線
 62
    7
 10
681.66252603542204
 20
2720
 40
35
 41
0.6285714285714286
 50
0
  1
４９４
  0
TEXT
  8
_0-7_
 62
    7
 10
750.78932945723499
 20
2688.4624755658032
 40
15
 41
0.6666666666666666
 50
0
  1
＋
  0
TEXT
  8
_0-7_
 62
    7
 10
750.59000908021687
 20
2677.1464426958091
 40
15
 41
0.6666666666666666
 50
0
  1
－
  0
TEXT
  8
_0-7_
 62
    7
 10
763.01104327144025
 20
2682.3328331441198
 40
20
 41
0.75
 50
0
  1
３
  0
TEXT
  8
_0-7_
 62
    7
 10
1022.7132928862313
 20
2606.3901273724809
 40
15
 41
0.6666666666666666
 50
90
  1
＋
  0
TEXT
  8
_0-7_
 62
    7
 10
1034.0293257562261
 20
2606.1908069954633
 40
15
 41
0.6666666666666666
 50
90
  1
－
  0
TEXT
  8
_0-7_
 62
    7
 10
1028.8429353079147
 20
2618.6118411866864
 40
20
 41
0.75
 50
90
  1
４
  0
TEXT
  8
_0-7_
 62
    7
 10
1181.6084924489468
 20
2370.3912191032823
 40
15
 41
0.6666666666666666
 50
90
  1
＋
  0
TEXT
  8
_0-7_
 62
    7
 10
1192.9245253189417
 20
2370.1918987262642
 40
15
 41
0.6666666666666666
 50
90
  1
－
  0
TEXT
  8
_0-7_
 62
    7
 10
1187.7381348706303
 20
2382.6129329174873
 40
20
 41
0.75
 50
90
  1
１０
  0
LINE
  8
_0-7_
  6
CONTINUOUS
 62
    4
 10
765.76252603542206
 20
2480
 11
804.71107755554669
 21
2625.3579731543195
  0
LINE
  8
_0-7_
  6
CONTINUOUS
 62
    3
 10
765.76252603542206
 20
2480
 11
765.76252603542206
 21
2510
  0
LINE
  8
_0-7_
  6
CONTINUOUS
 62
    3
 10
765.76252603542206
 20
2480
 11
780.76252603542206
 21
2505.9807621135332
  0
TEXT
  8
_0-7_
 62
    7
 10
892.36997863644819
 20
2653.5274290826241
 40
15
 41
0.6666666666666666
 50
0
  1
＋
  0
TEXT
  8
_0-7_
 62
    7
 10
919.68815971086337
 20
2653.5274290826241
 40
15
 41
0.6666666666666666
 50
0
  1
－
  0
TEXT
  8
_0-7_
 62
    7
 10
904.59169245065368
 20
2651.1797728965416
 40
20
 41
0.75
 50
0
  1
３
  0
TEXT
  8
_0-7_
 62
    7
 10
931.90987352506886
 20
2651.1797728965416
 40
20
 41
0.75
 50
0
  1
１
  0
TEXT
  8
_0-7_
 62
    7
 10
821.40126372757868
 20
2628.2331519159333
 40
35
 41
0.5714285714285711
 50
0
  1
φ２６
  0
LINE
  8
_0-7_
  6
CONTINUOUS
 62
    4
 10
804.71107755554669
 20
2625.3579731543195
 11
952.96196764625369
 21
2625.3579731543195
  0
TEXT
  8
_0-d_仕様表
 62
    7
 10
3454.9989999999997
 20
2372.5
 40
35
 41
0.8571428571428568
 50
0
  1
ワンタッチスライド式丁番
  0
TEXT
  8
_0-7_
 62
    7
 10
3173.1537242472268
 20
2145.281299524564
 40
35
 41
0.8571428571428568
 50
0
  1
止水栓の取扱いはございません。現場にてご用意ください。
  0
LINE
  8
_0-3_キャビネット
  6
DASHED1
 62
    5
 10
482.26252603542206
 20
1300
 11
482.26252603542206
 21
1262.9361690497621
  0
LINE
  8
_0-3_キャビネット
  6
DASHED1
 62
    2
 10
494.76252603542263
 20
687.5
 11
935.26252603542275
 21
687.5
  0
LINE
  8
_0-8_
  6
CONTINUOUS
 62
    4
 10
1970.3873106180667
 20
261.86599999999998
 11
2220.3843106180665
 21
261.86599999999998
  0
LINE
  8
_0-8_
  6
CONTINUOUS
 62
    4
 10
2220.3843106180665
 20
261.86599999999998
 11
2220.3843106180665
 21
331.8659999999997
  0
LINE
  8
_0-8_
  6
CONTINUOUS
 62
    4
 10
2220.3843106180665
 20
331.8659999999997
 11
1970.3873106180667
 21
331.8659999999997
  0
LINE
  8
_0-8_
  6
CONTINUOUS
 62
    4
 10
1970.3873106180667
 20
331.8659999999997
 11
1970.3873106180667
 21
261.86599999999998
  0
TEXT
  8
_0-8_
 62
    7
 10
2048.3843106180665
 20
279.36599999999998
 40
35
 41
0.8571428571428568
 50
0
  1
断面図
  0
POINT
  8
_0-9_寸法線
 62
    3
 10
2270.9214458965811
 20
392.08277206296656
  0
LINE
  8
_0-9_寸法線
  6
CONTINUOUS
 62
    4
 10
2270.9214458965811
 20
382.08277206296656
 11
2270.9214458965811
 21
540.17582582829049
  0
POINT
  8
_0-9_寸法線
 62
    3
 10
2270.9214458965811
 20
472.08277206296656
  0
LINE
  8
_0-4_扉
  6
CONTINUOUS
 62
    3
 10
1915.9214458965811
 20
673
 11
1927.9214458965811
 21
673
  0
POINT
  8
_0-9_寸法線
 62
    3
 10
1930.9214458965811
 20
392.08277206296656
  0
LINE
  8
_0-3_キャビネット
  6
CONTINUOUS
 62
    5
 10
2252.9214458965811
 20
687.5
 11
1930.9214458965811
 21
687.5
  0
LINE
  8
_0-9_寸法線
  6
CONTINUOUS
 62
    4
 10
2270.9214458965811
 20
392.08277206296656
 11
1930.9214458965811
 21
392.08277206296656
  0
TEXT
  8
_0-9_寸法線
 62
    7
 10
2067.8214458965812
 20
392.08277206296656
 40
35
 41
0.6285714285714286
 50
0
  1
３４０
  0
POINT
  8
_0-9_寸法線
 62
    3
 10
2150.9212149527465
 20
472.08277206296656
  0
LINE
  8
_0-9_寸法線
  6
CONTINUOUS
 62
    4
 10
2270.9214458965811
 20
472.08277206296656
 11
2150.9212149527465
 21
472.08277206296656
  0
TEXT
  8
_0-9_寸法線
 62
    7
 10
2177.8213304246637
 20
472.08277206296656
 40
35
 41
0.6285714285714286
 50
0
  1
１２０
  0
LINE
  8
_0-3_キャビネット
  6
CONTINUOUS
 62
    4
 10
2252.9214458965811
 20
685
 11
1930.9214458965811
 21
685
  0
LINE
  8
_0-3_キャビネット
  6
CONTINUOUS
 62
    4
 10
1962.9214458965811
 20
670
 11
1962.9214458965811
 21
685
  0
LINE
  8
_0-3_キャビネット
  6
CONTINUOUS
 62
    4
 10
2220.9214458965811
 20
670
 11
2220.9214458965811
 21
685
  0
LINE
  8
_0-3_キャビネット
  6
CONTINUOUS
 62
    4
 10
1930.9214458965811
 20
670
 11
1962.9214458965811
 21
685
  0
LINE
  8
_0-3_キャビネット
  6
CONTINUOUS
 62
    4
 10
2220.9214458965811
 20
670
 11
2252.9214458965811
 21
685
  0
ARC
  8
_0-6_
  6
LONG3
 62
    5
 10
2180.4214854869533
 20
639.25050006589503
 40
2.5000000322187272
 50
180
 51
270
  0
ARC
  8
_0-6_
  6
LONG3
 62
    5
 10
2121.4214392981857
 20
639.25050006589503
 40
2.5000000322187272
 50
270
 51
0
  0
ARC
  8
_0-6_
  6
LONG3
 62
    5
 10
2181.4211423703991
 20
634.25048356990714
 40
2.5000000322187272
 50
0
 51
90
  0
ARC
  8
_0-6_
  6
LONG3
 62
    5
 10
2175.421221551142
 20
646.2505726482434
 40
2.5000000322187272
 50
0
 51
90
  0
ARC
  8
_0-6_
  6
LONG3
 62
    5
 10
2126.4212083543516
 20
646.2505726482434
 40
2.5000000322187272
 50
90
 51
180
  0
ARC
  8
_0-6_
  6
LONG3
 62
    5
 10
2120.4212875350949
 20
634.25048356990714
 40
2.5000000322187272
 50
90
 51
180
  0
LINE
  8
_0-6_
  6
LONG3
 62
    5
 10
2177.9213535190478
 20
646.2505726482434
 11
2177.9213535190478
 21
639.25050006589503
  0
LINE
  8
_0-6_
  6
LONG3
 62
    5
 10
2123.9210763864462
 20
646.2505726482434
 11
2123.9210763864462
 21
639.25050006589503
  0
LINE
  8
_0-6_
  6
LONG3
 62
    5
 10
2120.4212875350949
 20
636.75036809798984
 11
2181.4211423703991
 21
636.75036809798984
  0
LINE
  8
_0-6_
  6
LONG3
 62
    5
 10
2183.9212743383045
 20
634.25048356990714
 11
2183.9212743383045
 21
618.75035820039693
  0
LINE
  8
_0-6_
  6
LONG3
 62
    5
 10
2126.4212083543516
 20
648.7504571763261
 11
2175.421221551142
 21
648.7504571763261
  0
LINE
  8
_0-6_
  6
LONG3
 62
    5
 10
2117.9211555671895
 20
634.25048356990714
 11
2117.9211555671895
 21
618.75035820039693
  0
LINE
  8
_0-6_
  6
LONG3
 62
    5
 10
2117.9211555671895
 20
618.75035820039693
 11
2183.9212743383045
 21
618.75035820039693
  0
LINE
  8
_0-6_
  6
CONTINUOUS
 62
    5
 10
2136.9212809366995
 20
636.00006928315042
 11
2133.4212809366995
 21
638.50006928315042
  0
LINE
  8
_0-6_
  6
CONTINUOUS
 62
    5
 10
2136.9212809366995
 20
646.00006928315042
 11
2133.4212809366995
 21
648.50006928315042
  0
LINE
  8
_0-6_
  6
CONTINUOUS
 62
    5
 10
2133.4212809366995
 20
643.50006928315042
 11
2136.9212809366995
 21
646.00006928315042
  0
LINE
  8
_0-6_
  6
CONTINUOUS
 62
    5
 10
2136.9212809366995
 20
641.00006928315042
 11
2133.4212809366995
 21
643.50006928315042
  0
LINE
  8
_0-6_
  6
CONTINUOUS
 62
    5
 10
2133.4212809366995
 20
638.50006928315042
 11
2136.9212809366995
 21
641.00006928315042
  0
LINE
  8
_0-6_
  6
CONTINUOUS
 62
    5
 10
2136.9212809366995
 20
626.00006928315042
 11
2133.4212809366995
 21
628.50006928315042
  0
LINE
  8
_0-6_
  6
CONTINUOUS
 62
    5
 10
2136.9212809366995
 20
636.00006928315042
 11
2133.4212809366995
 21
638.50006928315042
  0
LINE
  8
_0-6_
  6
CONTINUOUS
 62
    5
 10
2133.4212809366995
 20
633.50006928315042
 11
2136.9212809366995
 21
636.00006928315042
  0
LINE
  8
_0-6_
  6
CONTINUOUS
 62
    5
 10
2136.9212809366995
 20
631.00006928315042
 11
2133.4212809366995
 21
633.50006928315042
  0
LINE
  8
_0-6_
  6
CONTINUOUS
 62
    5
 10
2133.4212809366995
 20
628.50006928315042
 11
2136.9212809366995
 21
631.00006928315042
  0
LINE
  8
_0-6_
  6
CONTINUOUS
 62
    5
 10
2136.9212809366995
 20
616.00006928315042
 11
2133.4212809366995
 21
618.50006928315042
  0
LINE
  8
_0-6_
  6
CONTINUOUS
 62
    5
 10
2136.9212809366995
 20
626.00006928315042
 11
2133.4212809366995
 21
628.50006928315042
  0
LINE
  8
_0-6_
  6
CONTINUOUS
 62
    5
 10
2133.4212809366995
 20
623.50006928315042
 11
2136.9212809366995
 21
626.00006928315042
  0
LINE
  8
_0-6_
  6
CONTINUOUS
 62
    5
 10
2136.9212809366995
 20
621.00006928315042
 11
2133.4212809366995
 21
623.50006928315042
  0
LINE
  8
_0-6_
  6
CONTINUOUS
 62
    5
 10
2133.4212809366995
 20
618.50006928315042
 11
2136.9212809366995
 21
621.00006928315042
  0
LINE
  8
_0-6_
  6
CONTINUOUS
 62
    5
 10
2136.9212809366995
 20
606.00006928315042
 11
2133.4212809366995
 21
608.50006928315042
  0
LINE
  8
_0-6_
  6
CONTINUOUS
 62
    5
 10
2136.9212809366995
 20
616.00006928315042
 11
2133.4212809366995
 21
618.50006928315042
  0
LINE
  8
_0-6_
  6
CONTINUOUS
 62
    5
 10
2133.4212809366995
 20
613.50006928315042
 11
2136.9212809366995
 21
616.00006928315042
  0
LINE
  8
_0-6_
  6
CONTINUOUS
 62
    5
 10
2136.9212809366995
 20
611.00006928315042
 11
2133.4212809366995
 21
613.50006928315042
  0
LINE
  8
_0-6_
  6
CONTINUOUS
 62
    5
 10
2133.4212809366995
 20
608.50006928315042
 11
2136.9212809366995
 21
611.00006928315042
  0
LINE
  8
_0-6_
  6
CONTINUOUS
 62
    5
 10
2168.4213601174428
 20
643.49993731524489
 11
2164.9213601174424
 21
645.99993731524489
  0
LINE
  8
_0-6_
  6
CONTINUOUS
 62
    5
 10
2168.4213601174428
 20
653.49993731524489
 11
2164.9213601174424
 21
655.99993731524489
  0
LINE
  8
_0-6_
  6
CONTINUOUS
 62
    5
 10
2164.9213601174424
 20
650.99993731524489
 11
2168.4213601174428
 21
653.49993731524489
  0
LINE
  8
_0-6_
  6
CONTINUOUS
 62
    5
 10
2168.4213601174428
 20
648.49993731524489
 11
2164.9213601174424
 21
650.99993731524489
  0
LINE
  8
_0-6_
  6
CONTINUOUS
 62
    5
 10
2164.9213601174424
 20
645.99993731524489
 11
2168.4213601174428
 21
648.49993731524489
  0
LINE
  8
_0-6_
  6
CONTINUOUS
 62
    5
 10
2168.4213601174428
 20
633.49993731524489
 11
2164.9213601174424
 21
635.99993731524489
  0
LINE
  8
_0-6_
  6
CONTINUOUS
 62
    5
 10
2168.4213601174428
 20
643.49993731524489
 11
2164.9213601174424
 21
645.99993731524489
  0
LINE
  8
_0-6_
  6
CONTINUOUS
 62
    5
 10
2164.9213601174424
 20
640.99993731524489
 11
2168.4213601174428
 21
643.49993731524489
  0
LINE
  8
_0-6_
  6
CONTINUOUS
 62
    5
 10
2168.4213601174428
 20
638.49993731524489
 11
2164.9213601174424
 21
640.99993731524489
  0
LINE
  8
_0-6_
  6
CONTINUOUS
 62
    5
 10
2164.9213601174424
 20
635.99993731524489
 11
2168.4213601174428
 21
638.49993731524489
  0
LINE
  8
_0-6_
  6
CONTINUOUS
 62
    5
 10
2168.4213601174428
 20
623.49993731524489
 11
2164.9213601174424
 21
625.99993731524489
  0
LINE
  8
_0-6_
  6
CONTINUOUS
 62
    5
 10
2168.4213601174428
 20
633.49993731524489
 11
2164.9213601174424
 21
635.99993731524489
  0
LINE
  8
_0-6_
  6
CONTINUOUS
 62
    5
 10
2164.9213601174424
 20
630.99993731524489
 11
2168.4213601174428
 21
633.49993731524489
  0
LINE
  8
_0-6_
  6
CONTINUOUS
 62
    5
 10
2168.4213601174428
 20
628.49993731524489
 11
2164.9213601174424
 21
630.99993731524489
  0
LINE
  8
_0-6_
  6
CONTINUOUS
 62
    5
 10
2164.9213601174424
 20
625.99993731524489
 11
2168.4213601174428
 21
628.49993731524489
  0
LINE
  8
_0-6_
  6
CONTINUOUS
 62
    5
 10
2168.4213601174428
 20
613.49993731524489
 11
2164.9213601174424
 21
615.99993731524489
  0
LINE
  8
_0-6_
  6
CONTINUOUS
 62
    5
 10
2168.4213601174428
 20
623.49993731524489
 11
2164.9213601174424
 21
625.99993731524489
  0
LINE
  8
_0-6_
  6
CONTINUOUS
 62
    5
 10
2164.9213601174424
 20
620.99993731524489
 11
2168.4213601174428
 21
623.49993731524489
  0
LINE
  8
_0-6_
  6
CONTINUOUS
 62
    5
 10
2168.4213601174428
 20
618.49993731524489
 11
2164.9213601174424
 21
620.99993731524489
  0
LINE
  8
_0-6_
  6
CONTINUOUS
 62
    5
 10
2164.9213601174424
 20
615.99993731524489
 11
2168.4213601174428
 21
618.49993731524489
  0
LINE
  8
_0-6_
  6
CONTINUOUS
 62
    5
 10
2168.4213601174428
 20
613.49993731524489
 11
2164.9213601174424
 21
615.99993731524489
  0
LINE
  8
_0-6_
  6
CONTINUOUS
 62
    5
 10
2164.9213601174424
 20
610.99993731524489
 11
2168.4213601174428
 21
613.49993731524489
  0
LINE
  8
_0-6_
  6
CONTINUOUS
 62
    5
 10
2168.4213601174428
 20
608.49993731524489
 11
2164.9213601174424
 21
610.99993731524489
  0
LINE
  8
_0-6_
  6
CONTINUOUS
 62
    5
 10
2164.9213601174424
 20
605.99993731524489
 11
2168.4213601174428
 21
608.49993731524489
  0
LINE
  8
_0-6_
  6
LONG3
 62
    5
 10
2150.9212149527465
 20
871.67580653125105
 11
2150.9212149527465
 21
603.18465757335729
  0
LINE
  8
_0-3_キャビネット
  6
CONTINUOUS
 62
    5
 10
2270.9214458965811
 20
580
 11
2270.9214458965811
 21
1369
  0
LINE
  8
_0-3_キャビネット
  6
DASHED1
 62
    9
 10
1930.9214458965811
 20
1375
 11
1930.9214458965811
 21
1368.9999999999997
  0
LINE
  8
_0-3_キャビネット
  6
DASHED1
 62
    9
 10
2270.9214458965811
 20
1375
 11
2270.9214458965811
 21
1369
  0
LINE
  8
_0-3_キャビネット
  6
DASHED1
 62
    9
 10
2252.9214458965811
 20
1369
 11
2252.9214458965811
 21
1375
  0
LINE
  8
_0-3_キャビネット
  6
DASHED1
 62
    9
 10
2255.9214458965811
 20
1369
 11
2255.9214458965811
 21
1375
  0
LINE
  8
_0-3_キャビネット
  6
CONTINUOUS
 62
    4
 10
1945.9214458965811
 20
1267.5
 11
1930.9214458965811
 21
1222.5
  0
LINE
  8
_0-3_キャビネット
  6
CONTINUOUS
 62
    4
 10
1945.9214458965811
 20
1222.5
 11
1945.9214458965811
 21
1267.5
  0
LINE
  8
_0-3_キャビネット
  6
CONTINUOUS
 62
    4
 10
1945.9214458965811
 20
1222.5
 11
1930.9214458965811
 21
1222.5
  0
LINE
  8
_0-3_キャビネット
  6
CONTINUOUS
 62
    4
 10
1945.9214458965811
 20
1267.5
 11
1930.9214458965811
 21
1267.5
  0
LINE
  8
_0-3_キャビネット
  6
DASHED1
 62
    9
 10
1945.9214458965811
 20
1260
 11
1930.9214458965811
 21
1260
  0
LINE
  8
_0-3_キャビネット
  6
CONTINUOUS
 62
    5
 10
2255.9214458965811
 20
1242.5
 11
2252.9214458965811
 21
1242.5
  0
LINE
  8
_0-3_キャビネット
  6
CONTINUOUS
 62
    4
 10
2270.9214458965811
 20
1242.5
 11
2255.9214458965811
 21
1192.5
  0
LINE
  8
_0-3_キャビネット
  6
CONTINUOUS
 62
    4
 10
2255.9214458965811
 20
1242.5
 11
2270.9214458965811
 21
1242.5
  0
LINE
  8
_0-3_キャビネット
  6
CONTINUOUS
 62
    4
 10
2255.9214458965811
 20
1192.5
 11
2270.9214458965811
 21
1192.5
  0
LINE
  8
_0-3_キャビネット
  6
DASHED1
 62
    9
 10
2255.9214458965811
 20
1235
 11
2270.9214458965811
 21
1235
  0
LINE
  8
_0-5_把手
  6
CONTINUOUS
 62
    4
 10
484.76252603542206
 20
1208
 11
944.76252603542252
 21
1208
  0
LINE
  8
_0-5_把手
  6
CONTINUOUS
 62
    4
 10
484.76252603542206
 20
1215.6000000000026
 11
944.76252603542252
 21
1215.6000000000026
  0
ARC
  8
_0-5_把手
  6
CONTINUOUS
 62
    4
 10
487.76252603542275
 20
1239.9999999999997
 40
3
 50
180
 51
270
  0
ARC
  8
_0-5_把手
  6
CONTINUOUS
 62
    4
 10
941.76252603542252
 20
1239.9999999999997
 40
3
 50
270
 51
0
  0
LINE
  8
_0-5_把手
  6
CONTINUOUS
 62
    4
 10
1927.2731009820086
 20
1212.4509476768325
 11
1914.5697908111526
 21
1211.6490523231677
  0
ARC
  8
_0-5_把手
  6
CONTINUOUS
 62
    4
 10
1914.6214458965812
 20
1210.6503873382255
 40
1
 50
92.960936134163759
 51
180
  0
LINE
  8
_0-5_把手
  6
CONTINUOUS
 62
    4
 10
1913.621445896581
 20
1210.6503873382255
 11
1913.621445896581
 21
1204.8000000000004
  0
LINE
  8
_0-5_把手
  6
CONTINUOUS
 62
    4
 10
1927.9214458965816
 20
1210.0000000000002
 11
1915.5214458965815
 21
1210.0000000000002
  0
ARC
  8
_0-5_把手
  6
CONTINUOUS
 62
    4
 10
1915.5214458965815
 20
1209.7
 40
0.2999999999999998
 50
90
 51
180
  0
LINE
  8
_0-5_把手
  6
CONTINUOUS
 62
    4
 10
1915.2214458965806
 20
1209.7
 11
1915.2214458965806
 21
1204.8000000000004
  0
LINE
  8
_0-5_把手
  6
CONTINUOUS
 62
    4
 10
1914.8581254332611
 20
1238.6486486486485
 11
1913.3754999506356
 21
1234.3243243243243
  0
ARC
  8
_0-5_把手
  6
CONTINUOUS
 62
    4
 10
1914.3214458965815
 20
1234.0000000000002
 40
1
 50
161.07535558395028
 51
46.451037231780105
  0
ARC
  8
_0-5_把手
  6
CONTINUOUS
 62
    4
 10
1915.1482149381365
 20
1234.8697430378711
 40
0.2
 50
161.07535558394698
 51
226.45103723177706
  0
LINE
  8
_0-5_把手
  6
CONTINUOUS
 62
    4
 10
1916.08785516299
 20
1238.2270270270271
 11
1914.9590257489478
 21
1234.9346079027357
  0
LINE
  8
_0-5_把手
  6
CONTINUOUS
 62
    4
 10
1927.5214458965808
 20
1238.7
 11
1916.7500173251528
 21
1238.7
  0
ARC
  8
_0-5_把手
  6
CONTINUOUS
 62
    4
 10
1916.7500173251528
 20
1238
 40
0.6999999999999999
 50
90
 51
161.07535558395002
  0
ARC
  8
_0-5_把手
  6
CONTINUOUS
 62
    4
 10
1916.7500173251528
 20
1238
 40
2
 50
90.000000000000028
 51
161.07535558394951
  0
LINE
  8
_0-5_把手
  6
CONTINUOUS
 62
    4
 10
1916.7500173251528
 20
1240
 11
1927.5214458965808
 21
1240
  0
ARC
  8
_0-5_把手
  6
CONTINUOUS
 62
    4
 10
1914.4214458965814
 20
1204.8000000000004
 40
0.8000000000000001
 50
180
 51
359.99999999999994
  0
ARC
  8
_0-5_把手
  6
CONTINUOUS
 62
    4
 10
1927.2214458965811
 20
1213.4496126617748
 40
1
 50
272.96093613416371
 51
0
  0
LINE
  8
_0-5_把手
  6
CONTINUOUS
 62
    4
 10
1928.2214458965813
 20
1213.4496126617748
 11
1928.2214458965813
 21
1238
  0
ARC
  8
_0-5_把手
  6
CONTINUOUS
 62
    4
 10
1927.9214458965816
 20
1209.7
 40
0.2999999999999998
 50
0.0000000000000127
 51
90.000000000000014
  0
LINE
  8
_0-5_把手
  6
CONTINUOUS
 62
    4
 10
1928.2214458965813
 20
1209.7
 11
1928.2214458965813
 21
1205.5244997998399
  0
ARC
  8
_0-5_把手
  6
CONTINUOUS
 62
    4
 10
1928.7214458965809
 20
1204.9000000000003
 40
0.8000000000000001
 50
128.68218745349335
 51
231.31781254650667
  0
LINE
  8
_0-5_把手
  6
CONTINUOUS
 62
    4
 10
1928.2214458965813
 20
1204.2755002001601
 11
1928.2214458965813
 21
1196.9244997998398
  0
LINE
  8
_0-5_把手
  6
CONTINUOUS
 62
    4
 10
1929.0214458965806
 20
1195.5
 11
1928.7214458965809
 21
1195.5
  0
ARC
  8
_0-5_把手
  6
CONTINUOUS
 62
    4
 10
1928.7214458965809
 20
1196.3000000000001
 40
0.8000000000000001
 50
128.68218745349332
 51
270
  0
ARC
  8
_0-5_把手
  6
CONTINUOUS
 62
    4
 10
1929.0214458965806
 20
1195.9999999999997
 40
0.5
 50
270
 51
0
  0
LINE
  8
_0-5_把手
  6
CONTINUOUS
 62
    4
 10
1929.5214458965813
 20
1195.9999999999997
 11
1929.5214458965813
 21
1238
  0
ARC
  8
_0-5_把手
  6
CONTINUOUS
 62
    4
 10
1927.5214458965808
 20
1238
 40
0.6999999999999999
 50
0
 51
90
  0
ARC
  8
_0-5_把手
  6
CONTINUOUS
 62
    4
 10
1927.5214458965808
 20
1238
 40
2
 50
0.0000000000000127
 51
90.000000000000042
  0
LINE
  8
_0-5_把手
  6
CONTINUOUS
 62
    3
 10
1927.9214458965816
 20
1210.0000000000002
 11
1915.9214458965811
 21
1210.0000000000002
  0
LINE
  8
_0-4_扉
  6
CONTINUOUS
 62
    3
 10
1915.9214458965811
 20
1210.0000000000002
 11
1915.9214458965811
 21
673
  0
LINE
  8
_0-4_扉
  6
CONTINUOUS
 62
    3
 10
1927.9214458965811
 20
1210.0000000000002
 11
1927.9214458965811
 21
673
  0
LINE
  8
_0-5_把手
  6
CONTINUOUS
 62
    4
 10
941.76252603542252
 20
1236.9999999999997
 11
484.76252603542206
 21
1236.9999999999997
  0
LINE
  8
_0-4_扉
  6
CONTINUOUS
 62
    3
 10
944.76252603542252
 20
1239.9999999999997
 11
944.76252603542252
 21
673
  0
LINE
  8
_0-4_扉
  6
CONTINUOUS
 62
    3
 10
484.76252603542206
 20
1239.9999999999997
 11
484.76252603542206
 21
673
  0
LINE
  8
_0-4_扉
  6
CONTINUOUS
 62
    3
 10
484.76252603542206
 20
1239.9999999999997
 11
944.76252603542252
 21
1239.9999999999997
  0
LINE
  8
_0-4_扉
  6
CENTER1
 62
    4
 10
484.76252603542263
 20
1239.9999999999997
 11
944.76252603542252
 21
956.49999999999988
  0
LINE
  8
_0-4_扉
  6
CENTER1
 62
    4
 10
944.76252603542252
 20
956.49999999999988
 11
484.76252603542206
 21
673
  0
LINE
  8
_0-3_キャビネット
  6
DASHED1
 62
    9
 10
935.26252603542275
 20
1222.5
 11
494.76252603542263
 21
1222.5
  0
LINE
  8
_0-3_キャビネット
  6
DASHED1
 62
    5
 10
947.26252603542206
 20
1262.9361690497621
 11
947.26252603542206
 21
1375
  0
LINE
  8
_0-3_キャビネット
  6
CONTINUOUS
 62
    5
 10
482.26252603542206
 20
1375
 11
482.26252603542206
 21
580
  0
LINE
  8
_0-3_キャビネット
  6
DASHED1
 62
    2
 10
494.76252603542263
 20
1375
 11
494.76252603542263
 21
1329.0359885989676
  0
LINE
  8
_0-3_キャビネット
  6
DASHED1
 62
    2
 10
935.26252603542275
 20
1375
 11
935.26252603542275
 21
1329.3444174466571
  0
LINE
  8
_0-3_キャビネット
  6
DASHED1
 62
    2
 10
935.26252603542275
 20
1239.9999999999997
 11
935.26252603542275
 21
580
  0
LINE
  8
_0-3_キャビネット
  6
DASHED1
 62
    2
 10
494.76252603542263
 20
1239.9999999999997
 11
494.76252603542263
 21
580
  0
LINE
  8
_0-3_キャビネット
  6
CONTINUOUS
 62
    2
 10
494.76252603542263
 20
1239.9999999999997
 11
494.76252603542263
 21
1329.0359885989676
  0
LINE
  8
_0-3_キャビネット
  6
CONTINUOUS
 62
    2
 10
935.26252603542275
 20
1239.9999999999997
 11
935.26252603542275
 21
1329.3444174466571
  0
TEXT
  8
_f-8_
 62
    7
 10
898.61587982832611
 20
137.5
 40
45
 41
0.8
 50
0
  1
洗面化粧台
  0
TEXT
  8
_f-8_
 62
    7
 10
1647.489270386266
 20
137.5
 40
45
 41
0.6666666666666666
 50
0
  1
ＷＳＲ－５０ＴＷ
  0
TEXT
  8
_f-8_
 62
    7
 10
3043
 20
142.5
 40
35
 41
0.5714285714285711
 50
0
  1
２０２３.０５．０１
  0
TEXT
  8
_f-8_
 62
    7
 10
3542
 20
187.5
 40
25
 41
0.64
 50
0
  1
ＤＲＡＷＩＮＧ
  0
TEXT
  8
_f-8_
 62
    7
 10
3582
 20
145
 40
30
 41
0.733333333333333
 50
0
  1
Ｔ．Ｋ
  0
LINE
  8
_0-3_キャビネット
  6
DASHED1
 62
    5
 10
482.26252603542206
 20
1375
 11
494.76252603542263
 21
1375
  0
LINE
  8
_0-3_キャビネット
  6
DASHED1
 62
    5
 10
935.26252603542275
 20
1375
 11
947.26252603542206
 21
1375
  0
LINE
  8
_0-b_
  6
CONTINUOUS
 62
    2
 10
485.26252603542218
 20
1372
 11
485.26252603542218
 21
1245.5
  0
LINE
  8
_0-b_
  6
CONTINUOUS
 62
    2
 10
944.26252603542229
 20
1245.5
 11
944.26252603542229
 21
1372
  0
LINE
  8
_0-b_
  6
CONTINUOUS
 62
    2
 10
485.26252603542218
 20
1245.5
 11
944.26252603542229
 21
1245.5
  0
LINE
  8
_0-b_
  6
CONTINUOUS
 62
    2
 10
494.76252603542263
 20
1372
 11
485.26252603542218
 21
1372
  0
LINE
  8
_0-b_
  6
CONTINUOUS
 62
    2
 10
944.26252603542229
 20
1372
 11
935.26252603542275
 21
1372
  0
LINE
  8
_0-b_
  6
CONTINUOUS
 62
    2
 10
1915.9214458965811
 20
1245.5
 11
1915.9214458965811
 21
1372
  0
LINE
  8
_0-b_
  6
CONTINUOUS
 62
    2
 10
1915.9214458965811
 20
1372
 11
1930.9214458965811
 21
1372
  0
LINE
  8
_0-b_
  6
CONTINUOUS
 62
    2
 10
1915.9214458965811
 20
1245.5
 11
1930.9214458965811
 21
1245.5
  0
LINE
  8
_e-0_
  6
CONTINUOUS
 62
    7
 10
2243.7859302690862
 20
199.51965480360598
 11
2272.9339284698526
 21
210.12865853712995
  0
LINE
  8
_e-0_
  6
CONTINUOUS
 62
    7
 10
2237.6336615052869
 20
191.95952323799758
 11
2287.5529504706664
 21
210.12865853712895
  0
LINE
  8
_e-0_
  6
CONTINUOUS
 62
    7
 10
2234.2067375789874
 20
185.39133607135255
 11
2263.8643430051365
 21
196.18582166608263
  0
LINE
  8
_e-0_
  6
CONTINUOUS
 62
    7
 10
2232.2119570371696
 20
179.34440646785787
 11
2253.9586582709303
 21
187.25955841042662
  0
LINE
  8
_e-0_
  6
CONTINUOUS
 62
    7
 10
2231.2024514117433
 20
173.65608760649877
 11
2249.4574587956462
 21
180.3003669205492
  0
LINE
  8
_e-0_
  6
CONTINUOUS
 62
    7
 10
2230.9649088875535
 20
168.248740335938
 11
2249.3748102388385
 21
174.94939644358311
  0
LINE
  8
_e-0_
  6
CONTINUOUS
 62
    7
 10
2231.3837497438626
 20
163.08029707814966
 11
2249.8286640768283
 21
169.79369686893903
  0
LINE
  8
_e-0_
  6
CONTINUOUS
 62
    7
 10
2232.3950068941753
 20
158.12747571767488
 11
2251.269568818267
 21
164.99725444285843
  0
LINE
  8
_e-0_
  6
CONTINUOUS
 62
    7
 10
2233.9675550564961
 20
153.37894757832998
 11
2253.6625167678698
 21
160.54732740628253
  0
LINE
  8
_e-0_
  6
CONTINUOUS
 62
    7
 10
2236.0955302019183
 20
148.83257832814223
 11
2257.099910488102
 21
156.47754754152117
  0
LINE
  8
_e-0_
  6
CONTINUOUS
 62
    7
 10
2238.7970089264299
 20
144.49494730998821
 11
2261.880116002736
 21
152.89651120014326
  0
LINE
  8
_e-0_
  6
CONTINUOUS
 62
    7
 10
2242.1181877425701
 20
140.38286867935909
 11
2268.9468388985251
 21
150.14769912563821
  0
LINE
  8
_e-0_
  6
CONTINUOUS
 62
    7
 10
2246.1455691824353
 20
136.52782678312661
 11
2284.5651405528205
 21
150.51140717521263
  0
LINE
  8
_e-0_
  6
CONTINUOUS
 62
    7
 10
2251.0351047702797
 20
132.98658333410969
 11
2279.1844822576495
 21
143.2321188526356
  0
LINE
  8
_e-0_
  6
CONTINUOUS
 62
    7
 10
2279.5849322183671
 20
201.90764820482513
 11
2302.1719724714803
 21
210.12865853713066
  0
LINE
  8
_e-0_
  6
CONTINUOUS
 62
    7
 10
2260.5624543087296
 20
189.663143601351
 11
2313.0511299164636
 21
208.76745915862059
  0
LINE
  8
_e-0_
  6
CONTINUOUS
 62
    7
 10
2273.0696188494734
 20
188.89449034687174
 11
2313.0511299164636
 21
203.44657029624102
  0
LINE
  8
_e-0_
  6
CONTINUOUS
 62
    7
 10
2287.6886408502887
 20
188.89449034687174
 11
2313.0511299164636
 21
198.12568143386158
  0
LINE
  8
_e-0_
  6
CONTINUOUS
 62
    7
 10
2291.8751463425487
 20
185.09736486926669
 11
2313.0511299164636
 21
192.80479257148215
  0
LINE
  8
_e-0_
  6
CONTINUOUS
 62
    7
 10
2291.8751463425487
 20
179.77647600688726
 11
2313.0511299164636
 21
187.48390370910215
  0
LINE
  8
_e-0_
  6
CONTINUOUS
 62
    7
 10
2291.8751463425487
 20
174.45558714450783
 11
2313.0511299164636
 21
182.16301484672271
  0
LINE
  8
_e-0_
  6
CONTINUOUS
 62
    7
 10
2291.8751463425487
 20
169.13469828212839
 11
2313.0511299164636
 21
176.84212598434328
  0
LINE
  8
_e-0_
  6
CONTINUOUS
 62
    7
 10
2291.8008475696451
 20
163.78676687796939
 11
2313.0511299164636
 21
171.52123712196384
  0
LINE
  8
_e-0_
  6
CONTINUOUS
 62
    7
 10
2290.6539909363364
 20
158.04845633809463
 11
2313.0511299164636
 21
166.20034825958413
  0
LINE
  8
_e-0_
  6
CONTINUOUS
 62
    7
 10
2288.3949962857823
 20
151.90536066354695
 11
2313.0511299164636
 21
160.87945939720469
  0
LINE
  8
_e-0_
  6
CONTINUOUS
 62
    7
 10
2284.4003861827632
 20
145.13055262616916
 11
2311.8608666367176
 21
155.12535013005759
  0
LINE
  8
_e-0_
  6
CONTINUOUS
 62
    7
 10
2275.7463468865153
 20
136.65985105378524
 11
2309.0387712913652
 21
148.77730256370853
  0
LINE
  8
_e-0_
  6
CONTINUOUS
 62
    7
 10
2266.9791201478205
 20
128.14795262145821
 11
2304.1703780821812
 21
141.68446348448242
  0
LINE
  8
_e-0_
  6
CONTINUOUS
 62
    7
 10
2282.1376414569663
 20
128.34431431109749
 11
2292.7244583873175
 21
132.19760054937069
  0
LINE
  8
_e-0_
  6
CONTINUOUS
 62
    3
 10
2266.4464672734898
 20
197.56612819678281
 11
2262.3244734593249
 21
194.75680664380121
  0
LINE
  8
_e-0_
  6
CONTINUOUS
 62
    3
 10
2282.3868421919432
 20
128.14795262145651
 11
2266.9204010401704
 21
128.14795262145651
  0
ARC
  8
_e-0_
  6
CONTINUOUS
 62
    3
 10
2282.3868421919432
 20
133.14795262145651
 40
5
 50
270
 51
286.20399351045659
  0
LINE
  8
_e-0_
  6
CONTINUOUS
 62
    3
 10
2313.2288608412613
 20
210.12865853712895
 11
2313.2288608412613
 21
159.77346730566921
  0
ARC
  8
_e-0_
  6
CONTINUOUS
 62
    3
 10
2271.9221657766447
 20
169.15823653484835
 40
42.5
 50
286.20399351045648
 51
345.50707147989851
  0
ARC
  8
_e-0_
  6
CONTINUOUS
 62
    3
 10
2308.2288608412613
 20
159.77346730566921
 40
5
 50
345.50707147989879
 51
0.0000000000000159
  0
ARC
  8
_e-0_
  6
CONTINUOUS
 62
    3
 10
2250.0927387377205
 20
170.4956084628958
 40
40
 50
279.71265316664215
 51
332.69093929010892
  0
ARC
  8
_e-0_
  6
CONTINUOUS
 62
    3
 10
2255.9974857549714
 20
135.99729020443191
 40
5
 50
241.9452628118
 51
279.71265316664221
  0
ARC
  8
_e-0_
  6
CONTINUOUS
 62
    3
 10
2263.2643122966178
 20
205.12865853712895
 40
5
 50
90
 51
106.05338143786268
  0
LINE
  8
_e-0_
  6
CONTINUOUS
 62
    3
 10
2288.4334989152221
 20
210.12865853712881
 11
2278.2181989551913
 21
205.24067691222057
  0
LINE
  8
_e-0_
  6
CONTINUOUS
 62
    3
 10
2278.2181989551913
 20
205.24067691222057
 11
2272.2994583375816
 21
201.4444897898403
  0
LINE
  8
_e-0_
  6
CONTINUOUS
 62
    3
 10
2266.4464672734898
 20
197.56612819678252
 11
2272.2994583375816
 21
201.4444897898403
  0
ARC
  8
_e-0_
  6
CONTINUOUS
 62
    3
 10
2263.2643122966178
 20
205.12865853712895
 40
5
 50
90
 51
106.05338143786268
  0
ARC
  8
_e-0_
  6
CONTINUOUS
 62
    3
 10
2263.2643122966178
 20
205.12865853712895
 40
5
 50
90
 51
106.05338143786268
  0
LINE
  8
_e-0_
  6
CONTINUOUS
 62
    3
 10
2288.4334989152221
 20
210.12865853712895
 11
2263.2643122966178
 21
210.12865853712895
  0
ARC
  8
_e-0_
  6
CONTINUOUS
 62
    3
 10
2273.6342932765642
 20
169.09099082020304
 40
42.5
 50
106.05338143786268
 51
241.94526281180051
  0
ARC
  8
_e-0_
  6
CONTINUOUS
 62
    3
 10
2263.2643122966178
 20
205.12865853712895
 40
5
 50
90
 51
106.05338143786268
  0
LINE
  8
_e-0_
  6
CONTINUOUS
 62
    3
 10
2299.1719829458552
 20
210.12865853712895
 11
2313.2288608412613
 21
210.12865853712895
  0
ARC
  8
_e-0_
  6
CONTINUOUS
 62
    3
 10
2299.1719829458552
 20
205.12865853712895
 40
5
 50
90
 51
112.84552721528325
  0
LINE
  8
_e-0_
  6
CONTINUOUS
 62
    3
 10
2292.0528772673465
 20
188.89449034687004
 11
2269.0173546029673
 21
188.89449034687004
  0
ARC
  8
_e-0_
  6
CONTINUOUS
 62
    3
 10
2269.0173546029673
 20
183.89449034687004
 40
5
 50
90
 51
110.93110431809542
  0
ARC
  8
_e-0_
  6
CONTINUOUS
 62
    3
 10
2254.2292662802574
 20
177.70386452217394
 40
0.5
 50
165.368776721252
 51
224.67319701305797
  0
LINE
  8
_e-0_
  6
CONTINUOUS
 62
    3
 10
2253.8737020580624
 20
177.3523334653737
 11
2253.6837582739271
 21
177.54445650133447
  0
ARC
  8
_e-0_
  6
CONTINUOUS
 62
    3
 10
2276.1622566207875
 20
165.2142768803236
 40
25
 50
110.93110431809527
 51
150.17701829297229
  0
ARC
  8
_e-0_
  6
CONTINUOUS
 62
    3
 10
2254.0393224961217
 20
177.89598755813472
 40
0.5
 50
224.67319701305652
 51
330.17701829297561
  0
LINE
  8
_e-0_
  6
CONTINUOUS
 62
    3
 10
2297.2307430642558
 20
209.73643324104926
 11
2283.5233941157548
 21
203.96157353985984
  0
LINE
  8
_e-0_
  6
CONTINUOUS
 62
    3
 10
2283.5233941157548
 20
203.96157353985984
 11
2277.114528385443
 21
200.4613679180602
  0
ARC
  8
_e-0_
  6
CONTINUOUS
 62
    3
 10
2277.9347719955744
 20
171.51524603489747
 40
25
 50
126.05682261028302
 51
165.36877672125814
  0
ARC
  8
_e-0_
  6
CONTINUOUS
 62
    3
 10
2322.0287923520791
 20
111.11536133502738
 40
100
 50
116.68868989749238
 51
126.03335467187628
  0
LINE
  8
_e-0_
  6
CONTINUOUS
 62
    3
 10
2262.3244734593245
 20
194.75680664380149
 11
2254.3560414411385
 21
187.50185893935451
  0
LINE
  8
_e-0_
  6
CONTINUOUS
 62
    3
 10
2254.3560414411385
 20
187.50185893935451
 11
2252.5108960046536
 21
185.36863764275494
  0
ARC
  8
_e-0_
  6
CONTINUOUS
 62
    3
 10
2274.5493829743445
 20
174.5520307550089
 40
25
 50
169.07329675873063
 51
296.32138326661799
  0
LINE
  8
_e-0_
  6
CONTINUOUS
 62
    3
 10
2252.5108960046541
 20
185.36863764275494
 11
2250.002621066113
 21
179.29085759512361
  0
LINE
  8
_e-0_
  6
CONTINUOUS
 62
    3
 10
2292.0528772673465
 20
188.89449034687004
 11
2292.0528772673465
 21
164.42425885831653
  0
ARC
  8
_e-0_
  6
CONTINUOUS
 62
    3
 10
2277.2840925230507
 20
144.13090983307199
 40
5
 50
311.4163090429962
 51
326.13300916724881
  0
ARC
  8
_e-0_
  6
CONTINUOUS
 62
    3
 10
2252.285941088533
 20
168.73596234419835
 40
40
 50
316.78132524618342
 51
353.81191653224226
  0
ARC
  8
_e-0_
  6
CONTINUOUS
 62
    3
 10
2240.9001979970053
 20
185.376663785662
 40
60
 50
294.69555798319504
 51
311.41630904299643
  0
ARC
  8
_e-0_
  6
CONTINUOUS
 62
    3
 10
2271.9268153318698
 20
202.98067150791609
 40
75
 50
264.68313230529076
 51
266.17253517307824
  0
ARC
  8
_e-0_
  6
CONTINUOUS
 62
    3
 10
2265.0233680716155
 20
128.80121063143832
 40
0.5
 50
174.02086603460466
 51
264.68313230528985
  0
ARC
  8
_e-0_
  6
CONTINUOUS
 62
    3
 10
2267.0124878650103
 20
128.59287809071872
 40
2.5
 50
114.69555798319522
 51
174.02086603461154
  0
LINE
  8
_e-0_
  6
CONTINUOUS
 62
    7
 10
2376.8899919095943
 20
169.43032024062034
 11
2388.2618909747961
 21
173.56935300743344
  0
LINE
  8
_e-0_
  6
CONTINUOUS
 62
    3
 10
2436.2585234464268
 20
162.63312492519389
 11
2436.2585234464268
 21
136.49018622829544
  0
CIRCLE
  8
_e-0_
  6
CONTINUOUS
 62
    3
 10
2365.5167430510387
 20
162.46293449130519
 40
13.33773795583065
  0
CIRCLE
  8
_e-0_
  6
CONTINUOUS
 62
    3
 10
2365.2330256036634
 20
162.17921704393006
 40
25.691707563897665
  0
LINE
  8
_e-0_
  6
CONTINUOUS
 62
    3
 10
2399.4939617252575
 20
188.26250382114977
 11
2399.4939617252575
 21
136.49018622829544
  0
LINE
  8
_e-0_
  6
CONTINUOUS
 62
    3
 10
2399.4939617252575
 20
136.49018622829544
 11
2414.856930753669
 21
136.49018622829544
  0
LINE
  8
_e-0_
  6
CONTINUOUS
 62
    3
 10
2414.856930753669
 20
136.49018622829544
 11
2414.856930753669
 21
172.63312492519389
  0
LINE
  8
_e-0_
  6
CONTINUOUS
 62
    3
 10
2451.1774760289304
 20
136.49018622829544
 11
2436.2585234464268
 21
136.49018622829544
  0
LINE
  8
_e-0_
  6
CONTINUOUS
 62
    3
 10
2426.2585234464268
 20
172.63312492519389
 11
2414.856930753669
 21
172.63312492519389
  0
ARC
  8
_e-0_
  6
CONTINUOUS
 62
    3
 10
2426.2585234464268
 20
162.63312492519389
 40
10
 50
0
 51
90
  0
LINE
  8
_e-0_
  6
CONTINUOUS
 62
    3
 10
2426.1774760289299
 20
188.26250382114977
 11
2399.4939617252575
 21
188.26250382114977
  0
LINE
  8
_e-0_
  6
CONTINUOUS
 62
    3
 10
2451.1774760289304
 20
163.26250382114977
 11
2451.1774760289304
 21
136.49018622829544
  0
ARC
  8
_e-0_
  6
CONTINUOUS
 62
    3
 10
2426.1774760289299
 20
163.26250382114977
 40
25
 50
0
 51
90
  0
ARC
  8
_e-0_
  6
CONTINUOUS
 62
    3
 10
2486.2452606175233
 20
162.17653762406428
 40
13.33773795583065
 50
23.422555400004949
 51
97.191484740792631
  0
LINE
  8
_e-0_
  6
CONTINUOUS
 62
    3
 10
2474.0065761310629
 20
167.47841048365671
 11
2498.4839451039833
 21
167.47841048365671
  0
ARC
  8
_e-0_
  6
CONTINUOUS
 62
    3
 10
2486.2452606175233
 20
162.17653762406428
 40
13.33773795583065
 50
92.530763017635237
 51
156.57744459999506
  0
ARC
  8
_e-0_
  6
CONTINUOUS
 62
    3
 10
2486.2452606175233
 20
162.17653762406428
 40
13.33773795583065
 50
204.21097500392608
 51
316.0067678116265
  0
LINE
  8
_e-0_
  6
CONTINUOUS
 62
    3
 10
2474.0806890359867
 20
156.70676139316753
 11
2511.5200753562385
 21
156.70676139316753
  0
LINE
  8
_e-0_
  6
CONTINUOUS
 62
    3
 10
2495.8407207162626
 20
152.91249966689292
 11
2508.7092412098891
 21
149.78943472664496
  0
ARC
  8
_e-0_
  6
CONTINUOUS
 62
    3
 10
2486.5655867677851
 20
162.8171899245882
 40
25.691707563897665
 50
346.24110979921471
 51
329.53046432565093
  0
ARC
  8
_e-0_
  6
CONTINUOUS
 62
    3
 10
2546.5135590423406
 20
162.14309845353909
 40
11.089756641867943
 50
94.502189492040685
 51
357.22978420280037
  0
LINE
  8
_e-0_
  6
CONTINUOUS
 62
    3
 10
2556.5903561511468
 20
173.19863581905565
 11
2545.6430442891501
 21
173.19863581905565
  0
LINE
  8
_e-0_
  6
CONTINUOUS
 62
    3
 10
2557.5903561511468
 20
172.19863581905599
 11
2557.5903561511468
 21
161.60712439988742
  0
ARC
  8
_e-0_
  6
CONTINUOUS
 62
    3
 10
2556.5903561511468
 20
172.19863581905599
 40
1
 50
0
 51
90
  0
LINE
  8
_e-0_
  6
CONTINUOUS
 62
    3
 10
2548.9703457355517
 20
188.29058742736094
 11
2557.3930775458175
 21
188.29058742736094
  0
ARC
  8
_e-0_
  6
CONTINUOUS
 62
    3
 10
2546.9662856612039
 20
162.67716163604518
 40
25.691707563897665
 50
85.526146014136969
 51
347.40557840019874
  0
LINE
  8
_e-0_
  6
CONTINUOUS
 62
    3
 10
2557.3930775458175
 20
209.12865853712901
 11
2557.3930775458175
 21
188.29058742736094
  0
ARC
  8
_e-0_
  6
CONTINUOUS
 62
    3
 10
2558.3930775458175
 20
209.12865853712901
 40
1
 50
90
 51
180
  0
LINE
  8
_e-0_
  6
CONTINUOUS
 62
    3
 10
2572.0397992563612
 20
209.12865853712901
 11
2572.0397992563612
 21
157.07513043814088
  0
LINE
  8
_e-0_
  6
CONTINUOUS
 62
    3
 10
2571.0397992563616
 20
210.12865853712895
 11
2558.3930775458175
 21
210.12865853712895
  0
ARC
  8
_e-0_
  6
CONTINUOUS
 62
    3
 10
2571.0397992563616
 20
209.12865853712901
 40
1
 50
0
 51
90
  0
CIRCLE
  8
_e-0_
  6
CONTINUOUS
 62
    3
 10
2607.4932845795829
 20
162.61858771142584
 40
13.33773795583065
  0
CIRCLE
  8
_e-0_
  6
CONTINUOUS
 62
    3
 10
2607.2095671322085
 20
162.334870264051
 40
25.691707563897665
  0
ARC
  8
_e-0_
  6
CONTINUOUS
 62
    3
 10
2361.3056445788688
 20
183.56108960512415
 40
5
 50
90
 51
106.05338143786268
  0
ARC
  8
_e-0_
  6
CONTINUOUS
 62
    3
 10
2361.3056445788688
 20
183.56108960512415
 40
5
 50
90
 51
106.05338143786268
  0
ARC
  8
_e-0_
  6
CONTINUOUS
 62
    3
 10
2361.3056445788688
 20
183.56108960512415
 40
5
 50
90
 51
106.05338143786268
  0
ARC
  8
_e-0_
  6
CONTINUOUS
 62
    3
 10
2361.3056445788688
 20
183.56108960512415
 40
5
 50
90
 51
106.05338143786268
  0
LINE
  8
_e-0_
  6
CONTINUOUS
 62
    7
 10
2346.3470804331013
 20
179.59716504486777
 11
2368.5044577934554
 21
187.66179087344028
  0
LINE
  8
_e-0_
  6
CONTINUOUS
 62
    7
 10
2361.2415063076145
 20
179.69740385729494
 11
2376.5205845613304
 21
185.25853354867166
  0
LINE
  8
_e-0_
  6
CONTINUOUS
 62
    7
 10
2341.7511550984831
 20
172.60349616177705
 11
2361.2415063076145
 21
179.69740385729494
  0
LINE
  8
_e-0_
  6
CONTINUOUS
 62
    7
 10
2339.9278406436087
 20
166.61897511011602
 11
2357.2356669233163
 21
172.91850869577984
  0
LINE
  8
_e-0_
  6
CONTINUOUS
 62
    7
 10
2339.5613566552269
 20
161.16469698463049
 11
2352.6357267551816
 21
165.92337853279389
  0
LINE
  8
_e-0_
  6
CONTINUOUS
 62
    7
 10
2340.2704529847874
 20
156.10189807943811
 11
2352.3257797311662
 21
160.489678179473
  0
LINE
  8
_e-0_
  6
CONTINUOUS
 62
    7
 10
2341.9204823498939
 20
151.38157079162255
 11
2353.9794571535694
 21
155.77067867592631
  0
LINE
  8
_e-0_
  6
CONTINUOUS
 62
    7
 10
2344.504128974107
 20
147.00105239631881
 11
2357.564943671171
 21
151.75480018131679
  0
LINE
  8
_e-0_
  6
CONTINUOUS
 62
    7
 10
2348.1361647674011
 20
143.00211645248765
 11
2364.9879954656798
 21
149.13568121955449
  0
LINE
  8
_e-0_
  6
CONTINUOUS
 62
    7
 10
2353.1501292054063
 20
139.50616140121155
 11
2375.2534753949121
 21
147.55112149187283
  0
LINE
  8
_e-0_
  6
CONTINUOUS
 62
    7
 10
2360.6217579801264
 20
136.90472301431668
 11
2375.3071030149835
 21
142.24975148693374
  0
LINE
  8
_e-0_
  6
CONTINUOUS
 62
    7
 10
2375.3071030149835
 20
142.24975148693374
 11
2385.0115931457403
 21
145.78189703325932
  0
LINE
  8
_e-0_
  6
CONTINUOUS
 62
    7
 10
2374.4001538198344
 20
147.24053783828736
 11
2389.063020487204
 21
152.57738485422379
  0
LINE
  8
_e-0_
  6
CONTINUOUS
 62
    7
 10
2374.4883804748506
 20
152.59353857696169
 11
2390.6567834919524
 21
158.47835601080646
  0
LINE
  8
_e-0_
  6
CONTINUOUS
 62
    7
 10
2378.4912308361026
 20
159.37134582305873
 11
2390.8686178519897
 21
163.87634627483464
  0
LINE
  8
_e-0_
  6
CONTINUOUS
 62
    7
 10
2378.6565159204478
 20
164.75239353630797
 11
2390.0320630429459
 21
168.89275408738967
  0
LINE
  8
_e-0_
  6
CONTINUOUS
 62
    7
 10
2365.1397018509305
 20
175.7953421400316
 11
2381.7641004494612
 21
181.84612839247364
  0
LINE
  8
_e-0_
  6
CONTINUOUS
 62
    7
 10
2373.159843452322
 20
173.39354609515908
 11
2385.5507858710998
 21
177.90348031010012
  0
LINE
  8
_e-0_
  6
CONTINUOUS
 62
    7
 10
2399.4939617252575
 20
182.97838129215278
 11
2414.0119690553087
 21
188.26250382114977
  0
LINE
  8
_e-0_
  6
CONTINUOUS
 62
    7
 10
2399.4939617252575
 20
177.65749242977335
 11
2428.3670442872125
 21
188.16643505383524
  0
LINE
  8
_e-0_
  6
CONTINUOUS
 62
    7
 10
2399.4939617252575
 20
172.33660356739392
 11
2436.7743097980664
 21
185.90554058897964
  0
LINE
  8
_e-0_
  6
CONTINUOUS
 62
    7
 10
2399.4939617252575
 20
167.01571470501448
 11
2442.1110032081055
 21
182.52704927725858
  0
LINE
  8
_e-0_
  6
CONTINUOUS
 62
    7
 10
2399.4939617252575
 20
161.69482584263505
 11
2414.856930753669
 21
167.28648927893004
  0
LINE
  8
_e-0_
  6
CONTINUOUS
 62
    7
 10
2428.7090082786239
 20
172.32823318076128
 11
2445.9244086202584
 21
178.5941264760919
  0
LINE
  8
_e-0_
  6
CONTINUOUS
 62
    7
 10
2399.4939617252575
 20
156.37393698025562
 11
2414.856930753669
 21
161.96560041655061
  0
LINE
  8
_e-0_
  6
CONTINUOUS
 62
    7
 10
2403.3398935234458
 20
136.49018622829544
 11
2414.856930753669
 21
140.68204496703231
  0
LINE
  8
_e-0_
  6
CONTINUOUS
 62
    7
 10
2399.4939617252575
 20
140.41127039311675
 11
2414.856930753669
 21
146.00293382941202
  0
LINE
  8
_e-0_
  6
CONTINUOUS
 62
    7
 10
2399.4939617252575
 20
145.73215925549646
 11
2414.856930753669
 21
151.32382269179146
  0
LINE
  8
_e-0_
  6
CONTINUOUS
 62
    7
 10
2399.4939617252575
 20
151.0530481178759
 11
2414.856930753669
 21
156.64471155417118
  0
LINE
  8
_e-0_
  6
CONTINUOUS
 62
    7
 10
2436.2585234464268
 20
159.113365397844
 11
2451.1774760289304
 21
164.5434200643038
  0
LINE
  8
_e-0_
  6
CONTINUOUS
 62
    7
 10
2436.2585234464268
 20
153.79247653546485
 11
2451.1774760289304
 21
159.22253120192465
  0
LINE
  8
_e-0_
  6
CONTINUOUS
 62
    7
 10
2436.105047565391
 20
164.37839360784892
 11
2450.3687179376247
 21
169.56994505472636
  0
LINE
  8
_e-0_
  6
CONTINUOUS
 62
    7
 10
2436.2585234464268
 20
148.47158767308542
 11
2451.1774760289304
 21
153.90164233954521
  0
LINE
  8
_e-0_
  6
CONTINUOUS
 62
    7
 10
2436.2585234464268
 20
143.1506988107057
 11
2451.1774760289304
 21
148.5807534771655
  0
LINE
  8
_e-0_
  6
CONTINUOUS
 62
    7
 10
2436.2585234464268
 20
137.82980994832598
 11
2451.1774760289304
 21
143.25986461478606
  0
LINE
  8
_e-0_
  6
CONTINUOUS
 62
    7
 10
2447.1969595258929
 20
136.49018622829544
 11
2451.1774760289304
 21
137.93897575240634
  0
LINE
  8
_e-0_
  6
CONTINUOUS
 62
    7
 10
2434.0189024056153
 20
168.93998772771169
 11
2448.6296862431445
 21
174.25787814386978
  0
LINE
  8
_e-0_
  6
CONTINUOUS
 62
    7
 10
2469.1883842563338
 20
181.74063227593791
 11
2487.7135419125711
 21
188.48323824789645
  0
LINE
  8
_e-0_
  6
CONTINUOUS
 62
    7
 10
2463.6316388937825
 20
174.39725350219305
 11
2496.6904887083792
 21
186.42969081378254
  0
LINE
  8
_e-0_
  6
CONTINUOUS
 62
    7
 10
2461.4628990865917
 20
168.28700790412767
 11
2502.2794299488264
 21
183.14301020398858
  0
LINE
  8
_e-0_
  6
CONTINUOUS
 62
    7
 10
2461.4992419870632
 20
162.97934677574687
 11
2473.9894671720021
 21
167.52541696234658
  0
LINE
  8
_e-0_
  6
CONTINUOUS
 62
    7
 10
2492.1508316310541
 20
174.13561303910114
 11
2506.2885679576884
 21
179.28132824190015
  0
LINE
  8
_e-0_
  6
CONTINUOUS
 62
    7
 10
2496.6927278595248
 20
170.46783921101109
 11
2509.1784918759253
 21
175.01228566505261
  0
LINE
  8
_e-0_
  6
CONTINUOUS
 62
    7
 10
2463.2093427036916
 20
158.28088367181749
 11
2488.4793399340492
 21
167.47841048365671
  0
LINE
  8
_e-0_
  6
CONTINUOUS
 62
    7
 10
2462.8888794596255
 20
152.84335572742151
 11
2511.1140538755621
 21
170.39588375711787
  0
LINE
  8
_e-0_
  6
CONTINUOUS
 62
    7
 10
2465.300291731432
 20
148.400149154524
 11
2476.9283430630944
 21
152.63241372176821
  0
LINE
  8
_e-0_
  6
CONTINUOUS
 62
    7
 10
2488.1225212892722
 20
156.70676139316753
 11
2512.1228430370119
 21
165.44216412215632
  0
LINE
  8
_e-0_
  6
CONTINUOUS
 62
    7
 10
2502.7415432900879
 20
156.70676139316753
 11
2512.1151621126959
 21
160.11847963195407
  0
LINE
  8
_e-0_
  6
CONTINUOUS
 62
    7
 10
2468.7281740890052
 20
144.32690743686691
 11
2482.5550140975401
 21
149.35946563393486
  0
LINE
  8
_e-0_
  6
CONTINUOUS
 62
    7
 10
2473.4508580764295
 20
140.72493497175571
 11
2502.4973614552445
 21
151.29699761115659
  0
LINE
  8
_e-0_
  6
CONTINUOUS
 62
    7
 10
2480.3069495598269
 20
137.89945933273884
 11
2507.3767895083869
 21
147.75207532036432
  0
LINE
  8
_e-0_
  6
CONTINUOUS
 62
    7
 10
2552.6231690921717
 20
137.61596638527407
 11
2558.7418873346696
 21
139.84299769740459
  0
LINE
  8
_e-0_
  6
CONTINUOUS
 62
    7
 10
2539.4012676014826
 20
138.12447666464265
 11
2568.5435873921023
 21
148.73141362589478
  0
LINE
  8
_e-0_
  6
CONTINUOUS
 62
    7
 10
2532.9976800904732
 20
141.11465028049622
 11
2571.5269734698549
 21
155.13816621790056
  0
LINE
  8
_e-0_
  6
CONTINUOUS
 62
    7
 10
2522.081864354775
 20
169.06695144424446
 11
2572.0397992563612
 21
187.25015271383
  0
LINE
  8
_e-0_
  6
CONTINUOUS
 62
    7
 10
2524.5896829795606
 20
175.30061163898437
 11
2572.0397992563612
 21
192.57104157620943
  0
LINE
  8
_e-0_
  6
CONTINUOUS
 62
    7
 10
2557.3930775458175
 20
208.52362629350906
 11
2561.8028673926596
 21
210.12865853712895
  0
LINE
  8
_e-0_
  6
CONTINUOUS
 62
    7
 10
2557.3930775458175
 20
203.20273743112977
 11
2572.0397992563612
 21
208.53370816334788
  0
LINE
  8
_e-0_
  6
CONTINUOUS
 62
    7
 10
2557.3930775458175
 20
197.88184856875005
 11
2572.0397992563612
 21
203.21281930096859
  0
LINE
  8
_e-0_
  6
CONTINUOUS
 62
    7
 10
2557.3930775458175
 20
192.56095970637034
 11
2572.0397992563612
 21
197.89193043858915
  0
LINE
  8
_e-0_
  6
CONTINUOUS
 62
    7
 10
2531.3600319802562
 20
183.08570601321093
 11
2545.8030101140193
 21
188.34252014805827
  0
LINE
  8
_e-0_
  6
CONTINUOUS
 62
    7
 10
2548.0525958796984
 20
173.19863581905565
 11
2572.0397992563612
 21
181.92926385145057
  0
LINE
  8
_e-0_
  6
CONTINUOUS
 62
    7
 10
2521.2864022906337
 20
163.45653806802943
 11
2538.3752084417083
 21
169.67635484616607
  0
LINE
  8
_e-0_
  6
CONTINUOUS
 62
    7
 10
2521.6554107736333
 20
158.26995730965364
 11
2535.4846691325356
 21
163.30339571427089
  0
LINE
  8
_e-0_
  6
CONTINUOUS
 62
    7
 10
2522.9940114609526
 20
153.43627925302655
 11
2536.1404517985765
 21
158.22119222247806
  0
LINE
  8
_e-0_
  6
CONTINUOUS
 62
    7
 10
2525.2563435788042
 20
148.93881194156961
 11
2539.0354883761397
 21
153.95401050144357
  0
LINE
  8
_e-0_
  6
CONTINUOUS
 62
    7
 10
2528.5117312327797
 20
144.80278728623488
 11
2545.7561370732087
 21
151.07923771975691
  0
LINE
  8
_e-0_
  6
CONTINUOUS
 62
    7
 10
2554.2054905278623
 20
154.15455087604527
 11
2572.0397992563612
 21
160.64570840193255
  0
LINE
  8
_e-0_
  6
CONTINUOUS
 62
    7
 10
2557.505937791675
 20
160.67670430221767
 11
2572.0397992563612
 21
165.96659726431198
  0
LINE
  8
_e-0_
  6
CONTINUOUS
 62
    7
 10
2557.5903561511468
 20
166.02831893467055
 11
2572.0397992563612
 21
171.28748612669141
  0
LINE
  8
_e-0_
  6
CONTINUOUS
 62
    7
 10
2557.5903561511468
 20
171.34920779704998
 11
2572.0397992563612
 21
176.60837498907085
  0
LINE
  8
_e-0_
  6
CONTINUOUS
 62
    7
 10
2595.1467628188602
 20
185.01862193009401
 11
2601.869376832742
 21
187.46545332760774
  0
LINE
  8
_e-0_
  6
CONTINUOUS
 62
    7
 10
2585.5936460434281
 20
176.22068291698809
 11
2614.8426950414304
 21
186.86646613285404
  0
LINE
  8
_e-0_
  6
CONTINUOUS
 62
    7
 10
2608.5181174973608
 20
136.67650840108905
 11
2622.7000364868072
 21
141.83830477802189
  0
LINE
  8
_e-0_
  6
CONTINUOUS
 62
    7
 10
2598.2444761483161
 20
138.25809761488983
 11
2629.5534764025951
 21
149.65364177207987
  0
LINE
  8
_e-0_
  6
CONTINUOUS
 62
    7
 10
2582.6330921261528
 20
169.82224055178022
 11
2621.2234503919626
 21
183.86798229020314
  0
LINE
  8
_e-0_
  6
CONTINUOUS
 62
    7
 10
2592.2968185805402
 20
141.41421615899105
 11
2632.0809325371146
 21
155.89444943583799
  0
LINE
  8
_e-0_
  6
CONTINUOUS
 62
    7
 10
2588.0695495912832
 20
145.19650493704432
 11
2602.246111940276
 21
150.35635165629656
  0
LINE
  8
_e-0_
  6
CONTINUOUS
 62
    7
 10
2585.0094293819529
 20
149.40360112995108
 11
2597.3909335115822
 21
153.91010008858017
  0
LINE
  8
_e-0_
  6
CONTINUOUS
 62
    7
 10
2582.919829983693
 20
153.96393800982366
 11
2594.8695180063709
 21
158.31326875884542
  0
LINE
  8
_e-0_
  6
CONTINUOUS
 62
    7
 10
2581.7538748691904
 20
158.86045391603374
 11
2594.1774270088017
 21
163.38225709870641
  0
LINE
  8
_e-0_
  6
CONTINUOUS
 62
    7
 10
2581.5798124660104
 20
164.11798924475078
 11
2595.9853391150813
 21
169.36117215394091
  0
LINE
  8
_e-0_
  6
CONTINUOUS
 62
    7
 10
2611.9748325174678
 20
175.18087181340547
 11
2625.6969314853622
 21
180.17530738937352
  0
LINE
  8
_e-0_
  6
CONTINUOUS
 62
    7
 10
2617.2029460570038
 20
171.76286066078091
 11
2628.9430705154381
 21
176.03591651023151
  0
LINE
  8
_e-0_
  6
CONTINUOUS
 62
    7
 10
2619.9310564926913
 20
167.43492279278257
 11
2631.1973168341919
 21
171.53550620858254
  0
LINE
  8
_e-0_
  6
CONTINUOUS
 62
    7
 10
2620.8298424207368
 20
162.44116525518904
 11
2632.5279188691888
 21
166.69891688059578
  0
LINE
  8
_e-0_
  6
CONTINUOUS
 62
    7
 10
2619.394865425299
 20
156.5979874796136
 11
2632.8880000931144
 21
161.50908686564349
  0
TEXT
  8
_e-0_
 62
    7
 10
2642.8586825750176
 20
180.56247057449553
 40
35
 41
0.5714285714285711
 50
0
  1
ワンド
  0
TEXT
  8
_e-0_
 62
    7
 10
2649.7045100149039
 20
147.0179161190498
 40
30
 41
0.6666666666666666
 50
0
  1
株式
  0
TEXT
  8
_e-0_
 62
    7
 10
2649.0199272709155
 20
118.95002361551377
 40
30
 41
0.6666666666666666
 50
0
  1
会社
  0
TEXT
  8
_0-d_仕様表
 62
    7
 10
3860.6210602131609
 20
2045.4294496691986
 40
35
 41
0.8571428571428568
 50
0
  1
扉　色
  0
TEXT
  8
_0-d_仕様表
 62
    7
 10
3715.7122200188973
 20
1977.9294496691986
 40
35
 41
0.8571428571428568
 50
0
  1
ＳＷ
  0
TEXT
  8
_0-d_仕様表
 62
    7
 10
3830.2421204263209
 20
1977.9294496691986
 40
35
 41
0.8571428571428568
 50
0
  1
ホワイト
  0
TEXT
  8
_0-d_仕様表
 62
    7
 10
3720.7036754285845
 20
1918.5187764849788
 40
35
 41
0.8571428571428568
 50
0
  1
ＬＧ
  0
TEXT
  8
_0-d_仕様表
 62
    7
 10
3830.3411143313564
 20
1918.5187764849788
 40
35
 41
0.8571428571428568
 50
0
  1
木　　目
  0
TEXT
  8
_0-d_仕様表
 62
    7
 10
3715.7122200188973
 20
1852.9294496691982
 40
35
 41
0.8571428571428568
 50
0
  1
ＵＷ
  0
TEXT
  8
_0-d_仕様表
 62
    7
 10
3830.24212042632
 20
1852.9294496691982
 40
35
 41
0.8571428571428568
 50
0
  1
ｳﾙﾄﾗﾎﾜｲﾄ（艶有）
  0
TEXT
  8
_0-d_仕様表
 62
    7
 10
3720.7036754285845
 20
1793.5187764849786
 40
35
 41
0.8571428571428568
 50
0
  1
ＷＮ
  0
TEXT
  8
_0-d_仕様表
 62
    7
 10
3830.2421204263209
 20
1792.9294496691982
 40
35
 41
0.8571428571428568
 50
0
  1
ｳｨﾝｻﾞｰﾅｯﾄ（艶有）
  0
LINE
  8
_0-d_仕様表
  6
CONTINUOUS
 62
    3
 10
4115
 20
2095.4294496691986
 11
4115
 21
1600.4294496691977
  0
LINE
  8
_0-d_仕様表
  6
CONTINUOUS
 62
    7
 10
3800.2421204263209
 20
2025.4294496691986
 11
3800.2421204263209
 21
1905.4294496691982
  0
TEXT
  8
_0-d_仕様表
 62
    7
 10
3720.7036754285845
 20
1733.5187764849783
 40
35
 41
0.8571428571428568
 50
0
  1
ＢＳ
  0
TEXT
  8
_0-d_仕様表
 62
    7
 10
3830.341114331356
 20
1733.5187764849783
 40
35
 41
0.8571428571428568
 50
0
  1
ブラックストーン
  0
LINE
  8
_0-d_仕様表
  6
CONTINUOUS
 62
    3
 10
3700.2421204263209
 20
2095.4294496691986
 11
3700.2421204263209
 21
1600.4294496691977
  0
LINE
  8
_0-d_仕様表
  6
CONTINUOUS
 62
    7
 10
3800.2421204263209
 20
1900.4294496691982
 11
3800.2421204263209
 21
1600.4294496691977
  0
TEXT
  8
_0-d_仕様表
 62
    7
 10
3720.7036754285845
 20
1673.5187764849783
 40
35
 41
0.8571428571428568
 50
0
  1
ＰＭ
  0
TEXT
  8
_0-d_仕様表
 62
    7
 10
3830.3411143313569
 20
1673.5187764849783
 40
35
 41
0.8571428571428568
 50
0
  1
ペールグレイン
  0
TEXT
  8
_0-d_仕様表
 62
    7
 10
3720.7036754285845
 20
1613.5187764849783
 40
35
 41
0.8571428571428568
 50
0
  1
ＭＤ
  0
TEXT
  8
_0-d_仕様表
 62
    7
 10
3830.3411143313569
 20
1613.5187764849783
 40
35
 41
0.8571428571428568
 50
0
  1
ダークグレイン
  0
LINE
  8
_0-d_仕様表
  6
CONTINUOUS
 62
    3
 10
4115
 20
2095.4294496691986
 11
3700.2421204263209
 21
2095.4294496691986
  0
LINE
  8
_0-d_仕様表
  6
CONTINUOUS
 62
    3
 10
4115
 20
1600.4294496691977
 11
3700.2421204263209
 21
1600.4294496691977
  0
LINE
  8
_0-d_仕様表
  6
CONTINUOUS
 62
    7
 10
3700.2421204263209
 20
1965.4294496691986
 11
4115
 21
1965.4294496691986
  0
LINE
  8
_0-d_仕様表
  6
CONTINUOUS
 62
    7
 10
4115
 20
1965.4294496691986
 11
3700.2421204263209
 21
1965.4294496691986
  0
LINE
  8
_0-d_仕様表
  6
CONTINUOUS
 62
    3
 10
4115
 20
1965.4294496691986
 11
3700.2421204263209
 21
1965.4294496691986
  0
LINE
  8
_0-d_仕様表
  6
CONTINUOUS
 62
    3
 10
4115
 20
1905.4294496691982
 11
3700.2421204263209
 21
1905.4294496691982
  0
LINE
  8
_0-d_仕様表
  6
CONTINUOUS
 62
    7
 10
4115
 20
1840.4294496691982
 11
3700.2421204263209
 21
1840.4294496691982
  0
LINE
  8
_0-d_仕様表
  6
CONTINUOUS
 62
    3
 10
4115
 20
1840.4294496691982
 11
3700.2421204263209
 21
1840.4294496691982
  0
LINE
  8
_0-d_仕様表
  6
CONTINUOUS
 62
    3
 10
4115
 20
1780.4294496691982
 11
3700.2421204263209
 21
1780.4294496691982
  0
LINE
  8
_0-d_仕様表
  6
CONTINUOUS
 62
    7
 10
3700.2421204263209
 20
1840.4294496691982
 11
4115
 21
1840.4294496691982
  0
LINE
  8
_0-d_仕様表
  6
CONTINUOUS
 62
    7
 10
4115
 20
1905.4294496691982
 11
3700.2421204263209
 21
1905.4294496691982
  0
LINE
  8
_0-d_仕様表
  6
CONTINUOUS
 62
    7
 10
4115
 20
1900.4294496691982
 11
3700.2421204263209
 21
1900.4294496691982
  0
LINE
  8
_0-d_仕様表
  6
CONTINUOUS
 62
    7
 10
4115
 20
1780.4294496691982
 11
3700.2421204263209
 21
1780.4294496691982
  0
LINE
  8
_0-d_仕様表
  6
CONTINUOUS
 62
    3
 10
4115
 20
1780.4294496691982
 11
3700.2421204263209
 21
1780.4294496691982
  0
LINE
  8
_0-d_仕様表
  6
CONTINUOUS
 62
    3
 10
4115
 20
1720.4294496691979
 11
3700.2421204263209
 21
1720.4294496691979
  0
LINE
  8
_0-d_仕様表
  6
CONTINUOUS
 62
    7
 10
3700.2421204263209
 20
1780.4294496691982
 11
4115
 21
1780.4294496691982
  0
LINE
  8
_0-d_仕様表
  6
CONTINUOUS
 62
    7
 10
4115
 20
1720.4294496691979
 11
3700.2421204263209
 21
1720.4294496691979
  0
LINE
  8
_0-d_仕様表
  6
CONTINUOUS
 62
    3
 10
4115
 20
1720.4294496691979
 11
3700.2421204263209
 21
1720.4294496691979
  0
LINE
  8
_0-d_仕様表
  6
CONTINUOUS
 62
    3
 10
4115
 20
1660.4294496691979
 11
3700.2421204263209
 21
1660.4294496691979
  0
LINE
  8
_0-d_仕様表
  6
CONTINUOUS
 62
    7
 10
3700.2421204263209
 20
1720.4294496691979
 11
4115
 21
1720.4294496691979
  0
LINE
  8
_0-d_仕様表
  6
CONTINUOUS
 62
    7
 10
4115
 20
1660.4294496691979
 11
3700.2421204263209
 21
1660.4294496691979
  0
LINE
  8
_0-d_仕様表
  6
CONTINUOUS
 62
    3
 10
4115
 20
1660.4294496691979
 11
3700.2421204263209
 21
1660.4294496691979
  0
LINE
  8
_0-d_仕様表
  6
CONTINUOUS
 62
    7
 10
3700.2421204263209
 20
1660.4294496691979
 11
4115
 21
1660.4294496691979
  0
LINE
  8
_0-d_仕様表
  6
CONTINUOUS
 62
    7
 10
4115
 20
2025.4294496691986
 11
3700.2421204263209
 21
2025.4294496691986
  0
LINE
  8
_0-d_仕様表
  6
CONTINUOUS
 62
    7
 10
4115
 20
2030.4294496691986
 11
3700.2421204263209
 21
2030.4294496691986
  0
LINE
  8
_0-9_寸法線
  6
CONTINUOUS
 62
    4
 10
467.76252603542218
 20
1581.7112291025696
 11
467.76252603542218
 21
1485
  0
LINE
  8
_0-9_寸法線
  6
CONTINUOUS
 62
    4
 10
961.76252603542206
 20
1581.7112291025696
 11
961.76252603542206
 21
1485
  0
POINT
  8
_0-9_寸法線
 62
    3
 10
467.76252603542218
 20
1571.7112291025696
  0
POINT
  8
_0-9_寸法線
 62
    3
 10
961.76252603542206
 20
1571.7112291025696
  0
LINE
  8
_0-9_寸法線
  6
CONTINUOUS
 62
    4
 10
961.76252603542206
 20
1571.7112291025696
 11
467.76252603542218
 21
1571.7112291025696
  0
TEXT
  8
_0-9_寸法線
 62
    7
 10
681.66252603542204
 20
1571.7112291025696
 40
35
 41
0.6285714285714286
 50
0
  1
４９４
  0
LINE
  8
_0-9_寸法線
  6
CONTINUOUS
 62
    4
 10
1219.762526035422
 20
580
 11
991.76252603542206
 21
580
  0
LINE
  8
_0-9_寸法線
  6
CONTINUOUS
 62
    4
 10
1139.762526035422
 20
670
 11
991.76252603542206
 21
670
  0
LINE
  8
_0-9_寸法線
  6
CONTINUOUS
 62
    4
 10
484.76252603542206
 20
462.08277206296656
 11
484.76252603542206
 21
550
  0
LINE
  8
_0-9_寸法線
  6
CONTINUOUS
 62
    4
 10
947.26252603542206
 20
382.08277206296656
 11
947.26252603542206
 21
550
  0
LINE
  8
_0-9_寸法線
  6
CONTINUOUS
 62
    4
 10
944.76252603542252
 20
462.08277206296656
 11
944.76252603542252
 21
550
  0
LINE
  8
_0-9_寸法線
  6
CONTINUOUS
 62
    4
 10
482.26252603542206
 20
382.08277206296656
 11
482.26252603542206
 21
550
  0
LINE
  8
_0-9_寸法線
  6
CONTINUOUS
 62
    4
 10
1930.9214458965811
 20
382.08277206296656
 11
1930.9214458965811
 21
550
  0
LINE
  8
_0-9_寸法線
  6
CONTINUOUS
 62
    4
 10
2150.9212149527465
 20
462.08277206296656
 11
2150.9212149527465
 21
550
  0
LINE
  8
_0-9_寸法線
  6
CONTINUOUS
 62
    4
 10
2270.9214458965811
 20
462.08277206296656
 11
2270.9214458965811
 21
550
  0
POINT
  8
_0-9_寸法線
 62
    3
 10
2415.8843106180665
 20
670
  0
POINT
  8
_0-9_寸法線
 62
    3
 10
2495.8843106180665
 20
580
  0
LINE
  8
_0-9_寸法線
  6
CONTINUOUS
 62
    4
 10
2415.8843106180665
 20
580
 11
2415.8843106180665
 21
670
  0
TEXT
  8
_0-9_寸法線
 62
    7
 10
2415.8843106180665
 20
602.95000000000004
 40
35
 41
0.6285714285714286
 50
90
  1
９０
  0
POINT
  8
_0-9_寸法線
 62
    3
 10
2415.8843106180665
 20
580
  0
LINE
  8
_0-9_寸法線
  6
CONTINUOUS
 62
    4
 10
2505.8843106180665
 20
580
 11
2339.6687133397463
 21
580
  0
LINE
  8
_0-9_寸法線
  6
CONTINUOUS
 62
    4
 10
2425.8843106180665
 20
670
 11
2339.6687133397463
 21
670
  0
POINT
  8
_0-9_寸法線
 62
    3
 10
1209.762526035422
 20
1455
  0
LINE
  8
_0-9_寸法線
  6
CONTINUOUS
 62
    4
 10
1219.762526035422
 20
1455
 11
991.76252603542206
 21
1455
  0
POINT
  8
_0-9_寸法線
 62
    3
 10
1209.762526035422
 20
580
  0
POINT
  8
_0-9_寸法線
 62
    3
 10
1209.762526035422
 20
1455
  0
LINE
  8
_0-9_寸法線
  6
CONTINUOUS
 62
    4
 10
1219.762526035422
 20
580
 11
991.76252603542206
 21
580
  0
LINE
  8
_0-9_寸法線
  6
CONTINUOUS
 62
    4
 10
1219.762526035422
 20
1455
 11
991.76252603542206
 21
1455
  0
LINE
  8
_0-9_寸法線
  6
CONTINUOUS
 62
    4
 10
1209.762526035422
 20
580
 11
1209.762526035422
 21
1455
  0
TEXT
  8
_0-9_寸法線
 62
    7
 10
1204.762526035422
 20
984.39999999999997
 40
35
 41
0.6285714285714286
 50
90
  1
８７５
  0
TEXT
  8
_0-7_
 62
    7
 10
763.01104327144025
 20
1580.5121083068861
 40
20
 41
0.75
 50
0
  1
５
  0
TEXT
  8
_0-7_
 62
    7
 10
750.78932945723499
 20
1586.6417507285696
 40
15
 41
0.6666666666666666
 50
0
  1
＋
  0
TEXT
  8
_0-7_
 62
    7
 10
750.59000908021687
 20
1575.3257178585747
 40
15
 41
0.6666666666666666
 50
0
  1
－
  0
ARC
  8
_0-2_天板
  6
DASHED1
 62
    4
 10
2013.7086458965811
 20
1245.2468000000001
 40
23.000000000000003
 50
58.928000000000018
 51
72.233000000000032
  0
ARC
  8
_0-2_天板
  6
DASHED1
 62
    4
 10
2021.2034458965811
 20
1258.2495999999998
 40
8
 50
9.7900000000000009
 51
56.84000000000001
  0
ARC
  8
_0-2_天板
  6
DASHED1
 62
    4
 10
2088.0558458965811
 20
1313.1803999999999
 40
57
 50
297.96000000000003
 51
317.74000000000006
  0
ARC
  8
_0-2_天板
  6
DASHED1
 62
    4
 10
2328.0150458965813
 20
2226.1195999999999
 40
1007
 50
245.92199999999999
 51
252.23300000000003
  0
ARC
  8
_0-2_天板
  6
DASHED1
 62
    4
 10
2328.0150458965813
 20
2226.1195999999999
 40
1007
 50
245.92199999999999
 51
252.23300000000003
  0
ARC
  8
_0-2_天板
  6
DASHED1
 62
    4
 10
2040.1326458965811
 20
1225
 40
5
 50
189.79000000000002
 51
270.00000000000005
  0
ARC
  8
_0-2_天板
  6
DASHED1
 62
    4
 10
2101.759045896581
 20
1295.8032
 40
70
 50
277.12900000000007
 51
340.14200000000005
  0
ARC
  8
_0-2_天板
  6
DASHED1
 62
    4
 10
2101.7438458965812
 20
1225
 40
5
 50
270.00000000000005
 51
338.79500000000007
  0
ARC
  8
_0-2_天板
  6
DASHED1
 62
    4
 10
2111.067045896581
 20
1221.3827999999998
 40
5
 50
97.129000000000047
 51
158.79500000000001
  0
ARC
  8
_0-2_天板
  6
DASHED1
 62
    4
 10
2001.763445896581
 20
1294.5867999999998
 40
10
 50
211.60800000000008
 51
265.67800000000005
  0
ARC
  8
_0-2_天板
  6
DASHED1
 62
    4
 10
2260.9214458965811
 20
1275
 40
10
 50
265.67800000000005
 51
0.0000000000000381
  0
LINE
  8
_0-2_天板
  6
DASHED1
 62
    4
 10
2070.9214458965811
 20
1271.0896
 11
2070.9214458965811
 21
1214.2
  0
LINE
  8
_0-2_天板
  6
DASHED1
 62
    4
 10
2029.087045896581
 20
1259.6099999999998
 11
2035.205445896581
 21
1224.1495999999999
  0
LINE
  8
_0-2_天板
  6
DASHED1
 62
    4
 10
2028.530645896581
 20
1262.834
 11
2114.7810458965809
 21
1262.834
  0
LINE
  8
_0-2_天板
  6
DASHED1
 62
    4
 10
2040.1326458965811
 20
1220
 11
2101.7438458965812
 21
1220
  0
LINE
  8
_0-2_天板
  6
DASHED1
 62
    4
 10
2001.009845896581
 20
1284.6152000000001
 11
2260.1678458965811
 21
1265.0283999999999
  0
ARC
  8
_0-2_天板
  6
DASHED1
 62
    4
 10
1913.9214458965809
 20
1299.4311999999999
 40
8
 50
65.922000000000011
 51
180.00000000000005
  0
LINE
  8
_0-2_天板
  6
DASHED1
 62
    4
 10
1905.989045896581
 20
1300.4696000000001
 11
1903.8790458965809
 21
1284.3507999999999
  0
ARC
  8
_0-2_天板
  6
DASHED1
 62
    4
 10
1935.129445896581
 20
1339
 40
30
 50
90.000000000000028
 51
178.72800000000006
  0
LINE
  8
_0-2_天板
  6
DASHED1
 62
    4
 10
1935.129445896581
 20
1369
 11
2265.9214458965811
 21
1369
  0
ARC
  8
_0-2_天板
  6
DASHED1
 62
    4
 10
2265.9214458965811
 20
1374
 40
5
 50
270.00000000000005
 51
0.0000000000000508
  0
LINE
  8
_0-2_天板
  6
CONTINUOUS
 62
    4
 10
2270.9214458965811
 20
1455
 11
2270.9214458965811
 21
1374
  0
LINE
  8
_0-2_天板
  6
DASHED1
 62
    4
 10
2270.9214458965811
 20
1275
 11
2270.9214458965811
 21
1374
  0
LINE
  8
_0-2_天板
  6
DASHED1
 62
    4
 10
1944.2291189272136
 20
1369
 11
1993.2470458965808
 21
1289.346
  0
LINE
  8
_0-3_キャビネット
  6
CONTINUOUS
 62
    5
 10
2255.9214458965811
 20
580
 11
2255.9214458965811
 21
1369
  0
LINE
  8
_0-3_キャビネット
  6
CONTINUOUS
 62
    5
 10
2252.9214458965811
 20
580
 11
2252.9214458965811
 21
1369
  0
LINE
  8
_0-8_
  6
CONTINUOUS
 62
    3
 10
2278.9213403222574
 20
1009.999999998083
 11
2285.3918164498199
 21
1034.1481456553096
  0
LINE
  8
_0-8_
  6
CONTINUOUS
 62
    3
 10
2278.9213403222574
 20
1009.999999998083
 11
2296.5990098519209
 21
1027.6776695277467
  0
LINE
  8
_0-8_
  6
CONTINUOUS
 62
    4
 10
2278.9213403222574
 20
1009.999999998083
 11
2308.4320745160084
 21
1061.1140909903201
  0
TEXT
  8
_0-8_
 62
    7
 10
2309.7409056460783
 20
1068.9337987277233
 40
35
 41
0.8571428571428568
 50
0
  1
給水給湯推奨位置
  0
TEXT
  8
_0-4_扉
 62
    7
 10
2321.1618984463812
 20
1021.1083913764539
 40
35
 41
0.8571428571428568
 50
0
  1
Ｒ１／２
  0
LINE
  8
_0-8_
  6
CONTINUOUS
 62
    4
 10
2308.4320745160084
 20
1061.1140909903201
 11
2565.7798144452262
 21
1061.1140909903201
  0
POINT
  8
_0-9_寸法線
 62
    3
 10
2495.8843106180665
 20
1010
  0
LINE
  8
_0-9_寸法線
  6
CENTER2
 62
    4
 10
2211.5343347639482
 20
1010
 11
2505.8843106180665
 21
1010
  0
POINT
  8
_0-9_寸法線
 62
    3
 10
2495.8843106180665
 20
580
  0
POINT
  8
_0-9_寸法線
 62
    3
 10
2495.8843106180665
 20
1010
  0
LINE
  8
_0-9_寸法線
  6
CONTINUOUS
 62
    4
 10
2495.8843106180665
 20
580
 11
2495.8843106180665
 21
1010
  0
TEXT
  8
_0-9_寸法線
 62
    7
 10
2490.8843106180665
 20
761.89999999999997
 40
35
 41
0.6285714285714286
 50
90
  1
４３０
  0
POINT
  8
_0-9_寸法線
 62
    3
 10
1129.762526035422
 20
673
  0
LINE
  8
_0-9_寸法線
  6
CONTINUOUS
 62
    4
 10
1139.762526035422
 20
673
 11
1071.762526035422
 21
673
  0
POINT
  8
_0-9_寸法線
 62
    3
 10
1129.762526035422
 20
1239.9999015222172
  0
LINE
  8
_0-9_寸法線
  6
CONTINUOUS
 62
    4
 10
1139.762526035422
 20
1239.9999015222172
 11
1071.762526035422
 21
1239.9999015222172
  0
POINT
  8
_0-9_寸法線
 62
    3
 10
1129.762526035422
 20
673
  0
POINT
  8
_0-9_寸法線
 62
    3
 10
1129.762526035422
 20
1239.9999015222172
  0
LINE
  8
_0-9_寸法線
  6
CONTINUOUS
 62
    4
 10
1129.762526035422
 20
673
 11
1129.762526035422
 21
1239.9999015222172
  0
TEXT
  8
_0-9_寸法線
 62
    7
 10
1124.762526035422
 20
923.39995076110858
 40
35
 41
0.6285714285714286
 50
90
  1
５６７
  0
LINE
  8
_0-9_寸法線
  6
CONTINUOUS
 62
    4
 10
1139.762526035422
 20
673
 11
991.76252603542206
 21
673
  0
LINE
  8
_0-9_寸法線
  6
CONTINUOUS
 62
    4
 10
1139.762526035422
 20
1239.9999015222172
 11
991.76252603542206
 21
1239.9999015222172
  0
LINE
  8
_0-3_キャビネット
  6
CONTINUOUS
 62
    5
 10
1962.4214458965809
 20
580
 11
1962.4214458965809
 21
670
  0
LINE
  8
_0-3_キャビネット
  6
CONTINUOUS
 62
    5
 10
2270.9214458965811
 20
580
 11
1962.4214458965809
 21
580
  0
LINE
  8
_0-3_キャビネット
  6
CONTINUOUS
 62
    5
 10
1930.9214458965811
 20
670
 11
1930.9214458965811
 21
1368.9999999999997
  0
LINE
  8
_0-3_キャビネット
  6
CONTINUOUS
 62
    5
 10
2252.9214458965811
 20
670
 11
1930.9214458965811
 21
670
  0
ENDSEC
  0
EOF
