  0
SECTION
  2
HEADER
  9
$ACADVER
  1
AC1009
  9
$INSBASE
 10
0
 20
0
 30
0
  9
$EXTMIN
 10
0
 20
0
  9
$EXTMAX
 10
594
 20
420
  9
$LIMMIN
 10
0
 20
0
  9
$LIMMAX
 10
594
 20
420
  9
$LTSCALE
 40
1
  0
ENDSEC
  0
SECTION
  2
TABLES
  0
TABLE
  2
LTYPE
 70
     9
  0
LTYPE
  2
CONTINUOUS
 70
    64
  3
実線
 72
    65
 73
     0
 40
0.0
  0
LTYPE
  2
DASHED1
 70
    64
  3
--  --  --  --  --  --  --  --  
 72
    65
 73
     2
 40
2.5
 49
1.25
 49
-1.25
  0
LTYPE
  2
DASHED2
 70
    64
  3
----    ----    ----    ----    
 72
    65
 73
     2
 40
5.0
 49
2.5
 49
-2.5
  0
LTYPE
  2
DASHED3
 70
    64
  3
------  ------  ------  ------  
 72
    65
 73
     2
 40
5.0
 49
3.75
 49
-1.25
  0
LTYPE
  2
CENTER1
 70
    64
  3
----- - ----- - ----- - ----- - 
 72
    65
 73
     4
 40
10.0
 49
6.25
 49
-1.25
 49
1.25
 49
-1.25
  0
LTYPE
  2
CENTER2
 70
    64
  3
----------  --  ----------  --  
 72
    65
 73
     4
 40
20.0
 49
12.5
 49
-2.5
 49
2.5
 49
-2.5
  0
LTYPE
  2
PHANTOM1
 70
    64
  3
--- - - --- - - --- - - --- - - 
 72
    65
 73
     6
 40
10.0
 49
3.25
 49
-1.25
 49
1.25
 49
-1.25
 49
1.25
 49
-1.25
  0
LTYPE
  2
PHANTOM2
 70
    64
  3
--------  -  -  --------  -  -  
 72
    65
 73
     6
 40
20.0
 49
10.0
 49
-2.5
 49
1.25
 49
-2.5
 49
1.25
 49
-2.5
  0
LTYPE
  2
DOT
 70
    64
  3
-   -   -   -   -   -   -   -   
 72
    65
 73
     2
 40
2.5
 49
0.625
 49
-1.875
  0
LTYPE
  2
DUMMY
 70
    64
  3
ダミー
 72
    65
 73
     0
 40
0.0
  0
LTYPE
  2
RAND1
 70
    64
  3
ランダム線1
 72
    65
 73
     4
 40
10.0
 49
1.0
 49
-2.0
 49
3.0
 49
-4.0
  0
LTYPE
  2
RAND2
 70
    64
  3
ランダム線2
 72
    65
 73
     4
 40
14.0
 49
2.0
 49
-3.0
 49
4.0
 49
-5.0
  0
LTYPE
  2
RAND3
 70
    64
  3
ランダム線3
 72
    65
 73
     4
 40
18.0
 49
3.0
 49
-4.0
 49
5.0
 49
-6.0
  0
LTYPE
  2
RAND4
 70
    64
  3
ランダム線4
 72
    65
 73
     4
 40
22.0
 49
4.0
 49
-5.0
 49
6.0
 49
-7.0
  0
LTYPE
  2
RAND5
 70
    64
  3
ランダム線5
 72
    65
 73
     4
 40
26.0
 49
5.0
 49
-6.0
 49
7.0
 49
-8.0
  0
LTYPE
  2
LONG1
 70
    64
  3
----------  --  ----------  --  
 72
    65
 73
     4
 40
40.0
 49
32.5
 49
-2.5
 49
2.5
 49
-2.5
  0
LTYPE
  2
LONG2
 70
    64
  3
--------  -  -  --------  -  -  
 72
    65
 73
     6
 40
40.0
 49
30.0
 49
-2.5
 49
1.25
 49
-2.5
 49
1.25
 49
-2.5
  0
LTYPE
  2
LONG3
 70
    64
  3
+++++++++++++++..+++++++++++++++
 72
    65
 73
     2
 40
40.0
 49
37.5
 49
-2.5
  0
LTYPE
  2
LONG4
 70
    64
  3
+++++++++++++++..+++++++++++++++
 72
    65
 73
     2
 40
80.0
 49
75.0
 49
-5.0
  0
LTYPE
  2
LONG5
 70
    64
  3
----------  --  ----------  --  
 72
    65
 73
     4
 40
60.0
 49
37.5
 49
-7.5
 49
7.5
 49
-7.5
  0
LTYPE
  2
dashed
 70
   64
  3
-------   -------------   ------
 72
   65
 73
    2
 40
7.5
 49
6
 49
-1.5
  0
LTYPE
  2
dashed_spaced
 70
   64
  3
----        --------        ----
 72
   65
 73
    2
 40
12
 49
6
 49
-6
  0
LTYPE
  2
long_dashed_dotted
 70
   64
  3
------------- --- --------------
 72
   65
 73
    4
 40
15.25
 49
12
 49
-1.5
 49
0.25
 49
-1.5
  0
LTYPE
  2
long_dashed_double-dotted
 70
   64
  3
----------- --- --- ------------
 72
   65
 73
    6
 40
17
 49
12
 49
-1.5
 49
0.25
 49
-1.5
 49
0.25
 49
-1.5
  0
LTYPE
  2
long_dashed_triplicate-dotted
 70
   64
  3
--------- --- --- --- ----------
 72
   65
 73
    8
 40
18.75
 49
12
 49
-1.5
 49
0.25
 49
-1.5
 49
0.25
 49
-1.5
 49
0.25
 49
-1.5
  0
LTYPE
  2
dotted
 70
   64
  3
   -       -       -       -    
 72
   65
 73
    2
 40
1.75
 49
0.25
 49
-1.5
  0
LTYPE
  2
chain
 70
   64
  3
-------------- -- --------------
 72
   65
 73
    4
 40
18.5
 49
12
 49
-1.5
 49
3.5
 49
-1.5
  0
LTYPE
  2
chain_double_dash
 70
   64
  3
------------ -- -- -------------
 72
   65
 73
    6
 40
23.5
 49
12
 49
-1.5
 49
3.5
 49
-1.5
 49
3.5
 49
-1.5
  0
LTYPE
  2
dashed_dotted
 70
   64
  3
-----------     -     ----------
 72
   65
 73
    4
 40
9.25
 49
6
 49
-1.5
 49
0.25
 49
-1.5
  0
LTYPE
  2
double-dashed_dotted
 70
   64
  3
------   -----------   -   -----
 72
   65
 73
    6
 40
16.75
 49
6
 49
-1.5
 49
6
 49
-1.5
 49
0.25
 49
-1.5
  0
LTYPE
  2
dashed_double-dotted
 70
   64
  3
---------    -    -    ---------
 72
   65
 73
    6
 40
11
 49
6
 49
-1.5
 49
0.25
 49
-1.5
 49
0.25
 49
-1.5
  0
LTYPE
  2
double-dashed_double-dotted
 70
   64
  3
-----   ---------   -   -   ----
 72
   65
 73
    8
 40
18.5
 49
6
 49
-1.5
 49
6
 49
-1.5
 49
0.25
 49
-1.5
 49
0.25
 49
-1.5
  0
LTYPE
  2
dashed_triplicate-dotted
 70
   64
  3
-------    -    -    -    ------
 72
   65
 73
    8
 40
12.75
 49
6
 49
-1.5
 49
0.25
 49
-1.5
 49
0.25
 49
-1.5
 49
0.25
 49
-1.5
  0
LTYPE
  2
double-dashed_triplicate-dotted
 70
   64
  3
-----  ---------  -  -  -  -----
 72
   65
 73
   10
 40
20.25
 49
6
 49
-1.5
 49
6
 49
-1.5
 49
0.25
 49
-1.5
 49
0.25
 49
-1.5
 49
0.25
 49
-1.5
  0
LTYPE
  2
undefined
 70
   64
  3
--------------------------------
 72
   65
 73
    0
 40
0
  0
LTYPE
  2
DASHED
 70
   64
  3
------     -----------     -----
 72
   65
 73
    2
 40
19.049999999999997
 49
12.699999999999999
 49
-6.3499999999999996
  0
LTYPE
  2
CENTER
 70
   64
  3
----------    ----    ----------
 72
   65
 73
    4
 40
50.800000000000004
 49
31.75
 49
-6.3499999999999996
 49
6.3499999999999996
 49
-6.3499999999999996
  0
LTYPE
  2
HIDDEN
 70
   64
  3
------     -----------     -----
 72
   65
 73
    2
 40
9.5249999999999985
 49
6.3499999999999996
 49
-3.1749999999999998
  0
LTYPE
  2
PHANTOM
 70
   64
  3
---------   ---   ---   --------
 72
   65
 73
    6
 40
63.500000000000007
 49
31.75
 49
-6.3499999999999996
 49
6.3499999999999996
 49
-6.3499999999999996
 49
6.3499999999999996
 49
-6.3499999999999996
  0
LTYPE
  2
_
 70
   64
  3
                                
 72
   65
 73
    0
 40
0
  0
LTYPE
  2
__22
 70
   64
  3
                                
 72
   65
 73
    0
 40
0
  0
LTYPE
  2
__23
 70
   64
  3
                                
 72
   65
 73
    0
 40
0
  0
LTYPE
  2
__24
 70
   64
  3
                                
 72
   65
 73
    0
 40
0
  0
LTYPE
  2
__25
 70
   64
  3
                                
 72
   65
 73
    0
 40
0
  0
LTYPE
  2
__26
 70
   64
  3
                                
 72
   65
 73
    0
 40
0
  0
LTYPE
  2
__27
 70
   64
  3
                                
 72
   65
 73
    0
 40
0
  0
LTYPE
  2
__28
 70
   64
  3
                                
 72
   65
 73
    0
 40
0
  0
LTYPE
  2
__29
 70
   64
  3
                                
 72
   65
 73
    0
 40
0
  0
LTYPE
  2
__30
 70
   64
  3
                                
 72
   65
 73
    0
 40
0
  0
LTYPE
  2
__31
 70
   64
  3
                                
 72
   65
 73
    0
 40
0
  0
LTYPE
  2
__32
 70
   64
  3
                                
 72
   65
 73
    0
 40
0
  0
ENDTAB
  0
TABLE
  2
STYLE
  5
3
100
AcDbSymbolTable
 70
     1
  0
STYLE
  5
10
100
AcDbSymbolTableRecord
100
AcDbTextStyleTableRecord
  2
STANDARD
 70
     0
 40
0.0
 41
1.0
 50
0.0
 71
     0
 42
0.2
  3
txt
  4
bigfont.shx
  0
STYLE
  5
26
100
AcDbSymbolTableRecord
100
AcDbTextStyleTableRecord
  2
TATEGAKI
 70
    68
 40
0.0
 41
1.0
 50
0.0
 71
     0
 42
1.0
  3
txt
  4
bigfont.shx
  0
ENDTAB
  0
TABLE
  2
LAYER
 70
    5
  0
LAYER
  2
_0-1_DEFPOINTS
 70
   64
 62
    7
  6
CONTINUOUS
  0
LAYER
  2
_0-2_PV
 70
   64
 62
    7
  6
CONTINUOUS
  0
LAYER
  2
_0-3_A1
 70
   64
 62
    7
  6
CONTINUOUS
  0
LAYER
  2
_0-4_A2
 70
   64
 62
    7
  6
CONTINUOUS
  0
LAYER
  2
ADD_LINE
 70
   64
 62
    7
  6
CONTINUOUS
  0
ENDTAB
  0
ENDSEC
  0
SECTION
  2
BLOCKS
  0
BLOCK
  2
-000-_DOTSMALL
 70
   64
 10
0
 20
0
 30
0
  0
CIRCLE
  8
_0-0_0
  6
CONTINUOUS
 62
    7
 10
0
 20
0
 40
0.0625
  0
LINE
  8
_0-0_0
  6
CONTINUOUS
 62
    7
 10
0.0625
 20
0
 11
-0.0625
 21
0
  0
ENDBLK
  0
ENDSEC
  0
SECTION
  2
ENTITIES
  0
TEXT
  8
_0-4_A2
 62
    7
 10
334.47223500000001
 20
246.9968433125
 40
5
 41
1
 50
90
  1
247
  0
LINE
  8
_0-2_PV
  6
CONTINUOUS
 62
    7
 10
-0.0000000000000568
 20
0
 11
594
 21
0
  0
LINE
  8
_0-2_PV
  6
CONTINUOUS
 62
    7
 10
594
 20
420
 11
594
 21
0
  0
LINE
  8
_0-3_A1
  6
CONTINUOUS
 62
    7
 10
35.414500999999972
 20
405.85857600000008
 11
579.85858600000005
 21
405.85857600000008
  0
LINE
  8
_0-3_A1
  6
CONTINUOUS
 62
    7
 10
178.950196
 20
43.414071000000006
 11
178.950196
 21
15.131243999999981
  0
LINE
  8
_0-3_A1
  6
CONTINUOUS
 62
    7
 10
475.919195
 20
43.414071000000006
 11
475.919195
 21
15.131243999999981
  0
LINE
  8
_0-3_A1
  6
CONTINUOUS
 62
    7
 10
391.77778299999999
 20
43.414071000000006
 11
391.77778299999999
 21
15.131243999999981
  0
LINE
  8
_0-3_A1
  6
CONTINUOUS
 62
    7
 10
243.29293799999999
 20
43.414071000000006
 11
243.29293799999999
 21
15.131243999999981
  0
LINE
  8
_0-3_A1
  6
CONTINUOUS
 62
    7
 10
35.414500999999972
 20
14.141413999999969
 11
579.85858600000005
 21
14.141413999999969
  0
LINE
  8
_0-3_A1
  6
CONTINUOUS
 62
    7
 10
35.414500999999972
 20
15.131243999999981
 11
579.85858600000005
 21
15.131243999999981
  0
LINE
  8
_0-3_A1
  6
CONTINUOUS
 62
    7
 10
35.414500999999972
 20
14.636155999999971
 11
579.85858600000005
 21
14.636155999999971
  0
LINE
  8
_0-3_A1
  6
CONTINUOUS
 62
    7
 10
35.414500999999972
 20
43.414071000000006
 11
579.85858600000005
 21
43.414071000000006
  0
LINE
  8
_0-3_A1
  6
CONTINUOUS
 62
    7
 10
35.414500999999972
 20
44.403900999999962
 11
579.85858600000005
 21
44.403900999999962
  0
LINE
  8
_0-3_A1
  6
CONTINUOUS
 62
    7
 10
35.414500999999972
 20
43.908814000000006
 11
579.85858600000005
 21
43.908814000000006
  0
LINE
  8
_0-3_A1
  6
CONTINUOUS
 62
    7
 10
475.42410699999999
 20
43.414071000000006
 11
475.42410699999999
 21
15.131243999999981
  0
LINE
  8
_0-3_A1
  6
CONTINUOUS
 62
    7
 10
474.92902000000003
 20
43.414071000000006
 11
474.92902000000003
 21
15.131243999999981
  0
LINE
  8
_0-3_A1
  6
CONTINUOUS
 62
    7
 10
391.28269499999998
 20
43.414071000000006
 11
391.28269499999998
 21
15.131243999999981
  0
LINE
  8
_0-3_A1
  6
CONTINUOUS
 62
    7
 10
390.78760799999997
 20
43.414071000000006
 11
390.78760799999997
 21
15.131243999999981
  0
LINE
  8
_0-3_A1
  6
CONTINUOUS
 62
    7
 10
242.79784999999998
 20
43.414071000000006
 11
242.79784999999998
 21
15.131243999999981
  0
LINE
  8
_0-3_A1
  6
CONTINUOUS
 62
    7
 10
242.30276300000002
 20
43.414071000000006
 11
242.30276300000002
 21
15.131243999999981
  0
LINE
  8
_0-3_A1
  6
CONTINUOUS
 62
    7
 10
178.45510799999999
 20
43.414071000000006
 11
178.45510799999999
 21
15.131243999999981
  0
LINE
  8
_0-3_A1
  6
CONTINUOUS
 62
    7
 10
177.96002099999998
 20
43.414071000000006
 11
177.96002099999998
 21
15.131243999999981
  0
LINE
  8
_0-3_A1
  6
CONTINUOUS
 62
    7
 10
35.414500999999972
 20
405.85857600000008
 11
35.414500999999972
 21
14.141413999999969
  0
LINE
  8
_0-1_DEFPOINTS
  6
CONTINUOUS
 62
    7
 10
594
 20
419.99999000000002
 11
594
 21
0
  0
LINE
  8
_0-3_A1
  6
CONTINUOUS
 62
    7
 10
579.85858600000005
 20
405.85857600000008
 11
579.85858600000005
 21
14.141413999999969
  0
ARC
  8
_0-4_A2
  6
CONTINUOUS
 62
    7
 10
424.052254
 20
282.28432400000002
 40
2
 50
168.78772900000001
 51
191.21227099999998
  0
ARC
  8
_0-4_A2
  6
CONTINUOUS
 62
    7
 10
422.45225400000003
 20
281.52432399999997
 40
0.04
 50
180
 51
270
  0
ARC
  8
_0-4_A2
  6
CONTINUOUS
 62
    7
 10
422.492254
 20
281.52432399999997
 40
0.04
 50
270
 51
0
  0
LINE
  8
_0-4_A2
  6
CONTINUOUS
 62
    7
 10
422.28660899999999
 20
281.73432400000001
 11
422.41225400000001
 21
281.73432400000001
  0
LINE
  8
_0-4_A2
  6
CONTINUOUS
 62
    7
 10
422.45225400000003
 20
281.48432400000001
 11
422.492254
 21
281.48432400000001
  0
LINE
  8
_0-4_A2
  6
CONTINUOUS
 62
    7
 10
422.53225400000002
 20
281.48432400000001
 11
422.73225400000001
 21
281.48432400000001
  0
ARC
  8
_0-4_A2
  6
CONTINUOUS
 62
    7
 10
422.28660899999999
 20
281.934324
 40
0.2
 50
191.21227099999998
 51
270
  0
ARC
  8
_0-4_A2
  6
CONTINUOUS
 62
    7
 10
422.45225400000003
 20
283.04432400000001
 40
0.04
 50
90
 51
180
  0
ARC
  8
_0-4_A2
  6
CONTINUOUS
 62
    7
 10
422.492254
 20
283.04432400000001
 40
0.04
 50
0
 51
90
  0
LINE
  8
_0-4_A2
  6
CONTINUOUS
 62
    7
 10
422.28660899999999
 20
282.83432399999998
 11
422.41225400000001
 21
282.83432399999998
  0
LINE
  8
_0-4_A2
  6
CONTINUOUS
 62
    7
 10
422.45225400000003
 20
283.08432399999998
 11
422.492254
 21
283.08432399999998
  0
LINE
  8
_0-4_A2
  6
CONTINUOUS
 62
    7
 10
422.53225400000002
 20
283.08432399999998
 11
422.73225400000001
 21
283.08432399999998
  0
LINE
  8
_0-4_A2
  6
CONTINUOUS
 62
    7
 10
422.73225400000001
 20
281.48432400000001
 11
422.73225400000001
 21
283.08432399999998
  0
LINE
  8
_0-4_A2
  6
CONTINUOUS
 62
    7
 10
422.41225400000001
 20
281.52432399999997
 11
422.41225400000001
 21
283.04432400000001
  0
LINE
  8
_0-4_A2
  6
CONTINUOUS
 62
    7
 10
422.53225400000002
 20
281.48432400000001
 11
422.53225400000002
 21
283.08432399999998
  0
ARC
  8
_0-4_A2
  6
CONTINUOUS
 62
    7
 10
422.28660899999999
 20
282.63432399999999
 40
0.2
 50
90
 51
168.78772900000001
  0
ARC
  8
_0-4_A2
  6
CONTINUOUS
 62
    7
 10
424.052254
 20
288.684324
 40
2
 50
168.78772900000001
 51
191.21227099999998
  0
ARC
  8
_0-4_A2
  6
CONTINUOUS
 62
    7
 10
422.45225400000003
 20
287.92432400000001
 40
0.04
 50
180
 51
270
  0
ARC
  8
_0-4_A2
  6
CONTINUOUS
 62
    7
 10
422.492254
 20
287.92432400000001
 40
0.04
 50
270
 51
0
  0
LINE
  8
_0-4_A2
  6
CONTINUOUS
 62
    7
 10
422.28660899999999
 20
288.13432399999999
 11
422.41225400000001
 21
288.13432399999999
  0
LINE
  8
_0-4_A2
  6
CONTINUOUS
 62
    7
 10
422.45225400000003
 20
287.88432399999999
 11
422.492254
 21
287.88432399999999
  0
LINE
  8
_0-4_A2
  6
CONTINUOUS
 62
    7
 10
422.53225400000002
 20
287.88432399999999
 11
422.73225400000001
 21
287.88432399999999
  0
ARC
  8
_0-4_A2
  6
CONTINUOUS
 62
    7
 10
422.28660899999999
 20
288.33432399999998
 40
0.2
 50
191.21227099999998
 51
270
  0
ARC
  8
_0-4_A2
  6
CONTINUOUS
 62
    7
 10
422.45225400000003
 20
289.44432399999999
 40
0.04
 50
90
 51
180
  0
ARC
  8
_0-4_A2
  6
CONTINUOUS
 62
    7
 10
422.492254
 20
289.44432399999999
 40
0.04
 50
0
 51
90
  0
LINE
  8
_0-4_A2
  6
CONTINUOUS
 62
    7
 10
422.28660899999999
 20
289.23432400000001
 11
422.41225400000001
 21
289.23432400000001
  0
LINE
  8
_0-4_A2
  6
CONTINUOUS
 62
    7
 10
422.45225400000003
 20
289.48432400000001
 11
422.492254
 21
289.48432400000001
  0
LINE
  8
_0-4_A2
  6
CONTINUOUS
 62
    7
 10
422.53225400000002
 20
289.48432400000001
 11
422.73225400000001
 21
289.48432400000001
  0
LINE
  8
_0-4_A2
  6
CONTINUOUS
 62
    7
 10
422.73225400000001
 20
287.88432399999999
 11
422.73225400000001
 21
289.48432400000001
  0
LINE
  8
_0-4_A2
  6
CONTINUOUS
 62
    7
 10
422.41225400000001
 20
287.92432400000001
 11
422.41225400000001
 21
289.44432399999999
  0
LINE
  8
_0-4_A2
  6
CONTINUOUS
 62
    7
 10
422.53225400000002
 20
287.88432399999999
 11
422.53225400000002
 21
289.48432400000001
  0
ARC
  8
_0-4_A2
  6
CONTINUOUS
 62
    7
 10
422.28660899999999
 20
289.03432400000002
 40
0.2
 50
90
 51
168.78772900000001
  0
ARC
  8
_0-4_A2
  6
CONTINUOUS
 62
    7
 10
425.53225299999996
 20
290.28432400000002
 40
0.1
 50
90
 51
180
  0
ARC
  8
_0-4_A2
  6
CONTINUOUS
 62
    7
 10
425.53225399999996
 20
290.28432400000002
 40
0.2
 50
90
 51
180
  0
ARC
  8
_0-4_A2
  6
CONTINUOUS
 62
    7
 10
425.53225399999996
 20
280.684324
 40
0.2
 50
180
 51
270
  0
ARC
  8
_0-4_A2
  6
CONTINUOUS
 62
    7
 10
425.53225299999996
 20
280.684324
 40
0.1
 50
180
 51
270
  0
LINE
  8
_0-4_A2
  6
CONTINUOUS
 62
    7
 10
425.82661900000005
 20
286.48432400000001
 11
425.68370300000003
 21
286.48432400000001
  0
LINE
  8
_0-4_A2
  6
CONTINUOUS
 62
    7
 10
425.43225400000005
 20
286.67291099999999
 11
425.68370300000003
 21
286.48432400000001
  0
LINE
  8
_0-4_A2
  6
CONTINUOUS
 62
    7
 10
425.68370300000003
 20
286.48432400000001
 11
425.43225400000005
 21
286.29573699999997
  0
LINE
  8
_0-4_A2
  6
CONTINUOUS
 62
    7
 10
425.68370300000003
 20
286.48432400000001
 11
425.43225400000005
 21
286.48432400000001
  0
LINE
  8
_0-4_A2
  6
CONTINUOUS
 62
    7
 10
425.82661900000005
 20
286.48432400000001
 11
425.43225400000005
 21
286.780098
  0
LINE
  8
_0-4_A2
  6
CONTINUOUS
 62
    7
 10
425.43225400000005
 20
286.18855000000002
 11
425.82661900000005
 21
286.48432400000001
  0
LINE
  8
_0-4_A2
  6
CONTINUOUS
 62
    7
 10
425.82661900000005
 20
284.48432400000001
 11
425.68370300000003
 21
284.48432400000001
  0
LINE
  8
_0-4_A2
  6
CONTINUOUS
 62
    7
 10
425.68370300000003
 20
284.48432400000001
 11
425.43225400000005
 21
284.29573699999997
  0
LINE
  8
_0-4_A2
  6
CONTINUOUS
 62
    7
 10
425.43225400000005
 20
284.67291099999999
 11
425.68370300000003
 21
284.48432400000001
  0
LINE
  8
_0-4_A2
  6
CONTINUOUS
 62
    7
 10
425.68370300000003
 20
284.48432400000001
 11
425.43225400000005
 21
284.48432400000001
  0
LINE
  8
_0-4_A2
  6
CONTINUOUS
 62
    7
 10
425.43225400000005
 20
284.18855000000002
 11
425.82661900000005
 21
284.48432400000001
  0
LINE
  8
_0-4_A2
  6
CONTINUOUS
 62
    7
 10
425.82661900000005
 20
284.48432400000001
 11
425.43225400000005
 21
284.780098
  0
CIRCLE
  8
_0-4_A2
  6
CONTINUOUS
 62
    7
 10
425.432253
 20
282.28432400000002
 40
0.02
  0
LINE
  8
_0-4_A2
  6
CONTINUOUS
 62
    7
 10
425.33225400000003
 20
290.28432400000002
 11
425.33225400000003
 21
285.48432400000001
  0
LINE
  8
_0-4_A2
  6
CONTINUOUS
 62
    7
 10
425.432253
 20
290.28432400000002
 11
425.432253
 21
285.48432400000001
  0
LINE
  8
_0-4_A2
  6
CONTINUOUS
 62
    7
 10
425.432253
 20
285.934324
 11
425.53225299999996
 21
285.934324
  0
LINE
  8
_0-4_A2
  6
CONTINUOUS
 62
    7
 10
425.53225299999996
 20
285.03432400000002
 11
425.432253
 21
285.03432400000002
  0
LINE
  8
_0-4_A2
  6
CONTINUOUS
 62
    7
 10
429.30656799999997
 20
290.48432400000001
 11
429.30656799999997
 21
290.38432399999999
  0
LINE
  8
_0-4_A2
  6
CONTINUOUS
 62
    7
 10
425.33225400000003
 20
280.684324
 11
425.33225400000003
 21
285.48432400000001
  0
LINE
  8
_0-4_A2
  6
CONTINUOUS
 62
    7
 10
429.30656799999997
 20
280.58432399999998
 11
429.30656799999997
 21
280.48432400000001
  0
LINE
  8
_0-4_A2
  6
CONTINUOUS
 62
    7
 10
425.432253
 20
280.684324
 11
425.432253
 21
285.48432400000001
  0
LINE
  8
_0-4_A2
  6
CONTINUOUS
 62
    7
 10
429.30656799999997
 20
280.58432399999998
 11
425.53225299999996
 21
280.58432399999998
  0
LINE
  8
_0-4_A2
  6
CONTINUOUS
 62
    7
 10
425.53225299999996
 20
290.38432399999999
 11
429.30656799999997
 21
290.38432399999999
  0
LINE
  8
_0-4_A2
  6
CONTINUOUS
 62
    7
 10
429.30656799999997
 20
280.48432400000001
 11
425.53225399999996
 21
280.48432400000001
  0
LINE
  8
_0-4_A2
  6
CONTINUOUS
 62
    7
 10
425.53225399999996
 20
290.48432400000001
 11
429.30656799999997
 21
290.48432400000001
  0
LINE
  8
_0-4_A2
  6
CONTINUOUS
 62
    7
 10
429.58941100000004
 20
280.48432400000001
 11
429.58941100000004
 21
280.58432399999998
  0
LINE
  8
_0-4_A2
  6
CONTINUOUS
 62
    7
 10
429.58941100000004
 20
280.58432399999998
 11
429.30656799999997
 21
280.58432399999998
  0
LINE
  8
_0-4_A2
  6
CONTINUOUS
 62
    7
 10
429.30656799999997
 20
280.48432400000001
 11
429.58941100000004
 21
280.48432400000001
  0
LINE
  8
_0-4_A2
  6
CONTINUOUS
 62
    7
 10
429.58941100000004
 20
290.38432399999999
 11
429.58941100000004
 21
290.48432400000001
  0
LINE
  8
_0-4_A2
  6
CONTINUOUS
 62
    7
 10
429.30656799999997
 20
290.38432399999999
 11
429.58941100000004
 21
290.38432399999999
  0
LINE
  8
_0-4_A2
  6
CONTINUOUS
 62
    7
 10
429.58941100000004
 20
290.48432400000001
 11
429.30656799999997
 21
290.48432400000001
  0
LINE
  8
_0-4_A2
  6
DASHED
 62
    7
 10
432.355096
 20
280.58432399999998
 11
432.355096
 21
280.48432400000001
  0
LINE
  8
_0-4_A2
  6
DASHED
 62
    7
 10
432.355096
 20
280.58432399999998
 11
431.47225300000002
 21
280.58432399999998
  0
LINE
  8
_0-4_A2
  6
CONTINUOUS
 62
    7
 10
429.58941100000004
 20
280.48432400000001
 11
431.47225300000002
 21
280.48432400000001
  0
LINE
  8
_0-4_A2
  6
DASHED
 62
    7
 10
432.355096
 20
290.48432400000001
 11
432.355096
 21
290.38432399999999
  0
LINE
  8
_0-4_A2
  6
CONTINUOUS
 62
    7
 10
429.58941100000004
 20
290.38432399999999
 11
431.47225300000002
 21
290.38432399999999
  0
LINE
  8
_0-4_A2
  6
DASHED
 62
    7
 10
432.355096
 20
290.48432400000001
 11
431.47225300000002
 21
290.48432400000001
  0
LINE
  8
_0-4_A2
  6
CONTINUOUS
 62
    7
 10
425.53225299999996
 20
285.48432400000001
 11
425.53225299999996
 21
285.934324
  0
LINE
  8
_0-4_A2
  6
CONTINUOUS
 62
    7
 10
425.53225299999996
 20
285.03432400000002
 11
425.53225299999996
 21
285.48432400000001
  0
LINE
  8
_0-4_A2
  6
DASHED
 62
    7
 10
432.47225300000002
 20
280.48432400000001
 11
432.47225300000002
 21
280.58432399999998
  0
LINE
  8
_0-4_A2
  6
DASHED
 62
    7
 10
432.47225300000002
 20
280.58432399999998
 11
432.355096
 21
280.58432399999998
  0
LINE
  8
_0-4_A2
  6
DASHED
 62
    7
 10
432.355096
 20
280.48432400000001
 11
432.47225300000002
 21
280.48432400000001
  0
LINE
  8
_0-4_A2
  6
DASHED
 62
    7
 10
432.47225300000002
 20
290.38432399999999
 11
432.47225300000002
 21
290.48432400000001
  0
LINE
  8
_0-4_A2
  6
DASHED
 62
    7
 10
432.355096
 20
290.38432399999999
 11
432.47225300000002
 21
290.38432399999999
  0
LINE
  8
_0-4_A2
  6
DASHED
 62
    7
 10
432.47225300000002
 20
290.48432400000001
 11
432.355096
 21
290.48432400000001
  0
LINE
  8
_0-4_A2
  6
CONTINUOUS
 62
    7
 10
425.432253
 20
282.04290300000002
 11
425.432253
 21
282.184324
  0
LINE
  8
_0-4_A2
  6
CONTINUOUS
 62
    7
 10
425.73515300000002
 20
286.55292400000001
 11
425.432253
 21
286.55292400000001
  0
LINE
  8
_0-4_A2
  6
CONTINUOUS
 62
    7
 10
425.432253
 20
286.415725
 11
425.73515300000002
 21
286.415725
  0
LINE
  8
_0-4_A2
  6
CONTINUOUS
 62
    7
 10
425.73515215108551
 20
286.41572454471497
 11
425.73515215108551
 21
286.41572454471497
  0
LINE
  8
_0-4_A2
  6
CONTINUOUS
 62
    7
 10
425.73515215108551
 20
286.41572454471497
 11
425.7504352294901
 21
286.42940148928477
  0
LINE
  8
_0-4_A2
  6
CONTINUOUS
 62
    7
 10
425.7504352294901
 20
286.42940148928477
 11
425.76212740065477
 21
286.44474722655053
  0
LINE
  8
_0-4_A2
  6
CONTINUOUS
 62
    7
 10
425.76212740065477
 20
286.44474722655053
 11
425.76987340387518
 21
286.4612954840507
  0
LINE
  8
_0-4_A2
  6
CONTINUOUS
 62
    7
 10
425.76987340387518
 20
286.4612954840507
 11
425.77343788076308
 21
286.47854345135505
  0
LINE
  8
_0-4_A2
  6
CONTINUOUS
 62
    7
 10
425.77343788076308
 20
286.47854345135505
 11
425.772712526492
 21
286.49596705770483
  0
LINE
  8
_0-4_A2
  6
CONTINUOUS
 62
    7
 10
425.772712526492
 20
286.49596705770483
 11
425.76771938058442
 21
286.51303689563792
  0
LINE
  8
_0-4_A2
  6
CONTINUOUS
 62
    7
 10
425.76771938058442
 20
286.51303689563792
 11
425.75861015725206
 21
286.52923430676651
  0
LINE
  8
_0-4_A2
  6
CONTINUOUS
 62
    7
 10
425.75861015725206
 20
286.52923430676651
 11
425.74566163563645
 21
286.54406714094972
  0
LINE
  8
_0-4_A2
  6
CONTINUOUS
 62
    7
 10
425.74566163563645
 20
286.54406714094972
 11
425.73515215108545
 21
286.55292345528505
  0
LINE
  8
_0-4_A2
  6
CONTINUOUS
 62
    7
 10
425.73515300000002
 20
284.55292400000001
 11
425.432253
 21
284.55292400000001
  0
LINE
  8
_0-4_A2
  6
CONTINUOUS
 62
    7
 10
425.432253
 20
284.415725
 11
425.73515300000002
 21
284.415725
  0
LINE
  8
_0-4_A2
  6
CONTINUOUS
 62
    7
 10
425.73515215108551
 20
284.41572454471497
 11
425.73515215108551
 21
284.41572454471497
  0
LINE
  8
_0-4_A2
  6
CONTINUOUS
 62
    7
 10
425.73515215108551
 20
284.41572454471497
 11
425.7504352294901
 21
284.42940148928477
  0
LINE
  8
_0-4_A2
  6
CONTINUOUS
 62
    7
 10
425.7504352294901
 20
284.42940148928477
 11
425.76212740065477
 21
284.44474722655053
  0
LINE
  8
_0-4_A2
  6
CONTINUOUS
 62
    7
 10
425.76212740065477
 20
284.44474722655053
 11
425.76987340387518
 21
284.4612954840507
  0
LINE
  8
_0-4_A2
  6
CONTINUOUS
 62
    7
 10
425.76987340387518
 20
284.4612954840507
 11
425.77343788076308
 21
284.47854345135505
  0
LINE
  8
_0-4_A2
  6
CONTINUOUS
 62
    7
 10
425.77343788076308
 20
284.47854345135505
 11
425.772712526492
 21
284.49596705770483
  0
LINE
  8
_0-4_A2
  6
CONTINUOUS
 62
    7
 10
425.772712526492
 20
284.49596705770483
 11
425.76771938058442
 21
284.51303689563792
  0
LINE
  8
_0-4_A2
  6
CONTINUOUS
 62
    7
 10
425.76771938058442
 20
284.51303689563792
 11
425.75861015725206
 21
284.52923430676651
  0
LINE
  8
_0-4_A2
  6
CONTINUOUS
 62
    7
 10
425.75861015725206
 20
284.52923430676651
 11
425.74566163563645
 21
284.54406714094972
  0
LINE
  8
_0-4_A2
  6
CONTINUOUS
 62
    7
 10
425.74566163563645
 20
284.54406714094972
 11
425.73515215108551
 21
284.55292345528505
  0
LINE
  8
_0-4_A2
  6
CONTINUOUS
 62
    7
 10
425.73515300000002
 20
286.55292400000001
 11
425.432253
 21
286.780098
  0
LINE
  8
_0-4_A2
  6
CONTINUOUS
 62
    7
 10
425.73515300000002
 20
284.415725
 11
425.432253
 21
284.18855000000002
  0
LINE
  8
_0-4_A2
  6
CONTINUOUS
 62
    7
 10
425.432253
 20
284.780098
 11
425.73515300000002
 21
284.55292400000001
  0
LINE
  8
_0-4_A2
  6
CONTINUOUS
 62
    7
 10
425.432253
 20
286.18855000000002
 11
425.73515300000002
 21
286.415725
  0
LINE
  8
_0-4_A2
  6
CONTINUOUS
 62
    7
 10
425.432253
 20
283.48432400000001
 11
431.47225300000002
 21
283.48432400000001
  0
LINE
  8
_0-4_A2
  6
CONTINUOUS
 62
    7
 10
425.432253
 20
287.48432400000001
 11
431.47225300000002
 21
287.48432400000001
  0
LINE
  8
_0-4_A2
  6
DASHED
 62
    7
 10
432.47225300000002
 20
283.48432400000001
 11
432.47225300000002
 21
287.48432400000001
  0
LINE
  8
_0-4_A2
  6
DASHED
 62
    7
 10
432.47225300000002
 20
287.48432400000001
 11
432.07225300000004
 21
287.48432400000001
  0
LINE
  8
_0-4_A2
  6
DASHED
 62
    7
 10
432.07225300000004
 20
283.48432400000001
 11
432.47225300000002
 21
283.48432400000001
  0
CIRCLE
  8
_0-4_A2
  6
CONTINUOUS
 62
    7
 10
423.932253
 20
287.88432399999999
 40
0.02
  0
CIRCLE
  8
_0-4_A2
  6
CONTINUOUS
 62
    7
 10
423.932253
 20
283.08432399999998
 40
0.02
  0
LINE
  8
_0-4_A2
  6
CONTINUOUS
 62
    7
 10
425.33225400000003
 20
280.88432399999999
 11
425.33225400000003
 21
280.98432400000001
  0
LINE
  8
_0-4_A2
  6
CENTER
 62
    7
 10
424.932253
 20
288.684324
 11
421.84211700000003
 21
288.684324
  0
LINE
  8
_0-4_A2
  6
CONTINUOUS
 62
    7
 10
423.932253
 20
285.48432400000001
 11
423.932253
 21
282.58569499999998
  0
LINE
  8
_0-4_A2
  6
CONTINUOUS
 62
    7
 10
423.932253
 20
288.75350500000001
 11
423.932253
 21
288.38295299999998
  0
LINE
  8
_0-4_A2
  6
CONTINUOUS
 62
    7
 10
423.932253
 20
282.58569499999998
 11
423.932253
 21
282.21514300000001
  0
LINE
  8
_0-4_A2
  6
CONTINUOUS
 62
    7
 10
424.932254
 20
280.98432400000001
 11
424.932254
 21
280.88432399999999
  0
ARC
  8
_0-4_A2
  6
CONTINUOUS
 62
    7
 10
424.13225299999999
 20
289.88432399999999
 40
0.2
 50
90
 51
180
  0
ARC
  8
_0-4_A2
  6
CONTINUOUS
 62
    7
 10
424.13225299999999
 20
289.88432399999999
 40
0.1
 50
90
 51
180
  0
LINE
  8
_0-4_A2
  6
CONTINUOUS
 62
    7
 10
423.932253
 20
289.88432399999999
 11
423.932253
 21
285.48432400000001
  0
ARC
  8
_0-4_A2
  6
CONTINUOUS
 62
    7
 10
424.13225299999999
 20
281.08432399999998
 40
0.2
 50
180
 51
270
  0
ARC
  8
_0-4_A2
  6
CONTINUOUS
 62
    7
 10
424.13225299999999
 20
281.08432399999998
 40
0.1
 50
180
 51
270
  0
LINE
  8
_0-4_A2
  6
CONTINUOUS
 62
    7
 10
424.13225399999998
 20
280.98432400000001
 11
425.33225400000003
 21
280.98432400000001
  0
LINE
  8
_0-4_A2
  6
CONTINUOUS
 62
    7
 10
424.13225399999998
 20
280.88432399999999
 11
425.33225400000003
 21
280.88432399999999
  0
LINE
  8
_0-4_A2
  6
CONTINUOUS
 62
    7
 10
423.932253
 20
282.21514300000001
 11
423.932253
 21
281.08432399999998
  0
LINE
  8
_0-4_A2
  6
DASHED
 62
    7
 10
424.13225399999998
 20
282.63432399999999
 11
424.03225299999996
 21
282.63432399999999
  0
LINE
  8
_0-4_A2
  6
CENTER
 62
    7
 10
425.03225300000002
 20
282.28432400000002
 11
421.84211700000003
 21
282.28432400000002
  0
ARC
  8
_0-4_A2
  6
CONTINUOUS
 62
    7
 10
423.932253
 20
283.22432400000002
 40
0.2
 50
90
 51
180
  0
ARC
  8
_0-4_A2
  6
CONTINUOUS
 62
    7
 10
423.932253
 20
283.10432400000001
 40
0.2
 50
180
 51
270
  0
LINE
  8
_0-4_A2
  6
CONTINUOUS
 62
    7
 10
423.73225300000001
 20
283.22432400000002
 11
423.73225300000001
 21
283.10432400000001
  0
ARC
  8
_0-4_A2
  6
CONTINUOUS
 62
    7
 10
423.932253
 20
287.744324
 40
0.2
 50
180
 51
270
  0
ARC
  8
_0-4_A2
  6
CONTINUOUS
 62
    7
 10
423.932253
 20
287.86432400000001
 40
0.2
 50
90
 51
180
  0
LINE
  8
_0-4_A2
  6
CONTINUOUS
 62
    7
 10
423.73225300000001
 20
287.86432400000001
 11
423.73225300000001
 21
287.744324
  0
LINE
  8
_0-4_A2
  6
CONTINUOUS
 62
    7
 10
425.33225300000003
 20
285.48432400000001
 11
425.33225300000003
 21
281.08432399999998
  0
LINE
  8
_0-4_A2
  6
CONTINUOUS
 62
    7
 10
425.23225300000001
 20
289.88432399999999
 11
425.23225300000001
 21
281.08432399999998
  0
LINE
  8
_0-4_A2
  6
CONTINUOUS
 62
    7
 10
425.33225300000003
 20
285.48432400000001
 11
425.33225300000003
 21
289.88432399999999
  0
LINE
  8
_0-4_A2
  6
CONTINUOUS
 62
    7
 10
424.13225399999998
 20
290.08432399999998
 11
425.33225400000003
 21
290.08432399999998
  0
LINE
  8
_0-4_A2
  6
CONTINUOUS
 62
    7
 10
424.932254
 20
289.98432400000001
 11
424.932254
 21
290.08432399999998
  0
LINE
  8
_0-4_A2
  6
CONTINUOUS
 62
    7
 10
425.33225400000003
 20
290.08432399999998
 11
425.33225400000003
 21
289.98432400000001
  0
LINE
  8
_0-4_A2
  6
CONTINUOUS
 62
    7
 10
424.13225399999998
 20
289.98432400000001
 11
425.33225400000003
 21
289.98432400000001
  0
LINE
  8
_0-4_A2
  6
DASHED
 62
    7
 10
423.710712
 20
281.36430699999999
 11
423.89225300000003
 21
281.36430699999999
  0
LINE
  8
_0-4_A2
  6
DASHED
 62
    7
 10
423.89225300000003
 20
282.40430700000001
 11
423.710712
 21
282.40430700000001
  0
LINE
  8
_0-4_A2
  6
DASHED
 62
    7
 10
423.710712
 20
288.76432499999998
 11
423.89225300000003
 21
288.76432499999998
  0
LINE
  8
_0-4_A2
  6
DASHED
 62
    7
 10
423.89225300000003
 20
289.804324
 11
423.710712
 21
289.804324
  0
LINE
  8
_0-4_A2
  6
CONTINUOUS
 62
    7
 10
423.53225300000002
 20
280.624324
 11
423.89225300000003
 21
280.624324
  0
LINE
  8
_0-4_A2
  6
CONTINUOUS
 62
    7
 10
423.89225300000003
 20
290.34432399999997
 11
423.53225300000002
 21
290.34432399999997
  0
LINE
  8
_0-4_A2
  6
HIDDEN
 62
    7
 10
423.73225400000001
 20
284.48432400000001
 11
423.89225300000003
 21
284.48432400000001
  0
LINE
  8
_0-4_A2
  6
HIDDEN
 62
    7
 10
423.89225300000003
 20
286.48432400000001
 11
423.73225400000001
 21
286.48432400000001
  0
LINE
  8
_0-4_A2
  6
HIDDEN
 62
    7
 10
423.73225400000001
 20
282.98432400000001
 11
423.89225300000003
 21
282.98432400000001
  0
LINE
  8
_0-4_A2
  6
HIDDEN
 62
    7
 10
423.89225300000003
 20
283.48432400000001
 11
423.73225400000001
 21
283.48432400000001
  0
LINE
  8
_0-4_A2
  6
HIDDEN
 62
    7
 10
423.73225400000001
 20
287.48432400000001
 11
423.89225300000003
 21
287.48432400000001
  0
LINE
  8
_0-4_A2
  6
HIDDEN
 62
    7
 10
423.73225400000001
 20
287.98432400000001
 11
423.89225300000003
 21
287.98432400000001
  0
LINE
  8
_0-4_A2
  6
HIDDEN
 62
    7
 10
423.932253
 20
282.98432400000001
 11
423.73225400000001
 21
282.98432400000001
  0
LINE
  8
_0-4_A2
  6
HIDDEN
 62
    7
 10
423.932253
 20
283.58432399999998
 11
423.73225400000001
 21
283.58432399999998
  0
LINE
  8
_0-4_A2
  6
HIDDEN
 62
    7
 10
423.932253
 20
287.98432400000001
 11
423.73225400000001
 21
287.98432400000001
  0
LINE
  8
_0-4_A2
  6
HIDDEN
 62
    7
 10
423.932253
 20
283.48432400000001
 11
423.73225400000001
 21
283.48432400000001
  0
LINE
  8
_0-4_A2
  6
HIDDEN
 62
    7
 10
423.932253
 20
287.48432400000001
 11
423.73225400000001
 21
287.48432400000001
  0
LINE
  8
_0-4_A2
  6
HIDDEN
 62
    7
 10
423.932253
 20
287.38432399999999
 11
423.73225400000001
 21
287.38432399999999
  0
LINE
  8
_0-4_A2
  6
HIDDEN
 62
    7
 10
423.932253
 20
286.48432400000001
 11
423.73225400000001
 21
286.48432400000001
  0
LINE
  8
_0-4_A2
  6
HIDDEN
 62
    7
 10
423.73225400000001
 20
284.48432400000001
 11
423.932253
 21
284.48432400000001
  0
LINE
  8
_0-4_A2
  6
HIDDEN
 62
    7
 10
423.73225400000001
 20
283.90432399999997
 11
423.932253
 21
283.90432399999997
  0
LINE
  8
_0-4_A2
  6
HIDDEN
 62
    7
 10
423.932253
 20
287.06432399999999
 11
423.73225400000001
 21
287.06432399999999
  0
LINE
  8
_0-4_A2
  6
HIDDEN
 62
    7
 10
423.73225400000001
 20
283.90432399999997
 11
423.932253
 21
283.90432399999997
  0
LINE
  8
_0-4_A2
  6
HIDDEN
 62
    7
 10
423.73225400000001
 20
284.48432400000001
 11
423.73225400000001
 21
283.48432400000001
  0
LINE
  8
_0-4_A2
  6
HIDDEN
 62
    7
 10
423.73225400000001
 20
287.48432400000001
 11
423.73225400000001
 21
286.48432400000001
  0
LINE
  8
_0-4_A2
  6
HIDDEN
 62
    7
 10
423.73225400000001
 20
283.58432399999998
 11
423.73225400000001
 21
283.90432399999997
  0
LINE
  8
_0-4_A2
  6
HIDDEN
 62
    7
 10
423.73225400000001
 20
287.38432399999999
 11
423.73225400000001
 21
287.06432399999999
  0
LINE
  8
_0-4_A2
  6
HIDDEN
 62
    7
 10
423.73225400000001
 20
287.98432400000001
 11
423.73225400000001
 21
287.38432399999999
  0
LINE
  8
_0-4_A2
  6
HIDDEN
 62
    7
 10
423.73225400000001
 20
283.58432399999998
 11
423.73225400000001
 21
283.90432399999997
  0
LINE
  8
_0-4_A2
  6
HIDDEN
 62
    7
 10
423.73225400000001
 20
283.58432399999998
 11
423.73225400000001
 21
282.98432400000001
  0
LINE
  8
_0-4_A2
  6
HIDDEN
 62
    7
 10
423.73225400000001
 20
286.63432399999999
 11
423.73225400000001
 21
287.03432400000002
  0
LINE
  8
_0-4_A2
  6
HIDDEN
 62
    7
 10
423.33225400000003
 20
287.03432400000002
 11
423.73225400000001
 21
287.03432400000002
  0
LINE
  8
_0-4_A2
  6
HIDDEN
 62
    7
 10
423.33225400000003
 20
286.63432399999999
 11
423.73225400000001
 21
286.63432399999999
  0
LINE
  8
_0-4_A2
  6
HIDDEN
 62
    7
 10
423.33225400000003
 20
286.63432399999999
 11
423.33225400000003
 21
287.03432400000002
  0
LINE
  8
_0-4_A2
  6
HIDDEN
 62
    7
 10
423.73225400000001
 20
284.33432399999998
 11
423.73225400000001
 21
283.934324
  0
LINE
  8
_0-4_A2
  6
PHANTOM
 62
    7
 10
423.33225400000003
 20
283.934324
 11
423.73225400000001
 21
283.934324
  0
LINE
  8
_0-4_A2
  6
HIDDEN
 62
    7
 10
423.33225400000003
 20
284.33432399999998
 11
423.33225400000003
 21
283.934324
  0
LINE
  8
_0-4_A2
  6
HIDDEN
 62
    7
 10
423.33225400000003
 20
284.33432399999998
 11
423.73225400000001
 21
284.33432399999998
  0
LINE
  8
_0-4_A2
  6
HIDDEN
 62
    7
 10
423.73225400000001
 20
285.184324
 11
423.73225400000001
 21
285.78432400000002
  0
LINE
  8
_0-4_A2
  6
HIDDEN
 62
    7
 10
423.53225300000002
 20
285.184324
 11
423.73225400000001
 21
285.184324
  0
LINE
  8
_0-4_A2
  6
HIDDEN
 62
    7
 10
423.53225300000002
 20
285.184324
 11
423.53225300000002
 21
285.78432400000002
  0
LINE
  8
_0-4_A2
  6
HIDDEN
 62
    7
 10
423.53225300000002
 20
285.78432400000002
 11
423.73225400000001
 21
285.78432400000002
  0
LINE
  8
_0-4_A2
  6
HIDDEN
 62
    7
 10
423.73225400000001
 20
284.48432400000001
 11
423.73225400000001
 21
283.48432400000001
  0
LINE
  8
_0-4_A2
  6
HIDDEN
 62
    7
 10
423.73225400000001
 20
287.98432400000001
 11
423.73225400000001
 21
287.48432400000001
  0
LINE
  8
_0-4_A2
  6
HIDDEN
 62
    7
 10
423.73225400000001
 20
287.48432400000001
 11
423.73225400000001
 21
286.48432400000001
  0
LINE
  8
_0-4_A2
  6
HIDDEN
 62
    7
 10
423.73225400000001
 20
283.48432400000001
 11
423.73225400000001
 21
282.98432400000001
  0
LINE
  8
_0-4_A2
  6
HIDDEN
 62
    7
 10
423.73225400000001
 20
286.48432400000001
 11
423.73225400000001
 21
284.48432400000001
  0
ARC
  8
_0-4_A2
  6
CONTINUOUS
 62
    7
 10
425.45225300000004
 20
285.48432400000001
 40
3.5600000000000004
 50
140.39807300000001
 51
219.60192699999998
  0
ARC
  8
_0-4_A2
  6
CONTINUOUS
 62
    7
 10
423.45611400000001
 20
288.54112700000001
 40
1.0852900000000003
 50
226.51838799999998
 51
231.65881200000004
  0
ARC
  8
_0-4_A2
  6
CONTINUOUS
 62
    7
 10
422.63225299999999
 20
287.81739099999998
 40
0.1
 50
320.39807300000001
 51
0
  0
ARC
  8
_0-4_A2
  6
CONTINUOUS
 62
    7
 10
422.83225300000003
 20
290.947247
 40
0.1
 50
91.999999999999985
 51
180
  0
LINE
  8
_0-4_A2
  6
CONTINUOUS
 62
    7
 10
422.73225400000001
 20
283.15125699999998
 11
422.73225400000001
 21
280.02140100000002
  0
LINE
  8
_0-4_A2
  6
CONTINUOUS
 62
    7
 10
422.82876300000003
 20
280.02140100000002
 11
422.73225400000001
 21
280.02140100000002
  0
ARC
  8
_0-4_A2
  6
CONTINUOUS
 62
    7
 10
422.83225300000003
 20
280.02140100000002
 40
0.1
 50
180
 51
268
  0
LINE
  8
_0-4_A2
  6
CONTINUOUS
 62
    7
 10
422.73225400000001
 20
290.947247
 11
422.73225400000001
 21
287.81739099999998
  0
LINE
  8
_0-4_A2
  6
CONTINUOUS
 62
    7
 10
422.73225400000001
 20
290.947247
 11
422.82876300000003
 21
290.947247
  0
LINE
  8
_0-4_A2
  6
CONTINUOUS
 62
    7
 10
422.82876300000003
 20
287.81739099999998
 11
422.73225400000001
 21
287.81739099999998
  0
LINE
  8
_0-4_A2
  6
CONTINUOUS
 62
    7
 10
422.82876300000003
 20
283.15125699999998
 11
422.73225400000001
 21
283.15125699999998
  0
ARC
  8
_0-4_A2
  6
CONTINUOUS
 62
    7
 10
422.63225299999999
 20
283.15125699999998
 40
0.1
 50
0
 51
39.601927000000003
  0
ARC
  8
_0-4_A2
  6
CONTINUOUS
 62
    7
 10
423.45611400000001
 20
282.42752100000001
 40
1.0852900000000003
 50
128.34118799999998
 51
133.48161200000004
  0
LINE
  8
_0-4_A2
  6
CONTINUOUS
 62
    7
 10
423.53225300000002
 20
290.97181299999999
 11
423.53225300000002
 21
291.071753
  0
ARC
  8
_0-4_A2
  6
CONTINUOUS
 62
    7
 10
423.54571100000003
 20
290.99721699999997
 40
0.7186869999999999
 50
176.013067
 51
183.98693299999999
  0
LINE
  8
_0-4_A2
  6
CONTINUOUS
 62
    7
 10
423.53225300000002
 20
291.071753
 11
422.82876300000003
 21
291.04718600000001
  0
LINE
  8
_0-4_A2
  6
CONTINUOUS
 62
    7
 10
423.53225300000002
 20
279.99683499999997
 11
423.53225300000002
 21
279.89689600000002
  0
LINE
  8
_0-4_A2
  6
CONTINUOUS
 62
    7
 10
422.82876300000003
 20
279.92146200000001
 11
423.53225300000002
 21
279.89689600000002
  0
ARC
  8
_0-4_A2
  6
CONTINUOUS
 62
    7
 10
423.54571100000003
 20
279.97143199999999
 40
0.7186869999999999
 50
176.013067
 51
183.98693299999999
  0
LINE
  8
_0-4_A2
  6
CONTINUOUS
 62
    7
 10
423.53225300000002
 20
280.624324
 11
423.53225300000002
 21
279.99683499999997
  0
LINE
  8
_0-4_A2
  6
CONTINUOUS
 62
    7
 10
423.53225300000002
 20
279.99683499999997
 11
422.82876300000003
 21
280.02140100000002
  0
LINE
  8
_0-4_A2
  6
CONTINUOUS
 62
    7
 10
422.82876300000003
 20
280.02140100000002
 11
422.82876300000003
 21
283.15125699999998
  0
ARC
  8
_0-4_A2
  6
CONTINUOUS
 62
    7
 10
422.62876399999998
 20
283.15125699999998
 40
0.2
 50
0
 51
39.601927000000003
  0
ARC
  8
_0-4_A2
  6
CONTINUOUS
 62
    7
 10
425.44876400000003
 20
285.48432400000001
 40
3.4600000000000004
 50
140.39807300000001
 51
219.60192699999998
  0
ARC
  8
_0-4_A2
  6
CONTINUOUS
 62
    7
 10
422.62876399999998
 20
287.81739099999998
 40
0.2
 50
320.39807300000001
 51
0
  0
LINE
  8
_0-4_A2
  6
CONTINUOUS
 62
    7
 10
422.82876300000003
 20
287.81739099999998
 11
422.82876300000003
 21
290.947247
  0
LINE
  8
_0-4_A2
  6
CONTINUOUS
 62
    7
 10
422.82876300000003
 20
290.947247
 11
423.53225300000002
 21
290.97181299999999
  0
LINE
  8
_0-4_A2
  6
CONTINUOUS
 62
    7
 10
423.53225300000002
 20
290.34432399999997
 11
423.53225300000002
 21
290.97181299999999
  0
LINE
  8
_0-4_A2
  6
DASHED
 62
    7
 10
423.527377
 20
289.06219599999997
 11
423.51607699999999
 21
289.06219599999997
  0
LINE
  8
_0-4_A2
  6
DASHED
 62
    7
 10
423.52732600000001
 20
288.93924500000002
 11
423.52732600000001
 21
288.95313599999997
  0
LINE
  8
_0-4_A2
  6
DASHED
 62
    7
 10
423.52732600000001
 20
289.54868199999998
 11
423.52732600000001
 21
289.62940400000002
  0
LINE
  8
_0-4_A2
  6
DASHED
 62
    7
 10
423.52732600000001
 20
289.54868199999998
 11
423.53059200000001
 21
289.55947099999997
  0
LINE
  8
_0-4_A2
  6
DASHED
 62
    7
 10
423.53059200000001
 20
289.39203800000001
 11
423.52732600000001
 21
289.38124800000002
  0
LINE
  8
_0-4_A2
  6
DASHED
 62
    7
 10
423.52732600000001
 20
289.06252499999999
 11
423.52732600000001
 21
289.38124800000002
  0
ARC
  8
_0-4_A2
  6
DASHED
 62
    7
 10
425.51225299999998
 20
289.184324
 40
2
 50
183.66698599999998
 51
187.03869700000001
  0
ARC
  8
_0-4_A2
  6
DASHED
 62
    7
 10
425.51225299999998
 20
289.38432399999999
 40
2
 50
172.96130299999998
 51
177.19381899999999
  0
ARC
  8
_0-4_A2
  6
DASHED
 62
    7
 10
423.725819
 20
289.60489599999999
 40
0.2
 50
94.332055999999994
 51
172.96130299999998
  0
ARC
  8
_0-4_A2
  6
DASHED
 62
    7
 10
423.725819
 20
288.96375299999999
 40
0.2
 50
187.03869700000001
 51
265.66794399999997
  0
ARC
  8
_0-4_A2
  6
DASHED
 62
    7
 10
423.725819
 20
281.563735
 40
0.2
 50
187.03869700000001
 51
265.66794399999997
  0
ARC
  8
_0-4_A2
  6
DASHED
 62
    7
 10
423.725819
 20
282.204878
 40
0.2
 50
94.332055999999994
 51
172.96130299999998
  0
ARC
  8
_0-4_A2
  6
DASHED
 62
    7
 10
425.51225299999998
 20
281.984307
 40
2
 50
172.96130299999998
 51
177.19381899999999
  0
ARC
  8
_0-4_A2
  6
DASHED
 62
    7
 10
425.51225299999998
 20
281.78430700000001
 40
2
 50
183.66698599999998
 51
187.03869700000001
  0
LINE
  8
_0-4_A2
  6
DASHED
 62
    7
 10
423.52732600000001
 20
281.662508
 11
423.52732600000001
 21
281.98122999999998
  0
LINE
  8
_0-4_A2
  6
DASHED
 62
    7
 10
423.53059200000001
 20
281.99202000000002
 11
423.52732600000001
 21
281.98122999999998
  0
LINE
  8
_0-4_A2
  6
DASHED
 62
    7
 10
423.52732600000001
 20
282.14866399999999
 11
423.53059200000001
 21
282.15945399999998
  0
LINE
  8
_0-4_A2
  6
DASHED
 62
    7
 10
423.52732600000001
 20
282.14866399999999
 11
423.52732600000001
 21
282.22938699999997
  0
LINE
  8
_0-4_A2
  6
DASHED
 62
    7
 10
423.52732600000001
 20
281.53922699999998
 11
423.52732600000001
 21
281.55311799999998
  0
LINE
  8
_0-4_A2
  6
DASHED
 62
    7
 10
423.527377
 20
281.66217799999998
 11
423.51607699999999
 21
281.66217799999998
  0
LINE
  8
_0-4_A2
  6
CONTINUOUS
 62
    7
 10
423.89225300000003
 20
280.624324
 11
423.89225300000003
 21
290.34432399999997
  0
ARC
  8
_0-4_A2
  6
CONTINUOUS
 62
    7
 10
423.89225300000003
 20
281.40430700000001
 40
0.04
 50
270
 51
0
  0
ARC
  8
_0-4_A2
  6
CONTINUOUS
 62
    7
 10
423.89225300000003
 20
282.36430699999999
 40
0.04
 50
0
 51
90
  0
ARC
  8
_0-4_A2
  6
CONTINUOUS
 62
    7
 10
423.89225300000003
 20
288.804324
 40
0.04
 50
270
 51
0
  0
ARC
  8
_0-4_A2
  6
CONTINUOUS
 62
    7
 10
423.89225300000003
 20
289.76432399999998
 40
0.04
 50
0
 51
90
  0
LINE
  8
_0-4_A2
  6
CONTINUOUS
 62
    7
 10
424.03225299999996
 20
285.08432399999998
 11
423.932253
 21
285.08432399999998
  0
LINE
  8
_0-4_A2
  6
DASHED
 62
    7
 10
425.33225400000003
 20
281.01619399999998
 11
424.03225299999996
 21
281.08432399999998
  0
LINE
  8
_0-4_A2
  6
CONTINUOUS
 62
    7
 10
425.432253
 20
281.88432399999999
 11
429.23487099999999
 21
281.88432399999999
  0
LINE
  8
_0-4_A2
  6
CONTINUOUS
 62
    7
 10
429.73225300000001
 20
283.48432400000001
 11
429.73225300000001
 21
281.33099900000001
  0
LINE
  8
_0-4_A2
  6
CONTINUOUS
 62
    7
 10
429.33225300000003
 20
283.48432400000001
 11
429.33225300000003
 21
281.88432399999999
  0
LINE
  8
_0-4_A2
  6
CONTINUOUS
 62
    7
 10
429.23487099999999
 20
280.81166699999999
 11
425.432253
 21
281.01095299999997
  0
LINE
  8
_0-4_A2
  6
CONTINUOUS
 62
    7
 10
429.33225300000003
 20
281.34812299999998
 11
429.33225300000003
 21
280.80656299999998
  0
LINE
  8
_0-4_A2
  6
CONTINUOUS
 62
    7
 10
429.33225300000003
 20
280.80656299999998
 11
429.33039500000006
 21
280.80666000000002
  0
LINE
  8
_0-4_A2
  6
CONTINUOUS
 62
    7
 10
429.33039500000006
 20
280.80666000000002
 11
429.32488999999998
 21
280.80694899999997
  0
LINE
  8
_0-4_A2
  6
CONTINUOUS
 62
    7
 10
429.32488999999998
 20
280.80694899999997
 11
429.31594200000006
 21
280.80741699999998
  0
LINE
  8
_0-4_A2
  6
CONTINUOUS
 62
    7
 10
429.31594200000006
 20
280.80741699999998
 11
429.30388400000003
 21
280.80804999999998
  0
LINE
  8
_0-4_A2
  6
CONTINUOUS
 62
    7
 10
429.30388400000003
 20
280.80804999999998
 11
429.28916300000003
 21
280.80882100000002
  0
LINE
  8
_0-4_A2
  6
CONTINUOUS
 62
    7
 10
429.28916300000003
 20
280.80882100000002
 11
429.27232800000001
 21
280.80970300000001
  0
LINE
  8
_0-4_A2
  6
CONTINUOUS
 62
    7
 10
429.27232800000001
 20
280.80970300000001
 11
429.254004
 21
280.81066399999997
  0
LINE
  8
_0-4_A2
  6
CONTINUOUS
 62
    7
 10
429.254004
 20
280.81066399999997
 11
429.23487099999999
 21
280.81166699999999
  0
LINE
  8
_0-4_A2
  6
CONTINUOUS
 62
    7
 10
429.33225300000003
 20
281.34812299999998
 11
429.33225300000003
 21
281.54805399999997
  0
LINE
  8
_0-4_A2
  6
CONTINUOUS
 62
    7
 10
429.33225300000003
 20
281.88432399999999
 11
429.33225300000003
 21
281.54805399999997
  0
LINE
  8
_0-4_A2
  6
CONTINUOUS
 62
    7
 10
429.23487099999999
 20
281.88432399999999
 11
429.33225300000003
 21
281.88432399999999
  0
ARC
  8
_0-4_A2
  6
CONTINUOUS
 62
    7
 10
429.43225300000005
 20
281.125694
 40
0.1
 50
91.5
 51
180
  0
LINE
  8
_0-4_A2
  6
CONTINUOUS
 62
    7
 10
429.63487099999997
 20
281.23103400000002
 11
429.42963600000001
 21
281.225659
  0
ARC
  8
_0-4_A2
  6
CONTINUOUS
 62
    7
 10
429.63225299999999
 20
281.33099900000001
 40
0.1
 50
271.5
 51
0
  0
LINE
  8
_0-4_A2
  6
DASHED
 62
    7
 10
424.76945399999999
 20
284.99399899999997
 11
424.03225299999996
 21
284.98756500000001
  0
LINE
  8
_0-4_A2
  6
DASHED
 62
    7
 10
424.82534900000001
 20
284.71201999999999
 11
424.03225299999996
 21
284.684324
  0
LINE
  8
_0-4_A2
  6
DASHED
 62
    7
 10
424.03225299999996
 20
285.181083
 11
424.74702200000001
 21
285.174845
  0
LINE
  8
_0-4_A2
  6
DASHED
 62
    7
 10
424.77247099999999
 20
285.99402500000002
 11
424.03225299999996
 21
285.98756500000001
  0
LINE
  8
_0-4_A2
  6
DASHED
 62
    7
 10
424.03225299999996
 20
286.181083
 11
424.80634499999996
 21
286.174327
  0
LINE
  8
_0-4_A2
  6
DASHED
 62
    7
 10
425.23225300000001
 20
286.95293500000002
 11
424.03225299999996
 21
286.98435799999998
  0
LINE
  8
_0-4_A2
  6
DASHED
 62
    7
 10
424.03225299999996
 20
287.08432399999998
 11
425.23225300000001
 21
287.05290100000001
  0
LINE
  8
_0-4_A2
  6
DASHED
 62
    7
 10
424.73225300000001
 20
282.58432399999998
 11
424.73225300000001
 21
281.98432400000001
  0
LINE
  8
_0-4_A2
  6
DASHED
 62
    7
 10
424.13225399999998
 20
282.48432400000001
 11
424.90545800000001
 21
282.48432400000001
  0
LINE
  8
_0-4_A2
  6
DASHED
 62
    7
 10
424.13225399999998
 20
282.58432399999998
 11
424.73225300000001
 21
282.58432399999998
  0
ARC
  8
_0-4_A2
  6
DASHED
 62
    7
 10
424.73225300000001
 20
282.38432399999999
 40
0.2
 50
0
 51
90
  0
LINE
  8
_0-4_A2
  6
DASHED
 62
    7
 10
424.932253
 20
282.38432399999999
 11
424.932253
 21
282.184324
  0
LINE
  8
_0-4_A2
  6
DASHED
 62
    7
 10
424.03225299999996
 20
289.58432399999998
 11
425.13225299999999
 21
289.58432399999998
  0
LINE
  8
_0-4_A2
  6
CENTER
 62
    7
 10
425.23225400000001
 20
289.28432400000002
 11
424.03225299999996
 21
289.28432400000002
  0
LINE
  8
_0-4_A2
  6
DASHED
 62
    7
 10
424.13225399999998
 20
288.98432400000001
 11
425.03225300000002
 21
288.98432400000001
  0
LINE
  8
_0-4_A2
  6
DASHED
 62
    7
 10
425.13225299999999
 20
289.58432399999998
 11
425.13225299999999
 21
288.98432400000001
  0
LINE
  8
_0-4_A2
  6
DASHED
 62
    7
 10
425.03225300000002
 20
288.98432400000001
 11
425.13225299999999
 21
288.98432400000001
  0
LINE
  8
_0-4_A2
  6
CONTINUOUS
 62
    7
 10
425.33225400000003
 20
288.48432400000001
 11
424.90545800000001
 21
288.48432400000001
  0
LINE
  8
_0-4_A2
  6
CONTINUOUS
 62
    7
 10
425.33225400000003
 20
288.684324
 11
424.932253
 21
288.684324
  0
LINE
  8
_0-4_A2
  6
DASHED
 62
    7
 10
432.23225300000001
 20
288.48432400000001
 11
432.23225300000001
 21
288.184324
  0
LINE
  8
_0-4_A2
  6
CONTINUOUS
 62
    7
 10
426.93225300000005
 20
288.48432400000001
 11
426.93225300000005
 21
287.48432400000001
  0
LINE
  8
_0-4_A2
  6
DASHED
 62
    7
 10
431.93225700000004
 20
288.48432400000001
 11
431.93225700000004
 21
287.48432400000001
  0
LINE
  8
_0-4_A2
  6
CENTER
 62
    7
 10
429.33225300000003
 20
289.111243
 11
429.33225300000003
 21
287.48432400000001
  0
LINE
  8
_0-4_A2
  6
DASHED
 62
    7
 10
431.73225300000001
 20
288.684324
 11
431.47225300000002
 21
288.684324
  0
LINE
  8
_0-4_A2
  6
DASHED
 62
    7
 10
432.23225300000001
 20
288.48432400000001
 11
431.47225300000002
 21
288.48432400000001
  0
LINE
  8
_0-4_A2
  6
DASHED
 62
    7
 10
431.73225300000001
 20
288.684324
 11
431.73225300000001
 21
288.48432400000001
  0
LINE
  8
_0-4_A2
  6
CONTINUOUS
 62
    7
 10
429.03225299999996
 20
288.98432400000001
 11
429.63225299999999
 21
288.98432400000001
  0
LINE
  8
_0-4_A2
  6
CONTINUOUS
 62
    7
 10
429.03225299999996
 20
288.684324
 11
429.03225299999996
 21
288.98432400000001
  0
LINE
  8
_0-4_A2
  6
CONTINUOUS
 62
    7
 10
429.63225299999999
 20
288.684324
 11
429.63225299999999
 21
288.98432400000001
  0
LINE
  8
_0-4_A2
  6
DASHED
 62
    7
 10
432.23225300000001
 20
288.184324
 11
431.93225700000004
 21
288.184324
  0
LINE
  8
_0-4_A2
  6
DASHED
 62
    7
 10
425.33225400000003
 20
281.88432399999999
 11
424.04727500000001
 21
281.88432399999999
  0
LINE
  8
_0-4_A2
  6
DASHED
 62
    7
 10
424.03225299999996
 20
285.48432400000001
 11
424.03225299999996
 21
281.08432399999998
  0
LINE
  8
_0-4_A2
  6
CONTINUOUS
 62
    7
 10
425.34563100000002
 20
290.35628000000002
 11
425.07367500000003
 21
290.08432399999998
  0
LINE
  8
_0-4_A2
  6
CONTINUOUS
 62
    7
 10
425.27367500000002
 20
290.425746
 11
425.00296400000001
 21
290.15503499999999
  0
ARC
  8
_0-4_A2
  6
CONTINUOUS
 62
    7
 10
425.41509600000006
 20
290.28432400000002
 40
0.2
 50
90
 51
135
  0
LINE
  8
_0-4_A2
  6
CONTINUOUS
 62
    7
 10
425.07367500000003
 20
290.08432399999998
 11
425.00296400000001
 21
290.15503499999999
  0
LINE
  8
_0-4_A2
  6
CONTINUOUS
 62
    7
 10
425.41509600000006
 20
290.48432400000001
 11
425.53225399999996
 21
290.48432400000001
  0
LINE
  8
_0-4_A2
  6
CENTER
 62
    7
 10
433.81137000000001
 20
285.48432400000001
 11
420.78727600000001
 21
285.48432400000001
  0
LINE
  8
_0-4_A2
  6
CONTINUOUS
 62
    7
 10
425.23225300000001
 20
284.61432400000001
 11
425.23225300000001
 21
286.35432400000001
  0
LINE
  8
_0-4_A2
  6
CONTINUOUS
 62
    7
 10
424.83225300000003
 20
285.60432400000001
 11
424.83225300000003
 21
286.28432400000002
  0
LINE
  8
_0-4_A2
  6
CONTINUOUS
 62
    7
 10
424.83225300000003
 20
286.28432400000002
 11
425.23225300000001
 21
286.35432400000001
  0
LINE
  8
_0-4_A2
  6
CONTINUOUS
 62
    7
 10
424.83225300000003
 20
284.684324
 11
425.23225300000001
 21
284.61432400000001
  0
ARC
  8
_0-4_A2
  6
CONTINUOUS
 62
    7
 10
427.98225300000001
 20
285.48432400000001
 40
3.25
 50
165.74996699999999
 51
177.883983
  0
LINE
  8
_0-4_A2
  6
CONTINUOUS
 62
    7
 10
424.91225300000002
 20
285.36432400000001
 11
424.91225300000002
 21
285.60432400000001
  0
LINE
  8
_0-4_A2
  6
CONTINUOUS
 62
    7
 10
424.91225300000002
 20
285.60432400000001
 11
424.73446899999999
 21
285.60432400000001
  0
LINE
  8
_0-4_A2
  6
CONTINUOUS
 62
    7
 10
424.91225300000002
 20
285.36432400000001
 11
424.73446899999999
 21
285.36432400000001
  0
ARC
  8
_0-4_A2
  6
CONTINUOUS
 62
    7
 10
427.98225300000001
 20
285.48432400000001
 40
3.25
 50
182.11601699999999
 51
194.250033
  0
LINE
  8
_0-4_A2
  6
CONTINUOUS
 62
    7
 10
424.83225300000003
 20
285.36432400000001
 11
424.83225300000003
 21
284.684324
  0
LINE
  8
_0-4_A2
  6
CONTINUOUS
 62
    7
 10
426.43225300000005
 20
285.08432399999998
 11
426.43225300000005
 21
285.88432399999999
  0
LINE
  8
_0-4_A2
  6
CONTINUOUS
 62
    7
 10
426.43225300000005
 20
285.88432399999999
 11
425.53225299999996
 21
285.88432399999999
  0
LINE
  8
_0-4_A2
  6
CONTINUOUS
 62
    7
 10
426.43225300000005
 20
285.08432399999998
 11
425.53225299999996
 21
285.08432399999998
  0
LINE
  8
_0-4_A2
  6
CONTINUOUS
 62
    7
 10
426.43225300000005
 20
285.744324
 11
425.53225299999996
 21
285.744324
  0
LINE
  8
_0-4_A2
  6
CONTINUOUS
 62
    7
 10
426.43225300000005
 20
285.22432400000002
 11
425.53225299999996
 21
285.22432400000002
  0
LINE
  8
_0-4_A2
  6
DASHED
 62
    7
 10
424.13225399999998
 20
282.63432399999999
 11
424.13225399999998
 21
281.934324
  0
LINE
  8
_0-4_A2
  6
DASHED
 62
    7
 10
424.13225399999998
 20
282.08432399999998
 11
424.90545800000001
 21
282.08432399999998
  0
LINE
  8
_0-4_A2
  6
DASHED
 62
    7
 10
424.13225399999998
 20
281.98432400000001
 11
424.73225300000001
 21
281.98432400000001
  0
ARC
  8
_0-4_A2
  6
DASHED
 62
    7
 10
424.73225300000001
 20
282.184324
 40
0.2
 50
270
 51
0
  0
LINE
  8
_0-4_A2
  6
CONTINUOUS
 62
    7
 10
423.932253
 20
281.08432399999998
 11
425.33225400000003
 21
281.08432399999998
  0
LINE
  8
_0-4_A2
  6
CONTINUOUS
 62
    7
 10
423.932253
 20
289.88432399999999
 11
425.33225400000003
 21
289.88432399999999
  0
LINE
  8
_0-4_A2
  6
DASHED
 62
    7
 10
424.03225299999996
 20
285.48432400000001
 11
424.03225299999996
 21
289.88432399999999
  0
LINE
  8
_0-4_A2
  6
DASHED
 62
    7
 10
424.73225300000001
 20
288.38432399999999
 11
424.73225300000001
 21
288.98432400000001
  0
LINE
  8
_0-4_A2
  6
DASHED
 62
    7
 10
424.13225399999998
 20
288.33432399999998
 11
424.13225399999998
 21
289.03432400000002
  0
ARC
  8
_0-4_A2
  6
DASHED
 62
    7
 10
424.73225300000001
 20
288.78432400000002
 40
0.2
 50
0
 51
90
  0
LINE
  8
_0-4_A2
  6
DASHED
 62
    7
 10
424.13225399999998
 20
289.03432400000002
 11
424.03225299999996
 21
289.03432400000002
  0
LINE
  8
_0-4_A2
  6
DASHED
 62
    7
 10
424.13225399999998
 20
288.98432400000001
 11
424.73225300000001
 21
288.98432400000001
  0
LINE
  8
_0-4_A2
  6
DASHED
 62
    7
 10
424.13225399999998
 20
288.88432399999999
 11
424.90545800000001
 21
288.88432399999999
  0
LINE
  8
_0-4_A2
  6
DASHED
 62
    7
 10
424.932253
 20
288.58432399999998
 11
424.932253
 21
288.78432400000002
  0
ARC
  8
_0-4_A2
  6
DASHED
 62
    7
 10
424.73225300000001
 20
288.58432399999998
 40
0.2
 50
270
 51
0
  0
LINE
  8
_0-4_A2
  6
DASHED
 62
    7
 10
424.13225399999998
 20
288.38432399999999
 11
424.73225300000001
 21
288.38432399999999
  0
LINE
  8
_0-4_A2
  6
DASHED
 62
    7
 10
424.13225399999998
 20
288.48432400000001
 11
424.90545800000001
 21
288.48432400000001
  0
LINE
  8
_0-4_A2
  6
CONTINUOUS
 62
    7
 10
424.03225299999996
 20
285.88432399999999
 11
423.932253
 21
285.88432399999999
  0
LINE
  8
_0-4_A2
  6
DASHED
 62
    7
 10
424.13225399999998
 20
288.33432399999998
 11
424.03225299999996
 21
288.33432399999998
  0
LINE
  8
_0-4_A2
  6
DASHED
 62
    7
 10
424.13225399999998
 20
281.934324
 11
424.03225299999996
 21
281.934324
  0
ARC
  8
_0-4_A2
  6
PHANTOM
 62
    7
 10
423.69225299999999
 20
283.10432400000001
 40
0.04
 50
270
 51
0
  0
ARC
  8
_0-4_A2
  6
PHANTOM
 62
    7
 10
423.52581900000001
 20
283.263753
 40
0.2
 50
188.46139699999997
 51
265.66794399999992
  0
ARC
  8
_0-4_A2
  6
PHANTOM
 62
    7
 10
423.52581900000001
 20
283.904896
 40
0.2
 50
94.332055999999994
 51
171.53860300000002
  0
ARC
  8
_0-4_A2
  6
PHANTOM
 62
    7
 10
423.69225299999999
 20
284.06432399999999
 40
0.04
 50
0
 51
90
  0
LINE
  8
_0-4_A2
  6
PHANTOM
 62
    7
 10
423.51071100000001
 20
283.06432399999999
 11
423.69225399999999
 21
283.06432399999999
  0
LINE
  8
_0-4_A2
  6
PHANTOM
 62
    7
 10
423.612253
 20
283.23432400000001
 11
423.32799600000004
 21
283.23432400000001
  0
LINE
  8
_0-4_A2
  6
PHANTOM
 62
    7
 10
423.612253
 20
283.934324
 11
423.612253
 21
283.23432400000001
  0
LINE
  8
_0-4_A2
  6
PHANTOM
 62
    7
 10
423.32799600000004
 20
283.934324
 11
423.612253
 21
283.934324
  0
LINE
  8
_0-4_A2
  6
PHANTOM
 62
    7
 10
423.69225399999999
 20
284.10432400000001
 11
423.51071100000001
 21
284.10432400000001
  0
LINE
  8
_0-4_A2
  6
PHANTOM
 62
    7
 10
423.612253
 20
283.38432399999999
 11
423.316077
 21
283.38432399999999
  0
LINE
  8
_0-4_A2
  6
PHANTOM
 62
    7
 10
423.612253
 20
283.48432400000001
 11
423.316077
 21
283.48432400000001
  0
LINE
  8
_0-4_A2
  6
PHANTOM
 62
    7
 10
423.612253
 20
283.78432400000002
 11
423.316077
 21
283.78432400000002
  0
LINE
  8
_0-4_A2
  6
PHANTOM
 62
    7
 10
423.612253
 20
283.684324
 11
423.316077
 21
283.684324
  0
LINE
  8
_0-4_A2
  6
PHANTOM
 62
    7
 10
423.73225300000001
 20
283.28432400000002
 11
424.932253
 21
283.28432400000002
  0
LINE
  8
_0-4_A2
  6
PHANTOM
 62
    7
 10
424.932253
 20
283.88432399999999
 11
423.73225300000001
 21
283.88432399999999
  0
LINE
  8
_0-4_A2
  6
PHANTOM
 62
    7
 10
424.932253
 20
283.88432399999999
 11
424.932253
 21
283.28432400000002
  0
ARC
  8
_0-4_A2
  6
CONTINUOUS
 62
    7
 10
421.82876500000003
 20
285.02452599999998
 40
0.0771919999999999
 50
187.613168
 51
262.67268999999998
  0
LINE
  8
_0-4_A2
  6
CONTINUOUS
 62
    7
 10
421.84353800000002
 20
284.68669499999998
 11
421.84353800000002
 21
284.67633799999998
  0
LINE
  8
_0-4_A2
  6
CONTINUOUS
 62
    7
 10
421.84369500000002
 20
284.68623300000001
 11
421.84353800000002
 21
284.68669499999998
  0
LINE
  8
_0-4_A2
  6
CONTINUOUS
 62
    7
 10
421.75225299999999
 20
284.775957
 11
421.75225299999999
 21
284.78503799999998
  0
ARC
  8
_0-4_A2
  6
CONTINUOUS
 62
    7
 10
421.81579099999999
 20
284.80799999999999
 40
0.14
 50
17.836241999999998
 51
88.719406000000006
  0
ARC
  8
_0-4_A2
  6
CONTINUOUS
 62
    7
 10
421.85225300000001
 20
284.775957
 40
0.1
 50
180
 51
265
  0
ARC
  8
_0-4_A2
  6
CONTINUOUS
 62
    7
 10
421.85225400000001
 20
284.78331600000001
 40
0.1
 50
179.99947299999999
 51
263.34605200000004
  0
ARC
  8
_0-4_A2
  6
CONTINUOUS
 62
    7
 10
421.85225400000001
 20
286.18533200000001
 40
0.1
 50
96.653947999999999
 51
180.00052700000003
  0
ARC
  8
_0-4_A2
  6
CONTINUOUS
 62
    7
 10
421.85225300000001
 20
286.19269100000002
 40
0.1
 50
95
 51
180
  0
ARC
  8
_0-4_A2
  6
CONTINUOUS
 62
    7
 10
421.81579099999999
 20
286.16064799999998
 40
0.14
 50
271.28059400000006
 51
342.16375799999997
  0
LINE
  8
_0-4_A2
  6
CONTINUOUS
 62
    7
 10
421.75225299999999
 20
286.19269100000002
 11
421.75225299999999
 21
286.18361099999998
  0
LINE
  8
_0-4_A2
  6
CONTINUOUS
 62
    7
 10
421.84369500000002
 20
286.28241500000001
 11
421.84353800000002
 21
286.28195299999998
  0
LINE
  8
_0-4_A2
  6
CONTINUOUS
 62
    7
 10
421.84353800000002
 20
286.28195299999998
 11
421.84353800000002
 21
286.29230999999998
  0
ARC
  8
_0-4_A2
  6
CONTINUOUS
 62
    7
 10
421.82876500000003
 20
285.94412199999999
 40
0.0771919999999999
 50
97.327309999999982
 51
172.38683199999999
  0
LINE
  8
_0-4_A2
  6
DASHED
 62
    7
 10
431.47225300000002
 20
290.38432399999999
 11
432.355096
 21
290.38432399999999
  0
LINE
  8
_0-4_A2
  6
CONTINUOUS
 62
    7
 10
431.47225300000002
 20
290.48432400000001
 11
429.58941100000004
 21
290.48432400000001
  0
LINE
  8
_0-4_A2
  6
CONTINUOUS
 62
    7
 10
431.47225300000002
 20
288.684324
 11
425.432253
 21
288.684324
  0
LINE
  8
_0-4_A2
  6
CONTINUOUS
 62
    7
 10
431.47225300000002
 20
288.48432400000001
 11
425.432253
 21
288.48432400000001
  0
LINE
  8
_0-4_A2
  6
DASHED
 62
    7
 10
431.47225300000002
 20
287.48432400000001
 11
432.07225300000004
 21
287.48432400000001
  0
LINE
  8
_0-4_A2
  6
CONTINUOUS
 62
    7
 10
431.47225300000002
 20
280.58432399999998
 11
429.58941100000004
 21
280.58432399999998
  0
LINE
  8
_0-4_A2
  6
DASHED
 62
    7
 10
431.47225300000002
 20
280.48432400000001
 11
432.355096
 21
280.48432400000001
  0
LINE
  8
_0-4_A2
  6
DASHED
 62
    7
 10
431.47225300000002
 20
283.48432400000001
 11
432.07225300000004
 21
283.48432400000001
  0
LINE
  8
_0-4_A2
  6
CONTINUOUS
 62
    7
 10
404.60393099999998
 20
225.484338
 11
404.60393099999998
 21
232.984338
  0
LINE
  8
_0-4_A2
  6
CONTINUOUS
 62
    7
 10
404.60393099999998
 20
232.984338
 11
404.60393099999998
 21
253.06749099999998
  0
LINE
  8
_0-4_A2
  6
CONTINUOUS
 62
    7
 10
416.30926299999998
 20
225.484338
 11
403.46093100000001
 21
225.484338
  0
LINE
  8
_0-4_A2
  6
CONTINUOUS
 62
    7
 10
416.49163900000002
 20
232.984338
 11
403.46093100000001
 21
232.984338
  0
LINE
  8
_0-4_A2
  6
CONTINUOUS
 62
    7
 10
404.60393099999998
 20
225.484338
 11
404.60393099999998
 21
222.94433799999998
  0
LINE
  8
_0-4_A2
  6
CONTINUOUS
 62
    7
 10
404.60393099999998
 20
232.984338
 11
404.60393099999998
 21
235.524338
  0
INSERT
  2
-000-_DOTSMALL
  8
_0-4_A2
 10
404.60393099999998
 20
225.484338
 41
1.8560000000000003
 42
1.8560000000000003
 50
90
  0
INSERT
  2
-000-_DOTSMALL
  8
_0-4_A2
 10
404.60393099999998
 20
232.984338
 41
1.8560000000000003
 42
1.8560000000000003
 50
270
  0
LINE
  8
_0-4_A2
  6
CONTINUOUS
 62
    7
 10
321.91007799999999
 20
365.790163
 11
321.91007799999999
 21
351.568802
  0
LINE
  8
_0-4_A2
  6
CONTINUOUS
 62
    7
 10
305.24406599999997
 20
365.790163
 11
323.05307800000002
 21
365.790163
  0
LINE
  8
_0-4_A2
  6
CONTINUOUS
 62
    7
 10
304.144066
 20
351.568802
 11
323.05307800000002
 21
351.568802
  0
INSERT
  2
-000-_DOTSMALL
  8
_0-4_A2
 10
321.91007799999999
 20
365.790163
 41
1.8560000000000003
 42
1.8560000000000003
 50
90
  0
INSERT
  2
-000-_DOTSMALL
  8
_0-4_A2
 10
321.91007799999999
 20
351.568802
 41
1.8560000000000003
 42
1.8560000000000003
 50
270
  0
LINE
  8
_0-4_A2
  6
CONTINUOUS
 62
    7
 10
265.41798099999999
 20
351.568802
 11
265.41798099999999
 21
374.568802
  0
LINE
  8
_0-4_A2
  6
CONTINUOUS
 62
    7
 10
265.41798099999999
 20
336.542056
 11
265.41798099999999
 21
351.568802
  0
LINE
  8
_0-4_A2
  6
CONTINUOUS
 62
    7
 10
277.20407099999999
 20
351.568802
 11
264.27498100000002
 21
351.568802
  0
LINE
  8
_0-4_A2
  6
CONTINUOUS
 62
    7
 10
283.61913900000001
 20
374.568802
 11
264.27498100000002
 21
374.568802
  0
INSERT
  2
-000-_DOTSMALL
  8
_0-4_A2
 10
265.41798099999999
 20
351.568802
 41
1.8560000000000003
 42
1.8560000000000003
 50
270
  0
INSERT
  2
-000-_DOTSMALL
  8
_0-4_A2
 10
265.41798099999999
 20
374.568802
 41
1.8560000000000003
 42
1.8560000000000003
 50
90
  0
LINE
  8
_0-4_A2
  6
CONTINUOUS
 62
    7
 10
303.97406599999999
 20
334.94048400000002
 11
277.37407100000001
 21
334.94048400000002
  0
LINE
  8
_0-4_A2
  6
CONTINUOUS
 62
    7
 10
303.97406599999999
 20
351.39880100000004
 11
303.97406599999999
 21
333.79748399999999
  0
LINE
  8
_0-4_A2
  6
CONTINUOUS
 62
    7
 10
277.37407100000001
 20
351.39880100000004
 11
277.37407100000001
 21
333.79748399999999
  0
INSERT
  2
-000-_DOTSMALL
  8
_0-4_A2
 10
303.97406599999999
 20
334.94048400000002
 41
1.8560000000000003
 42
1.8560000000000003
 50
0
  0
INSERT
  2
-000-_DOTSMALL
  8
_0-4_A2
 10
277.37407100000001
 20
334.94048400000002
 41
1.8560000000000003
 42
1.8560000000000003
 50
180
  0
TEXT
  8
_0-4_A2
 62
    7
 10
406.44835850000004
 20
305.435134
 40
3
 41
0.733333
 50
0
  1
５
  0
CIRCLE
  8
_0-4_A2
  6
CONTINUOUS
 62
    7
 10
407.548358
 20
306.935134
 40
3.0000000000000004
  0
TEXT
  8
_0-4_A2
 62
    7
 10
317.24674649999997
 20
234.02904699999999
 40
3
 41
0.733333
 50
0
  1
４
  0
CIRCLE
  8
_0-4_A2
  6
CONTINUOUS
 62
    7
 10
318.34674599999999
 20
235.52904699999999
 40
3.0000000000000004
  0
TEXT
  8
_0-4_A2
 62
    7
 10
171.17360350000001
 20
240.511583
 40
3
 41
0.733333
 50
0
  1
３
  0
CIRCLE
  8
_0-4_A2
  6
CONTINUOUS
 62
    7
 10
172.27360299999998
 20
242.011583
 40
3.0000000000000004
  0
TEXT
  8
_0-4_A2
 62
    7
 10
170.30926450000001
 20
306.63344999999998
 40
3
 41
0.733333
 50
0
  1
２
  0
CIRCLE
  8
_0-4_A2
  6
CONTINUOUS
 62
    7
 10
171.409264
 20
308.13344999999998
 40
3.0000000000000004
  0
TEXT
  8
_0-4_A2
 62
    7
 10
226.58553350000002
 20
307.82780400000001
 40
3
 41
0.733333
 50
0
  1
１
  0
CIRCLE
  8
_0-4_A2
  6
CONTINUOUS
 62
    7
 10
227.68553300000002
 20
309.32780400000001
 40
3.0000000000000004
  0
LINE
  8
_0-4_A2
  6
DASHED
 62
    3
 10
432.47225300000002
 20
287.50433500000002
 11
433.47796800000003
 21
288.51004899999998
  0
LINE
  8
_0-4_A2
  6
DASHED
 62
    3
 10
432.06178799999997
 20
278.99461400000001
 11
438.90194200000001
 21
279.11401
  0
LINE
  8
_0-4_A2
  6
DASHED
 62
    3
 10
432.06178799999997
 20
291.97403400000001
 11
438.90193700000003
 21
291.85463900000002
  0
LINE
  8
_0-4_A2
  6
DASHED
 62
    3
 10
432.64744600000005
 20
282.56242800000001
 11
440.47224400000004
 21
281.58432800000002
  0
LINE
  8
_0-4_A2
  6
DASHED
 62
    3
 10
440.472217
 20
289.38432999999997
 11
433.47796800000003
 21
288.51004899999998
  0
LINE
  8
_0-4_A2
  6
DASHED
 62
    3
 10
440.472259
 20
280.684324
 11
440.472259
 21
281.58432599999997
  0
LINE
  8
_0-4_A2
  6
DASHED
 62
    3
 10
438.90194200000001
 20
279.11401
 11
440.47225800000001
 21
280.68432599999999
  0
LINE
  8
_0-4_A2
  6
DASHED
 62
    3
 10
440.472259
 20
290.28432400000002
 11
440.472259
 21
289.38433600000001
  0
LINE
  8
_0-4_A2
  6
DASHED
 62
    3
 10
438.90193700000003
 20
291.85463900000002
 11
440.47225500000001
 21
290.28431999999997
  0
ARC
  8
_0-4_A2
  6
DASHED
 62
    3
 10
432.07225900000003
 20
292.57394199999998
 40
0.6
 50
180
 51
269
  0
ARC
  8
_0-4_A2
  6
DASHED
 62
    3
 10
432.07225900000003
 20
278.39470599999998
 40
0.6
 50
91
 51
180
  0
ARC
  8
_0-4_A2
  6
DASHED
 62
    3
 10
432.67225300000006
 20
282.76088299999997
 40
0.2
 50
180
 51
262.87498399999998
  0
LINE
  8
_0-4_A2
  6
PHANTOM
 62
    7
 10
441.44948199999998
 20
149.38433800000001
 11
439.97215900000003
 21
149.38433800000001
  0
LINE
  8
_0-4_A2
  6
PHANTOM
 62
    7
 10
442.87225899999998
 20
150.584338
 11
441.39143000000001
 21
150.584338
  0
LINE
  8
_0-4_A2
  6
PHANTOM
 62
    7
 10
441.44956899999999
 20
149.38433800000001
 11
441.41455500000006
 21
145.37212099999999
  0
LINE
  8
_0-4_A2
  6
PHANTOM
 62
    7
 10
440.86598000000003
 20
151.920073
 11
440.624097
 21
151.28788199999999
  0
LINE
  8
_0-4_A2
  6
PHANTOM
 62
    7
 10
440.59661200000005
 20
149.984338
 11
440.57215900000005
 21
149.984338
  0
LINE
  8
_0-4_A2
  6
PHANTOM
 62
    7
 10
440.48447900000002
 20
150.484338
 11
439.97215900000003
 21
150.484338
  0
LINE
  8
_0-4_A2
  6
PHANTOM
 62
    7
 10
440.58447899999998
 20
151.073473
 11
440.58447899999998
 21
150.584338
  0
LINE
  8
_0-4_A2
  6
PHANTOM
 62
    7
 10
441.47005899999999
 20
151.732156
 11
441.44956899999999
 21
149.38433800000001
  0
LINE
  8
_0-4_A2
  6
PHANTOM
 62
    7
 10
441.39143000000001
 20
151.984338
 11
441.39143000000001
 21
150.584338
  0
LINE
  8
_0-4_A2
  6
PHANTOM
 62
    7
 10
439.97215900000003
 20
150.484338
 11
439.97215900000003
 21
149.38433800000001
  0
LINE
  8
_0-4_A2
  6
PHANTOM
 62
    7
 10
441.19661200000001
 20
151.984338
 11
441.19661200000001
 21
150.584338
  0
LINE
  8
_0-4_A2
  6
PHANTOM
 62
    7
 10
440.01460900000006
 20
143.98433799999997
 11
419.16536200000001
 21
143.98433799999997
  0
LINE
  8
_0-4_A2
  6
PHANTOM
 62
    7
 10
442.87225899999998
 20
151.88433800000001
 11
442.87225899999998
 21
150.584338
  0
LINE
  8
_0-4_A2
  6
PHANTOM
 62
    7
 10
441.59493700000001
 20
151.88433800000001
 11
441.59493700000001
 21
150.584338
  0
LINE
  8
_0-4_A2
  6
PHANTOM
 62
    7
 10
442.77225900000001
 20
151.984338
 11
417.76163999999999
 21
151.984338
  0
LINE
  8
_0-4_A2
  6
PHANTOM
 62
    7
 10
432.50944900000001
 20
151.984338
 11
432.50944900000001
 21
143.98433799999997
  0
LINE
  8
_0-4_A2
  6
PHANTOM
 62
    7
 10
417.51164900000003
 20
151.732156
 11
417.56542200000001
 21
145.57037500000001
  0
ARC
  8
_0-4_A2
  6
PHANTOM
 62
    7
 10
441.07137099999999
 20
151.88433800000001
 40
0.1
 50
90
 51
179.5
  0
ARC
  8
_0-4_A2
  6
PHANTOM
 62
    7
 10
417.91033700000002
 20
151.88433800000001
 40
0.1
 50
0.5
 51
90
  0
ARC
  8
_0-4_A2
  6
PHANTOM
 62
    7
 10
419.16536200000001
 20
145.584338
 40
1.6000000000000005
 50
180.5
 51
270
  0
ARC
  8
_0-4_A2
  6
PHANTOM
 62
    7
 10
442.77225900000001
 20
151.88433800000001
 40
0.1
 50
0
 51
90
  0
ARC
  8
_0-4_A2
  6
PHANTOM
 62
    7
 10
441.49493700000004
 20
151.88433800000001
 40
0.1
 50
0
 51
90
  0
ARC
  8
_0-4_A2
  6
PHANTOM
 62
    7
 10
442.073935
 20
150.584338
 40
0.6
 50
270
 51
0
  0
ARC
  8
_0-4_A2
  6
PHANTOM
 62
    7
 10
442.04948200000001
 20
149.38433800000001
 40
0.6
 50
90
 51
180
  0
ARC
  8
_0-4_A2
  6
PHANTOM
 62
    7
 10
441.18447900000001
 20
151.073473
 40
0.6
 50
159.062555
 51
180
  0
ARC
  8
_0-4_A2
  6
PHANTOM
 62
    7
 10
440.95937700000001
 20
151.88433800000001
 40
0.1
 50
90
 51
159.06255499999997
  0
ARC
  8
_0-4_A2
  6
PHANTOM
 62
    7
 10
440.59661200000005
 20
150.584338
 40
0.6
 50
270
 51
0
  0
ARC
  8
_0-4_A2
  6
PHANTOM
 62
    7
 10
440.48447900000002
 20
150.584338
 40
0.1
 50
270
 51
0
  0
ARC
  8
_0-4_A2
  6
PHANTOM
 62
    7
 10
440.57215900000005
 20
149.38433800000001
 40
0.6
 50
90
 51
180
  0
ARC
  8
_0-4_A2
  6
PHANTOM
 62
    7
 10
441.22006799999996
 20
151.734338
 40
0.25
 50
359.5
 51
89.999999999999971
  0
ARC
  8
_0-4_A2
  6
PHANTOM
 62
    7
 10
440.01460900000006
 20
145.38433800000001
 40
1.3999999999999999
 50
270
 51
359.5
  0
ARC
  8
_0-4_A2
  6
PHANTOM
 62
    7
 10
417.76163999999999
 20
151.734338
 40
0.25
 50
90
 51
180.5
  0
LINE
  8
_0-4_A2
  6
PHANTOM
 62
    7
 10
441.44948199999998
 20
197.38433800000001
 11
439.97215900000003
 21
197.38433800000001
  0
LINE
  8
_0-4_A2
  6
PHANTOM
 62
    7
 10
442.87225899999998
 20
198.584338
 11
441.39143000000001
 21
198.584338
  0
LINE
  8
_0-4_A2
  6
PHANTOM
 62
    7
 10
441.44956899999999
 20
197.38433800000001
 11
441.41455500000006
 21
193.37212099999999
  0
LINE
  8
_0-4_A2
  6
PHANTOM
 62
    7
 10
440.86598000000003
 20
199.920073
 11
440.624097
 21
199.28788199999999
  0
LINE
  8
_0-4_A2
  6
PHANTOM
 62
    7
 10
440.59661200000005
 20
197.984338
 11
440.57215900000005
 21
197.984338
  0
LINE
  8
_0-4_A2
  6
PHANTOM
 62
    7
 10
440.48447900000002
 20
198.484338
 11
439.97215900000003
 21
198.484338
  0
LINE
  8
_0-4_A2
  6
PHANTOM
 62
    7
 10
440.58447899999998
 20
199.073473
 11
440.58447899999998
 21
198.584338
  0
LINE
  8
_0-4_A2
  6
PHANTOM
 62
    7
 10
441.47005899999999
 20
199.732156
 11
441.44956899999999
 21
197.38433800000001
  0
LINE
  8
_0-4_A2
  6
PHANTOM
 62
    7
 10
441.39143000000001
 20
199.984338
 11
441.39143000000001
 21
198.584338
  0
LINE
  8
_0-4_A2
  6
PHANTOM
 62
    7
 10
439.97215900000003
 20
198.484338
 11
439.97215900000003
 21
197.38433800000001
  0
LINE
  8
_0-4_A2
  6
PHANTOM
 62
    7
 10
441.19661200000001
 20
199.984338
 11
441.19661200000001
 21
198.584338
  0
LINE
  8
_0-4_A2
  6
PHANTOM
 62
    7
 10
440.01460900000006
 20
191.984338
 11
419.16536200000001
 21
191.984338
  0
LINE
  8
_0-4_A2
  6
PHANTOM
 62
    7
 10
442.87225899999998
 20
199.88433800000001
 11
442.87225899999998
 21
198.584338
  0
LINE
  8
_0-4_A2
  6
PHANTOM
 62
    7
 10
441.59493700000001
 20
199.88433800000001
 11
441.59493700000001
 21
198.584338
  0
LINE
  8
_0-4_A2
  6
PHANTOM
 62
    7
 10
442.77225900000001
 20
199.984338
 11
417.76163999999999
 21
199.984338
  0
LINE
  8
_0-4_A2
  6
PHANTOM
 62
    7
 10
432.50944900000001
 20
199.984338
 11
432.50944900000001
 21
191.984338
  0
LINE
  8
_0-4_A2
  6
PHANTOM
 62
    7
 10
417.51164900000003
 20
199.732156
 11
417.56542200000001
 21
193.57037500000001
  0
ARC
  8
_0-4_A2
  6
PHANTOM
 62
    7
 10
441.07137099999999
 20
199.88433800000001
 40
0.1
 50
90
 51
179.5
  0
ARC
  8
_0-4_A2
  6
PHANTOM
 62
    7
 10
417.91033700000002
 20
199.88433800000001
 40
0.1
 50
0.5
 51
90
  0
ARC
  8
_0-4_A2
  6
PHANTOM
 62
    7
 10
419.16536200000001
 20
193.584338
 40
1.6000000000000005
 50
180.5
 51
270
  0
ARC
  8
_0-4_A2
  6
PHANTOM
 62
    7
 10
442.77225900000001
 20
199.88433800000001
 40
0.1
 50
0
 51
90
  0
ARC
  8
_0-4_A2
  6
PHANTOM
 62
    7
 10
441.49493700000004
 20
199.88433800000001
 40
0.1
 50
0
 51
90
  0
ARC
  8
_0-4_A2
  6
PHANTOM
 62
    7
 10
442.073935
 20
198.584338
 40
0.6
 50
270
 51
0
  0
ARC
  8
_0-4_A2
  6
PHANTOM
 62
    7
 10
442.04948200000001
 20
197.38433800000001
 40
0.6
 50
90
 51
180
  0
ARC
  8
_0-4_A2
  6
PHANTOM
 62
    7
 10
441.18447900000001
 20
199.073473
 40
0.6
 50
159.062555
 51
180
  0
ARC
  8
_0-4_A2
  6
PHANTOM
 62
    7
 10
440.95937700000001
 20
199.88433800000001
 40
0.1
 50
90
 51
159.06255499999997
  0
ARC
  8
_0-4_A2
  6
PHANTOM
 62
    7
 10
440.59661200000005
 20
198.584338
 40
0.6
 50
270
 51
0
  0
ARC
  8
_0-4_A2
  6
PHANTOM
 62
    7
 10
440.48447900000002
 20
198.584338
 40
0.1
 50
270
 51
0
  0
ARC
  8
_0-4_A2
  6
PHANTOM
 62
    7
 10
440.57215900000005
 20
197.38433800000001
 40
0.6
 50
90
 51
180
  0
ARC
  8
_0-4_A2
  6
PHANTOM
 62
    7
 10
441.22006799999996
 20
199.734338
 40
0.25
 50
359.5
 51
89.999999999999971
  0
ARC
  8
_0-4_A2
  6
PHANTOM
 62
    7
 10
440.01460900000006
 20
193.38433800000001
 40
1.3999999999999999
 50
270
 51
359.5
  0
ARC
  8
_0-4_A2
  6
PHANTOM
 62
    7
 10
417.76163999999999
 20
199.734338
 40
0.25
 50
90
 51
180.5
  0
LINE
  8
_0-4_A2
  6
PHANTOM
 62
    7
 10
441.44948199999998
 20
230.38433800000001
 11
439.97215900000003
 21
230.38433800000001
  0
LINE
  8
_0-4_A2
  6
PHANTOM
 62
    7
 10
442.87225899999998
 20
231.584338
 11
441.39143000000001
 21
231.584338
  0
LINE
  8
_0-4_A2
  6
PHANTOM
 62
    7
 10
441.44956899999999
 20
230.38433800000001
 11
441.41455500000006
 21
226.37212099999999
  0
LINE
  8
_0-4_A2
  6
PHANTOM
 62
    7
 10
440.86598000000003
 20
232.920073
 11
440.624097
 21
232.28788199999999
  0
LINE
  8
_0-4_A2
  6
PHANTOM
 62
    7
 10
440.59661200000005
 20
230.984338
 11
440.57215900000005
 21
230.984338
  0
LINE
  8
_0-4_A2
  6
PHANTOM
 62
    7
 10
440.48447900000002
 20
231.484338
 11
439.97215900000003
 21
231.484338
  0
LINE
  8
_0-4_A2
  6
PHANTOM
 62
    7
 10
440.58447899999998
 20
232.073473
 11
440.58447899999998
 21
231.584338
  0
LINE
  8
_0-4_A2
  6
PHANTOM
 62
    7
 10
441.47005899999999
 20
232.732156
 11
441.44956899999999
 21
230.38433800000001
  0
LINE
  8
_0-4_A2
  6
PHANTOM
 62
    7
 10
441.39143000000001
 20
232.984338
 11
441.39143000000001
 21
231.584338
  0
LINE
  8
_0-4_A2
  6
PHANTOM
 62
    7
 10
439.97215900000003
 20
231.484338
 11
439.97215900000003
 21
230.38433800000001
  0
LINE
  8
_0-4_A2
  6
PHANTOM
 62
    7
 10
441.19661200000001
 20
232.984338
 11
441.19661200000001
 21
231.584338
  0
LINE
  8
_0-4_A2
  6
PHANTOM
 62
    7
 10
440.01460900000006
 20
224.984338
 11
419.16536200000001
 21
224.984338
  0
LINE
  8
_0-4_A2
  6
PHANTOM
 62
    7
 10
442.87225899999998
 20
232.88433800000001
 11
442.87225899999998
 21
231.584338
  0
LINE
  8
_0-4_A2
  6
PHANTOM
 62
    7
 10
441.59493700000001
 20
232.88433800000001
 11
441.59493700000001
 21
231.584338
  0
LINE
  8
_0-4_A2
  6
PHANTOM
 62
    7
 10
442.77225900000001
 20
232.984338
 11
417.76163999999999
 21
232.984338
  0
LINE
  8
_0-4_A2
  6
PHANTOM
 62
    7
 10
432.50944900000001
 20
232.984338
 11
432.50944900000001
 21
224.984338
  0
LINE
  8
_0-4_A2
  6
PHANTOM
 62
    7
 10
417.51164900000003
 20
232.732156
 11
417.56542200000001
 21
226.57037500000001
  0
ARC
  8
_0-4_A2
  6
PHANTOM
 62
    7
 10
441.07137099999999
 20
232.88433800000001
 40
0.1
 50
90
 51
179.5
  0
ARC
  8
_0-4_A2
  6
PHANTOM
 62
    7
 10
417.91033700000002
 20
232.88433800000001
 40
0.1
 50
0.5
 51
90
  0
ARC
  8
_0-4_A2
  6
PHANTOM
 62
    7
 10
419.16536200000001
 20
226.584338
 40
1.6000000000000005
 50
180.5
 51
270
  0
ARC
  8
_0-4_A2
  6
PHANTOM
 62
    7
 10
442.77225900000001
 20
232.88433800000001
 40
0.1
 50
0
 51
90
  0
ARC
  8
_0-4_A2
  6
PHANTOM
 62
    7
 10
441.49493700000004
 20
232.88433800000001
 40
0.1
 50
0
 51
90
  0
ARC
  8
_0-4_A2
  6
PHANTOM
 62
    7
 10
442.073935
 20
231.584338
 40
0.6
 50
270
 51
0
  0
ARC
  8
_0-4_A2
  6
PHANTOM
 62
    7
 10
442.04948200000001
 20
230.38433800000001
 40
0.6
 50
90
 51
180
  0
ARC
  8
_0-4_A2
  6
PHANTOM
 62
    7
 10
441.18447900000001
 20
232.073473
 40
0.6
 50
159.062555
 51
180
  0
ARC
  8
_0-4_A2
  6
PHANTOM
 62
    7
 10
440.95937700000001
 20
232.88433800000001
 40
0.1
 50
90
 51
159.06255499999997
  0
ARC
  8
_0-4_A2
  6
PHANTOM
 62
    7
 10
440.59661200000005
 20
231.584338
 40
0.6
 50
270
 51
0
  0
ARC
  8
_0-4_A2
  6
PHANTOM
 62
    7
 10
440.48447900000002
 20
231.584338
 40
0.1
 50
270
 51
0
  0
ARC
  8
_0-4_A2
  6
PHANTOM
 62
    7
 10
440.57215900000005
 20
230.38433800000001
 40
0.6
 50
90
 51
180
  0
ARC
  8
_0-4_A2
  6
PHANTOM
 62
    7
 10
441.22006799999996
 20
232.734338
 40
0.25
 50
359.5
 51
89.999999999999971
  0
ARC
  8
_0-4_A2
  6
PHANTOM
 62
    7
 10
440.01460900000006
 20
226.38433800000001
 40
1.3999999999999999
 50
270
 51
359.5
  0
ARC
  8
_0-4_A2
  6
PHANTOM
 62
    7
 10
417.76163999999999
 20
232.734338
 40
0.25
 50
90
 51
180.5
  0
LINE
  8
_0-4_A2
  6
CONTINUOUS
 62
    3
 10
186.27314499999999
 20
366.06274500000006
 11
304.67498699999998
 21
366.06274500000006
  0
LINE
  8
_0-4_A2
  6
CONTINUOUS
 62
    3
 10
301.759295
 20
365.76274499999999
 11
277.18883599999998
 21
365.76274499999999
  0
LINE
  8
_0-4_A2
  6
CONTINUOUS
 62
    3
 10
305.27489500000001
 20
366.65227299999997
 11
305.47406599999999
 21
378.062745
  0
LINE
  8
_0-4_A2
  6
CONTINUOUS
 62
    3
 10
185.67323599999997
 20
366.65227299999997
 11
185.47406599999999
 21
378.062745
  0
LINE
  8
_0-4_A2
  6
CONTINUOUS
 62
    3
 10
185.47406599999999
 20
378.062745
 11
305.47406599999999
 21
378.062745
  0
ARC
  8
_0-4_A2
  6
CONTINUOUS
 62
    3
 10
186.27314499999999
 20
366.66274499999997
 40
0.6
 50
181
 51
270
  0
ARC
  8
_0-4_A2
  6
CONTINUOUS
 62
    3
 10
304.67498699999998
 20
366.66274499999997
 40
0.6
 50
270
 51
359
  0
ARC
  8
_0-4_A2
  6
CONTINUOUS
 62
    3
 10
301.759295
 20
366.36274500000001
 40
0.6
 50
269.99992699999995
 51
330
  0
ARC
  8
_0-4_A2
  6
CONTINUOUS
 62
    3
 10
277.18883599999998
 20
366.36274500000001
 40
0.6
 50
210.00000000000002
 51
269.99998199999998
  0
LINE
  8
_0-4_A2
  6
PHANTOM
 62
    7
 10
285.95441199999999
 20
355.36274500000001
 11
284.99371999999999
 21
355.36274500000001
  0
LINE
  8
_0-4_A2
  6
PHANTOM
 62
    7
 10
284.973723
 20
355.38239499999997
 11
284.78729700000002
 21
366.06274500000006
  0
LINE
  8
_0-4_A2
  6
PHANTOM
 62
    7
 10
285.97440899999998
 20
355.38239499999997
 11
286.16083500000002
 21
366.06274500000006
  0
LINE
  8
_0-4_A2
  6
PHANTOM
 62
    7
 10
204.973723
 20
355.38239499999997
 11
204.78729700000002
 21
366.06274500000006
  0
LINE
  8
_0-4_A2
  6
PHANTOM
 62
    7
 10
205.97440899999998
 20
355.38239499999997
 11
206.16083500000002
 21
366.06274500000006
  0
LINE
  8
_0-4_A2
  6
PHANTOM
 62
    7
 10
204.99371999999999
 20
355.36274500000001
 11
205.95441199999999
 21
355.36274500000001
  0
LINE
  8
_0-4_A2
  6
PHANTOM
 62
    7
 10
188.22711399999997
 20
353.36274500000001
 11
302.72101800000001
 21
353.36274500000001
  0
LINE
  8
_0-4_A2
  6
PHANTOM
 62
    7
 10
187.07406600000001
 20
366.06274500000006
 11
187.82785999999998
 21
353.73832500000003
  0
LINE
  8
_0-4_A2
  6
PHANTOM
 62
    7
 10
303.87406600000002
 20
366.06274500000006
 11
303.12027199999999
 21
353.73832500000003
  0
LINE
  8
_0-4_A2
  6
PHANTOM
 62
    7
 10
187.07406600000001
 20
366.06274500000006
 11
303.87406600000002
 21
366.06274500000006
  0
LINE
  8
_0-4_A2
  6
CENTER
 62
    7
 10
245.47406599999999
 20
368.42193900000006
 11
245.47406599999999
 21
345.55557199999998
  0
ARC
  8
_0-4_A2
  6
PHANTOM
 62
    7
 10
284.99371999999999
 20
355.38274499999999
 40
0.02
 50
181
 51
270
  0
ARC
  8
_0-4_A2
  6
PHANTOM
 62
    7
 10
285.95441199999999
 20
355.38274499999999
 40
0.02
 50
270
 51
359
  0
ARC
  8
_0-4_A2
  6
PHANTOM
 62
    7
 10
205.95441199999999
 20
355.38274499999999
 40
0.02
 50
270
 51
359
  0
ARC
  8
_0-4_A2
  6
PHANTOM
 62
    7
 10
204.99371999999999
 20
355.38274499999999
 40
0.02
 50
181
 51
270
  0
ARC
  8
_0-4_A2
  6
PHANTOM
 62
    7
 10
302.72101800000001
 20
353.76274499999999
 40
0.4000000000000001
 50
270
 51
356.5
  0
ARC
  8
_0-4_A2
  6
PHANTOM
 62
    7
 10
188.22711399999997
 20
353.76274499999999
 40
0.4000000000000001
 50
183.5
 51
270
  0
LINE
  8
_0-4_A2
  6
PHANTOM
 62
    7
 10
212.474061
 20
351.568802
 11
188.07406600000001
 21
351.568802
  0
LINE
  8
_0-4_A2
  6
PHANTOM
 62
    7
 10
212.474061
 20
351.068802
 11
188.07406600000001
 21
351.068802
  0
LINE
  8
_0-4_A2
  6
PHANTOM
 62
    7
 10
197.07406099999997
 20
374.21926600000006
 11
197.07406099999997
 21
374.06968700000004
  0
LINE
  8
_0-4_A2
  6
PHANTOM
 62
    7
 10
209.07406099999997
 20
375.90013099999998
 11
209.07406099999997
 21
375.760715
  0
LINE
  8
_0-4_A2
  6
PHANTOM
 62
    7
 10
196.07406099999997
 20
373.57346400000005
 11
196.07406099999997
 21
372.319904
  0
LINE
  8
_0-4_A2
  6
PHANTOM
 62
    7
 10
210.07406099999997
 20
375.28355900000008
 11
210.07406099999997
 21
373.98828300000002
  0
LINE
  8
_0-4_A2
  6
PHANTOM
 62
    7
 10
186.97406599999996
 20
365.790163
 11
186.97406599999996
 21
352.66880200000002
  0
LINE
  8
_0-4_A2
  6
PHANTOM
 62
    7
 10
186.47406599999999
 20
365.790163
 11
186.47406599999999
 21
352.66880200000002
  0
LINE
  8
_0-4_A2
  6
PHANTOM
 62
    7
 10
214.07406099999997
 20
366.89585799999997
 11
214.07406099999997
 21
352.66880200000002
  0
LINE
  8
_0-4_A2
  6
PHANTOM
 62
    7
 10
213.57406099999997
 20
366.98763900000005
 11
213.57406099999997
 21
352.66880200000002
  0
ARC
  8
_0-4_A2
  6
PHANTOM
 62
    7
 10
212.474061
 20
352.66880200000002
 40
1.6000000000000005
 50
270
 51
0
  0
ARC
  8
_0-4_A2
  6
PHANTOM
 62
    7
 10
212.474061
 20
352.66880200000002
 40
1.1000000000000003
 50
270
 51
0
  0
ARC
  8
_0-4_A2
  6
PHANTOM
 62
    7
 10
188.07406600000001
 20
352.66880200000002
 40
1.1000000000000003
 50
180
 51
270
  0
ARC
  8
_0-4_A2
  6
PHANTOM
 62
    7
 10
188.07406600000001
 20
352.66880200000002
 40
1.6000000000000005
 50
180
 51
270
  0
ARC
  8
_0-4_A2
  6
PHANTOM
 62
    7
 10
205.07406099999997
 20
366.89585799999997
 40
9
 50
2.457602
 51
6.7250110000000002
  0
ARC
  8
_0-4_A2
  6
PHANTOM
 62
    7
 10
197.17406099999999
 20
374.21926600000006
 40
0.1
 50
112.36729099999998
 51
180
  0
ARC
  8
_0-4_A2
  6
PHANTOM
 62
    7
 10
208.974061
 20
375.90013099999998
 40
0.1
 50
0
 51
71.732840999999993
  0
ARC
  8
_0-4_A2
  6
PHANTOM
 62
    7
 10
212.890466
 20
336.02653700000001
 40
41.399999999999998
 50
107.55088999999999
 51
112.36729099999999
  0
ARC
  8
_0-4_A2
  6
PHANTOM
 62
    7
 10
206.85941000000002
 20
355.09552600000006
 40
21.400000000000002
 50
93.824551999999997
 51
107.550897
  0
ARC
  8
_0-4_A2
  6
PHANTOM
 62
    7
 10
206.05899299999998
 20
367.068802
 40
9.4000000000000003
 50
71.732840999999993
 51
93.824551999999997
  0
ARC
  8
_0-4_A2
  6
PHANTOM
 62
    7
 10
209.974061
 20
375.28355900000008
 40
0.1
 50
0
 51
64.518014999999991
  0
ARC
  8
_0-4_A2
  6
PHANTOM
 62
    7
 10
196.17406099999999
 20
373.57346400000005
 40
0.1
 50
113.99928199999999
 51
180
  0
ARC
  8
_0-4_A2
  6
PHANTOM
 62
    7
 10
206.05899299999998
 20
367.068802
 40
8.9000000000000021
 50
63.183711000000002
 51
93.824551999999997
  0
ARC
  8
_0-4_A2
  6
PHANTOM
 62
    7
 10
206.85941000000002
 20
355.09552600000006
 40
20.900000000000002
 50
93.824551999999997
 51
107.550897
  0
ARC
  8
_0-4_A2
  6
PHANTOM
 62
    7
 10
212.890466
 20
336.02653700000001
 40
40.900000000000005
 50
107.55088999999999
 51
114.27766599999999
  0
ARC
  8
_0-4_A2
  6
PHANTOM
 62
    7
 10
206.05899299999998
 20
367.068802
 40
9.200000000000001
 50
64.518014999999991
 51
93.824551999999982
  0
ARC
  8
_0-4_A2
  6
PHANTOM
 62
    7
 10
206.85941000000002
 20
355.09552600000006
 40
21.200000000000002
 50
93.824551999999997
 51
107.550897
  0
ARC
  8
_0-4_A2
  6
PHANTOM
 62
    7
 10
212.890466
 20
336.02653700000001
 40
41.200000000000002
 50
107.55088999999999
 51
113.99928199999999
  0
ARC
  8
_0-4_A2
  6
PHANTOM
 62
    7
 10
206.05899299999998
 20
367.068802
 40
8.5999999999999996
 50
62.168790000000001
 51
93.824551999999997
  0
ARC
  8
_0-4_A2
  6
PHANTOM
 62
    7
 10
206.85941000000002
 20
355.09552600000006
 40
20.600000000000001
 50
93.824551999999997
 51
107.550897
  0
ARC
  8
_0-4_A2
  6
PHANTOM
 62
    7
 10
212.890466
 20
336.02653700000001
 40
40.600000000000008
 50
107.55088999999999
 51
114.46876899999999
  0
ARC
  8
_0-4_A2
  6
PHANTOM
 62
    7
 10
205.07406099999997
 20
366.89585799999997
 40
8.5000000000000017
 50
0
 51
9.9590340000000008
  0
ARC
  8
_0-4_A2
  6
PHANTOM
 62
    7
 10
206.05899299999998
 20
367.068802
 40
7.5
 50
9.9590340000000008
 51
93.824551999999982
  0
ARC
  8
_0-4_A2
  6
PHANTOM
 62
    7
 10
206.85941000000002
 20
355.09552600000006
 40
19.500000000000003
 50
93.824551999999997
 51
107.550897
  0
ARC
  8
_0-4_A2
  6
PHANTOM
 62
    7
 10
212.890466
 20
336.02653700000001
 40
39.5
 50
107.55088999999999
 51
130.93774300000001
  0
ARC
  8
_0-4_A2
  6
PHANTOM
 62
    7
 10
205.07406099999997
 20
366.89585799999997
 40
9
 50
0
 51
9.9590390000000006
  0
ARC
  8
_0-4_A2
  6
PHANTOM
 62
    7
 10
187.07406600000001
 20
365.790163
 40
0.1
 50
130.93774300000001
 51
180
  0
ARC
  8
_0-4_A2
  6
PHANTOM
 62
    7
 10
187.07406600000001
 20
365.790163
 40
0.6
 50
130.93774300000001
 51
180
  0
ARC
  8
_0-4_A2
  6
PHANTOM
 62
    7
 10
212.890466
 20
336.02653700000001
 40
40
 50
107.55088999999999
 51
130.93774300000001
  0
ARC
  8
_0-4_A2
  6
PHANTOM
 62
    7
 10
206.05899299999998
 20
367.068802
 40
8
 50
10.267739
 51
93.824551999999982
  0
ARC
  8
_0-4_A2
  6
PHANTOM
 62
    7
 10
206.85941000000002
 20
355.09552600000006
 40
20
 50
93.824551999999997
 51
107.550897
  0
LINE
  8
_0-4_A2
  6
PHANTOM
 62
    7
 10
278.47407099999998
 20
351.568802
 11
302.87406600000002
 21
351.568802
  0
LINE
  8
_0-4_A2
  6
PHANTOM
 62
    7
 10
278.47407099999998
 20
351.068802
 11
302.87406600000002
 21
351.068802
  0
LINE
  8
_0-4_A2
  6
PHANTOM
 62
    7
 10
293.87407100000001
 20
374.21926600000006
 11
293.87407100000001
 21
374.06968700000004
  0
LINE
  8
_0-4_A2
  6
PHANTOM
 62
    7
 10
281.87407100000001
 20
375.90013099999998
 11
281.87407100000001
 21
375.760715
  0
LINE
  8
_0-4_A2
  6
PHANTOM
 62
    7
 10
294.87407100000001
 20
373.57346400000005
 11
294.87407100000001
 21
372.319904
  0
LINE
  8
_0-4_A2
  6
PHANTOM
 62
    7
 10
280.87407100000001
 20
375.28355900000008
 11
280.87407100000001
 21
373.98828300000002
  0
LINE
  8
_0-4_A2
  6
PHANTOM
 62
    7
 10
303.97406599999999
 20
365.790163
 11
303.97406599999999
 21
352.66880200000002
  0
LINE
  8
_0-4_A2
  6
PHANTOM
 62
    7
 10
304.47406599999999
 20
365.790163
 11
304.47406599999999
 21
352.66880200000002
  0
LINE
  8
_0-4_A2
  6
PHANTOM
 62
    7
 10
276.87407100000001
 20
366.89585799999997
 11
276.87407100000001
 21
352.66880200000002
  0
LINE
  8
_0-4_A2
  6
PHANTOM
 62
    7
 10
277.37407100000001
 20
366.98763900000005
 11
277.37407100000001
 21
352.66880200000002
  0
ARC
  8
_0-4_A2
  6
PHANTOM
 62
    7
 10
278.47407099999998
 20
352.66880200000002
 40
1.6000000000000005
 50
180
 51
270
  0
ARC
  8
_0-4_A2
  6
PHANTOM
 62
    7
 10
278.47407099999998
 20
352.66880200000002
 40
1.1000000000000003
 50
180
 51
270
  0
ARC
  8
_0-4_A2
  6
PHANTOM
 62
    7
 10
302.87406600000002
 20
352.66880200000002
 40
1.1000000000000003
 50
270
 51
0
  0
ARC
  8
_0-4_A2
  6
PHANTOM
 62
    7
 10
302.87406600000002
 20
352.66880200000002
 40
1.6000000000000005
 50
270
 51
0
  0
ARC
  8
_0-4_A2
  6
PHANTOM
 62
    7
 10
285.87407100000001
 20
366.89585799999997
 40
9
 50
173.274989
 51
177.54239799999999
  0
ARC
  8
_0-4_A2
  6
PHANTOM
 62
    7
 10
293.77407099999999
 20
374.21926600000006
 40
0.1
 50
0
 51
67.632709000000005
  0
ARC
  8
_0-4_A2
  6
PHANTOM
 62
    7
 10
281.97407099999998
 20
375.90013099999998
 40
0.1
 50
108.267159
 51
180
  0
ARC
  8
_0-4_A2
  6
PHANTOM
 62
    7
 10
278.05766599999998
 20
336.02653700000001
 40
41.399999999999998
 50
67.632709000000005
 51
72.449110000000004
  0
ARC
  8
_0-4_A2
  6
PHANTOM
 62
    7
 10
284.08872200000001
 20
355.09552600000006
 40
21.400000000000002
 50
72.449102999999993
 51
86.175448000000017
  0
ARC
  8
_0-4_A2
  6
PHANTOM
 62
    7
 10
284.889139
 20
367.068802
 40
9.4000000000000003
 50
86.175448000000002
 51
108.26715899999999
  0
ARC
  8
_0-4_A2
  6
PHANTOM
 62
    7
 10
280.97407099999998
 20
375.28355900000008
 40
0.1
 50
115.48198499999998
 51
179.99999999999997
  0
ARC
  8
_0-4_A2
  6
PHANTOM
 62
    7
 10
294.77407099999999
 20
373.57346400000005
 40
0.1
 50
0
 51
66.000718000000006
  0
ARC
  8
_0-4_A2
  6
PHANTOM
 62
    7
 10
284.889139
 20
367.068802
 40
8.9000000000000021
 50
86.175448000000002
 51
116.81628899999999
  0
ARC
  8
_0-4_A2
  6
PHANTOM
 62
    7
 10
284.08872200000001
 20
355.09552600000006
 40
20.900000000000002
 50
72.449102999999993
 51
86.175448000000017
  0
ARC
  8
_0-4_A2
  6
PHANTOM
 62
    7
 10
278.05766599999998
 20
336.02653700000001
 40
40.900000000000005
 50
65.722334000000003
 51
72.449110000000004
  0
ARC
  8
_0-4_A2
  6
PHANTOM
 62
    7
 10
284.889139
 20
367.068802
 40
9.200000000000001
 50
86.175448000000002
 51
115.48198499999998
  0
ARC
  8
_0-4_A2
  6
PHANTOM
 62
    7
 10
284.08872200000001
 20
355.09552600000006
 40
21.200000000000002
 50
72.449102999999993
 51
86.175448000000017
  0
ARC
  8
_0-4_A2
  6
PHANTOM
 62
    7
 10
278.05766599999998
 20
336.02653700000001
 40
41.200000000000002
 50
66.000718000000006
 51
72.449110000000004
  0
ARC
  8
_0-4_A2
  6
PHANTOM
 62
    7
 10
284.889139
 20
367.068802
 40
8.5999999999999996
 50
86.175448000000002
 51
117.83120999999999
  0
ARC
  8
_0-4_A2
  6
PHANTOM
 62
    7
 10
284.08872200000001
 20
355.09552600000006
 40
20.600000000000001
 50
72.449102999999993
 51
86.175448000000017
  0
ARC
  8
_0-4_A2
  6
PHANTOM
 62
    7
 10
278.05766599999998
 20
336.02653700000001
 40
40.600000000000008
 50
65.531231000000005
 51
72.449110000000004
  0
ARC
  8
_0-4_A2
  6
PHANTOM
 62
    7
 10
285.87407100000001
 20
366.89585799999997
 40
8.5000000000000017
 50
170.04096599999999
 51
180
  0
ARC
  8
_0-4_A2
  6
PHANTOM
 62
    7
 10
284.889139
 20
367.068802
 40
7.5
 50
86.175448000000002
 51
170.04096599999999
  0
ARC
  8
_0-4_A2
  6
PHANTOM
 62
    7
 10
284.08872200000001
 20
355.09552600000006
 40
19.500000000000003
 50
72.449102999999993
 51
86.175448000000017
  0
ARC
  8
_0-4_A2
  6
PHANTOM
 62
    7
 10
278.05766599999998
 20
336.02653700000001
 40
39.5
 50
49.062257000000002
 51
72.449110000000004
  0
ARC
  8
_0-4_A2
  6
PHANTOM
 62
    7
 10
285.87407100000001
 20
366.89585799999997
 40
9
 50
170.04096100000001
 51
180
  0
ARC
  8
_0-4_A2
  6
PHANTOM
 62
    7
 10
303.87406600000002
 20
365.790163
 40
0.1
 50
0
 51
49.062257000000002
  0
ARC
  8
_0-4_A2
  6
PHANTOM
 62
    7
 10
303.87406600000002
 20
365.790163
 40
0.6
 50
0
 51
49.062257000000002
  0
ARC
  8
_0-4_A2
  6
PHANTOM
 62
    7
 10
278.05766599999998
 20
336.02653700000001
 40
40
 50
49.062257000000002
 51
72.449110000000004
  0
ARC
  8
_0-4_A2
  6
PHANTOM
 62
    7
 10
284.889139
 20
367.068802
 40
8
 50
86.175448000000002
 51
169.73226099999999
  0
ARC
  8
_0-4_A2
  6
PHANTOM
 62
    7
 10
284.08872200000001
 20
355.09552600000006
 40
20
 50
72.449102999999993
 51
86.175448000000017
  0
LINE
  8
_0-4_A2
  6
CENTER
 62
    7
 10
245.47406599999999
 20
382.32744000000002
 11
245.47406599999999
 21
347.95662200000003
  0
LINE
  8
_0-4_A2
  6
CONTINUOUS
 62
    7
 10
443.472259
 20
120.09403899999998
 11
437.57225900000003
 21
120.09403899999998
  0
LINE
  8
_0-4_A2
  6
CONTINUOUS
 62
    7
 10
458.57325000000003
 20
120.09403899999998
 11
443.472259
 21
120.09403899999998
  0
LINE
  8
_0-4_A2
  6
CONTINUOUS
 62
    7
 10
443.472259
 20
120.09403899999998
 11
446.01225899999997
 21
120.09403899999998
  0
LINE
  8
_0-4_A2
  6
CONTINUOUS
 62
    7
 10
437.57225900000003
 20
120.09403899999998
 11
435.03225900000006
 21
120.09403899999998
  0
INSERT
  2
-000-_DOTSMALL
  8
_0-4_A2
 10
443.472259
 20
120.09403899999998
 41
1.8560000000000003
 42
1.8560000000000003
 50
180
  0
INSERT
  2
-000-_DOTSMALL
  8
_0-4_A2
 10
437.57225900000003
 20
120.09403899999998
 41
1.8560000000000003
 42
1.8560000000000003
 50
0
  0
LINE
  8
_0-4_A2
  6
CONTINUOUS
 62
    7
 10
155.47223499999998
 20
155.58434500000001
 11
155.47223499999998
 21
273.78433899999998
  0
LINE
  8
_0-4_A2
  6
CONTINUOUS
 62
    7
 10
214.20223499999997
 20
155.58434500000001
 11
153.18623500000001
 21
155.58434500000001
  0
LINE
  8
_0-4_A2
  6
CONTINUOUS
 62
    7
 10
214.20223499999997
 20
273.78433899999998
 11
153.18623500000001
 21
273.78433899999998
  0
INSERT
  2
-000-_DOTSMALL
  8
_0-4_A2
 10
155.47223499999998
 20
155.58434500000001
 41
2.3199999999999998
 42
2.3199999999999998
 50
270
  0
INSERT
  2
-000-_DOTSMALL
  8
_0-4_A2
 10
155.47223499999998
 20
273.78433899999998
 41
2.3199999999999998
 42
2.3199999999999998
 50
90
  0
LINE
  8
_0-4_A2
  6
CONTINUOUS
 62
    7
 10
335.47223500000001
 20
296.18433900000002
 11
335.47223500000001
 21
274.58433899999999
  0
LINE
  8
_0-4_A2
  6
CONTINUOUS
 62
    7
 10
306.74589700000001
 20
296.18433900000002
 11
337.75223499999998
 21
296.18433900000002
  0
LINE
  8
_0-4_A2
  6
CONTINUOUS
 62
    7
 10
305.93641200000001
 20
274.58433899999999
 11
337.75223499999998
 21
274.58433899999999
  0
INSERT
  2
-000-_DOTSMALL
  8
_0-4_A2
 10
335.47223500000001
 20
296.18433900000002
 41
2.3199999999999998
 42
2.3199999999999998
 50
90
  0
INSERT
  2
-000-_DOTSMALL
  8
_0-4_A2
 10
335.47223500000001
 20
274.58433899999999
 41
2.3199999999999998
 42
2.3199999999999998
 50
270
  0
LINE
  8
_0-4_A2
  6
CONTINUOUS
 62
    7
 10
335.47223500000001
 20
144.184345
 11
335.47223500000001
 21
96.984342999999981
  0
LINE
  8
_0-4_A2
  6
CONTINUOUS
 62
    7
 10
305.74589700000001
 20
96.984342999999981
 11
336.38663500000001
 21
96.984342999999981
  0
INSERT
  2
-000-_DOTSMALL
  8
_0-4_A2
 10
335.47223500000001
 20
144.184345
 41
2.3199999999999998
 42
2.3199999999999998
 50
90
  0
INSERT
  2
-000-_DOTSMALL
  8
_0-4_A2
 10
335.47223500000001
 20
96.984342999999981
 41
2.3199999999999998
 42
2.3199999999999998
 50
270
  0
LINE
  8
_0-4_A2
  6
CONTINUOUS
 62
    7
 10
431.472259
 20
315.728135
 11
443.472259
 21
315.728135
  0
LINE
  8
_0-4_A2
  6
CONTINUOUS
 62
    7
 10
431.472259
 20
296.45526699999999
 11
431.472259
 21
318.01413500000001
  0
INSERT
  2
-000-_DOTSMALL
  8
_0-4_A2
 10
431.472259
 20
315.728135
 41
2.3199999999999998
 42
2.3199999999999998
 50
180
  0
INSERT
  2
-000-_DOTSMALL
  8
_0-4_A2
 10
443.472259
 20
315.728135
 41
2.3199999999999998
 42
2.3199999999999998
 50
0
  0
LINE
  8
_0-4_A2
  6
CONTINUOUS
 62
    7
 10
215.47406599999999
 20
315.728135
 11
275.47406599999999
 21
315.728135
  0
LINE
  8
_0-4_A2
  6
CONTINUOUS
 62
    7
 10
215.47406599999999
 20
295.25433900000001
 11
215.47406599999999
 21
318.01413500000001
  0
LINE
  8
_0-4_A2
  6
CONTINUOUS
 62
    7
 10
275.47406599999999
 20
295.25433900000001
 11
275.47406599999999
 21
318.01413500000001
  0
INSERT
  2
-000-_DOTSMALL
  8
_0-4_A2
 10
215.47406599999999
 20
315.728135
 41
2.3199999999999998
 42
2.3199999999999998
 50
180
  0
INSERT
  2
-000-_DOTSMALL
  8
_0-4_A2
 10
275.47406599999999
 20
315.728135
 41
2.3199999999999998
 42
2.3199999999999998
 50
0
  0
LINE
  8
_0-4_A2
  6
CONTINUOUS
 62
    7
 10
418.77225900000001
 20
325.05614400000001
 11
443.47224000000005
 21
325.05614400000001
  0
LINE
  8
_0-4_A2
  6
CONTINUOUS
 62
    7
 10
418.77225900000001
 20
297.454339
 11
418.77225900000001
 21
327.34214400000001
  0
LINE
  8
_0-4_A2
  6
CONTINUOUS
 62
    7
 10
443.47224000000005
 20
297.454339
 11
443.47224000000005
 21
327.34214400000001
  0
INSERT
  2
-000-_DOTSMALL
  8
_0-4_A2
 10
418.77225900000001
 20
325.05614400000001
 41
2.3199999999999998
 42
2.3199999999999998
 50
180
  0
INSERT
  2
-000-_DOTSMALL
  8
_0-4_A2
 10
443.47224000000005
 20
325.05614400000001
 41
2.3199999999999998
 42
2.3199999999999998
 50
0
  0
LINE
  8
_0-4_A2
  6
CONTINUOUS
 62
    7
 10
443.472259
 20
65.984343999999993
 11
417.43225899999998
 21
65.984343999999993
  0
LINE
  8
_0-4_A2
  6
CONTINUOUS
 62
    7
 10
443.472259
 20
94.614328999999969
 11
443.472259
 21
63.698343999999963
  0
LINE
  8
_0-4_A2
  6
CONTINUOUS
 62
    7
 10
417.43225899999998
 20
142.03415000000001
 11
417.43225899999998
 21
63.698343999999963
  0
INSERT
  2
-000-_DOTSMALL
  8
_0-4_A2
 10
443.472259
 20
65.984343999999993
 41
2.3199999999999998
 42
2.3199999999999998
 50
0
  0
INSERT
  2
-000-_DOTSMALL
  8
_0-4_A2
 10
417.43225899999998
 20
65.984343999999993
 41
2.3199999999999998
 42
2.3199999999999998
 50
180
  0
LINE
  8
_0-4_A2
  6
CONTINUOUS
 62
    7
 10
335.47223500000001
 20
274.58433899999999
 11
335.47223500000001
 21
225.184345
  0
LINE
  8
_0-4_A2
  6
CONTINUOUS
 62
    7
 10
305.93641200000001
 20
274.58433899999999
 11
336.38663500000001
 21
274.58433899999999
  0
LINE
  8
_0-4_A2
  6
CONTINUOUS
 62
    7
 10
305.74587300000001
 20
225.184345
 11
336.38663500000001
 21
225.184345
  0
INSERT
  2
-000-_DOTSMALL
  8
_0-4_A2
 10
335.47223500000001
 20
274.58433899999999
 41
2.3199999999999998
 42
2.3199999999999998
 50
90
  0
INSERT
  2
-000-_DOTSMALL
  8
_0-4_A2
 10
335.47223500000001
 20
225.184345
 41
2.3199999999999998
 42
2.3199999999999998
 50
270
  0
LINE
  8
_0-4_A2
  6
CONTINUOUS
 62
    7
 10
185.47223500000001
 20
325.05614400000001
 11
305.47223500000001
 21
325.05614400000001
  0
LINE
  8
_0-4_A2
  6
CONTINUOUS
 62
    7
 10
185.47223500000001
 20
298.45433300000001
 11
185.47223500000001
 21
327.34214400000001
  0
LINE
  8
_0-4_A2
  6
CONTINUOUS
 62
    7
 10
305.47223500000001
 20
298.45433300000001
 11
305.47223500000001
 21
327.34214400000001
  0
INSERT
  2
-000-_DOTSMALL
  8
_0-4_A2
 10
185.47223500000001
 20
325.05614400000001
 41
2.3199999999999998
 42
2.3199999999999998
 50
180
  0
INSERT
  2
-000-_DOTSMALL
  8
_0-4_A2
 10
305.47223500000001
 20
325.05614400000001
 41
2.3199999999999998
 42
2.3199999999999998
 50
0
  0
LINE
  8
_0-4_A2
  6
CONTINUOUS
 62
    7
 10
335.47223500000001
 20
192.184345
 11
335.47223500000001
 21
144.184345
  0
LINE
  8
_0-4_A2
  6
CONTINUOUS
 62
    7
 10
305.74587300000001
 20
144.184345
 11
336.38663500000001
 21
144.184345
  0
INSERT
  2
-000-_DOTSMALL
  8
_0-4_A2
 10
335.47223500000001
 20
192.184345
 41
2.3199999999999998
 42
2.3199999999999998
 50
90
  0
INSERT
  2
-000-_DOTSMALL
  8
_0-4_A2
 10
335.47223500000001
 20
144.184345
 41
2.3199999999999998
 42
2.3199999999999998
 50
270
  0
LINE
  8
_0-4_A2
  6
CONTINUOUS
 62
    7
 10
335.47223500000001
 20
225.184345
 11
335.47223500000001
 21
192.184345
  0
LINE
  8
_0-4_A2
  6
CONTINUOUS
 62
    7
 10
305.74587300000001
 20
192.184345
 11
336.38663500000001
 21
192.184345
  0
INSERT
  2
-000-_DOTSMALL
  8
_0-4_A2
 10
335.47223500000001
 20
225.184345
 41
2.3199999999999998
 42
2.3199999999999998
 50
90
  0
INSERT
  2
-000-_DOTSMALL
  8
_0-4_A2
 10
335.47223500000001
 20
192.184345
 41
2.3199999999999998
 42
2.3199999999999998
 50
270
  0
LINE
  8
_0-4_A2
  6
CONTINUOUS
 62
    7
 10
350.47223500000001
 20
296.18433900000002
 11
350.47223500000001
 21
96.984342999999981
  0
LINE
  8
_0-4_A2
  6
CONTINUOUS
 62
    7
 10
306.74225899999999
 20
296.18433900000002
 11
351.38663500000001
 21
296.18433900000002
  0
INSERT
  2
-000-_DOTSMALL
  8
_0-4_A2
 10
350.47223500000001
 20
296.18433900000002
 41
2.3199999999999998
 42
2.3199999999999998
 50
90
  0
INSERT
  2
-000-_DOTSMALL
  8
_0-4_A2
 10
350.47223500000001
 20
96.984342999999981
 41
2.3199999999999998
 42
2.3199999999999998
 50
270
  0
LINE
  8
_0-4_A2
  6
CONTINUOUS
 62
    7
 10
350.47223500000001
 20
96.984342999999981
 11
350.47223500000001
 21
95.984343999999978
  0
LINE
  8
_0-4_A2
  6
CONTINUOUS
 62
    7
 10
350.47223500000001
 20
95.984343999999978
 11
350.47223500000001
 21
86.456417999999999
  0
LINE
  8
_0-4_A2
  6
CONTINUOUS
 62
    7
 10
305.74225899999999
 20
96.984342999999981
 11
352.75823500000001
 21
96.984342999999981
  0
LINE
  8
_0-4_A2
  6
CONTINUOUS
 62
    7
 10
305.74225899999999
 20
95.984343999999978
 11
352.75823500000001
 21
95.984343999999978
  0
INSERT
  2
-000-_DOTSMALL
  8
_0-4_A2
 10
350.47223500000001
 20
96.984342999999981
 41
2.3199999999999998
 42
2.3199999999999998
 50
90
  0
INSERT
  2
-000-_DOTSMALL
  8
_0-4_A2
 10
350.47223500000001
 20
95.984343999999978
 41
2.3199999999999998
 42
2.3199999999999998
 50
270
  0
ARC
  8
_0-4_A2
  6
PHANTOM
 62
    7
 10
302.81632200000001
 20
226.58434500000001
 40
1.6000000000000005
 50
270
 51
359.5
  0
ARC
  8
_0-4_A2
  6
PHANTOM
 62
    7
 10
277.53683699999999
 20
225.58434500000001
 40
0.6
 50
180.5
 51
270
  0
ARC
  8
_0-4_A2
  6
PHANTOM
 62
    7
 10
277.12442600000002
 20
232.73434499999999
 40
0.25
 50
90
 51
180.5
  0
ARC
  8
_0-4_A2
  6
PHANTOM
 62
    7
 10
304.22004399999997
 20
232.73434499999999
 40
0.25
 50
359.5
 51
89.999999999999971
  0
LINE
  8
_0-4_A2
  6
PHANTOM
 62
    7
 10
277.53683699999999
 20
224.98434499999999
 11
302.81632200000001
 21
224.98434499999999
  0
LINE
  8
_0-4_A2
  6
PHANTOM
 62
    7
 10
277.12442600000002
 20
232.98434499999999
 11
304.22004399999997
 21
232.98434499999999
  0
LINE
  8
_0-4_A2
  6
PHANTOM
 62
    7
 10
276.874436
 20
232.73216300000001
 11
276.93685900000002
 21
225.57910899999998
  0
LINE
  8
_0-4_A2
  6
PHANTOM
 62
    7
 10
304.47003399999999
 20
232.73216300000001
 11
304.41626100000001
 21
226.57038199999999
  0
ARC
  8
_0-4_A2
  6
PHANTOM
 62
    7
 10
302.81632200000001
 20
145.58434499999998
 40
1.6000000000000005
 50
270
 51
359.5
  0
ARC
  8
_0-4_A2
  6
PHANTOM
 62
    7
 10
277.53683699999999
 20
144.58434499999998
 40
0.6
 50
180.5
 51
270
  0
ARC
  8
_0-4_A2
  6
PHANTOM
 62
    7
 10
277.12442600000002
 20
151.73434499999999
 40
0.25
 50
90
 51
180.5
  0
ARC
  8
_0-4_A2
  6
PHANTOM
 62
    7
 10
304.22004399999997
 20
151.73434499999999
 40
0.25
 50
359.5
 51
89.999999999999971
  0
LINE
  8
_0-4_A2
  6
PHANTOM
 62
    7
 10
277.53683699999999
 20
143.98434499999996
 11
302.81632200000001
 21
143.98434499999996
  0
LINE
  8
_0-4_A2
  6
PHANTOM
 62
    7
 10
277.12442600000002
 20
151.98434499999999
 11
304.22004399999997
 21
151.98434499999999
  0
LINE
  8
_0-4_A2
  6
PHANTOM
 62
    7
 10
276.874436
 20
151.73216300000001
 11
276.93685900000002
 21
144.57910899999995
  0
LINE
  8
_0-4_A2
  6
PHANTOM
 62
    7
 10
304.47003399999999
 20
151.73216300000001
 11
304.41626100000001
 21
145.57038199999999
  0
ARC
  8
_0-4_A2
  6
PHANTOM
 62
    7
 10
188.12814800000001
 20
226.58434500000001
 40
1.6000000000000005
 50
180.5
 51
270
  0
ARC
  8
_0-4_A2
  6
PHANTOM
 62
    7
 10
213.40763299999997
 20
225.58434500000001
 40
0.6
 50
270
 51
359.5
  0
ARC
  8
_0-4_A2
  6
PHANTOM
 62
    7
 10
213.82004399999999
 20
232.73434499999999
 40
0.25
 50
359.5
 51
89.999999999999971
  0
ARC
  8
_0-4_A2
  6
PHANTOM
 62
    7
 10
186.72442599999999
 20
232.73434499999999
 40
0.25
 50
90
 51
180.5
  0
LINE
  8
_0-4_A2
  6
PHANTOM
 62
    7
 10
213.40763299999997
 20
224.98434499999999
 11
188.12814800000001
 21
224.98434499999999
  0
LINE
  8
_0-4_A2
  6
PHANTOM
 62
    7
 10
213.82004399999999
 20
232.98434499999999
 11
186.72442599999999
 21
232.98434499999999
  0
LINE
  8
_0-4_A2
  6
PHANTOM
 62
    7
 10
214.07003400000002
 20
232.73216300000001
 11
214.00760999999999
 21
225.57910899999998
  0
LINE
  8
_0-4_A2
  6
PHANTOM
 62
    7
 10
186.47443600000002
 20
232.73216300000001
 11
186.528209
 21
226.57038199999999
  0
ARC
  8
_0-4_A2
  6
PHANTOM
 62
    7
 10
188.12814800000001
 20
193.58434500000001
 40
1.6000000000000005
 50
180.5
 51
270
  0
ARC
  8
_0-4_A2
  6
PHANTOM
 62
    7
 10
213.40763299999997
 20
192.58434500000001
 40
0.6
 50
270
 51
359.5
  0
ARC
  8
_0-4_A2
  6
PHANTOM
 62
    7
 10
213.82004399999999
 20
199.73434499999999
 40
0.25
 50
359.5
 51
89.999999999999971
  0
ARC
  8
_0-4_A2
  6
PHANTOM
 62
    7
 10
186.72442599999999
 20
199.73434499999999
 40
0.25
 50
90
 51
180.5
  0
LINE
  8
_0-4_A2
  6
PHANTOM
 62
    7
 10
213.40763299999997
 20
191.98434499999999
 11
188.12814800000001
 21
191.98434499999999
  0
LINE
  8
_0-4_A2
  6
PHANTOM
 62
    7
 10
213.82004399999999
 20
199.98434499999999
 11
186.72442599999999
 21
199.98434499999999
  0
LINE
  8
_0-4_A2
  6
PHANTOM
 62
    7
 10
214.07003400000002
 20
199.73216300000001
 11
214.00760999999999
 21
192.57910899999998
  0
LINE
  8
_0-4_A2
  6
PHANTOM
 62
    7
 10
186.47443600000002
 20
199.73216300000001
 11
186.528209
 21
193.57038199999999
  0
ARC
  8
_0-4_A2
  6
PHANTOM
 62
    7
 10
188.12814800000001
 20
145.58434499999998
 40
1.6000000000000005
 50
180.5
 51
270
  0
ARC
  8
_0-4_A2
  6
PHANTOM
 62
    7
 10
213.40763299999997
 20
144.58434499999998
 40
0.6
 50
270
 51
359.5
  0
ARC
  8
_0-4_A2
  6
PHANTOM
 62
    7
 10
213.82004399999999
 20
151.73434499999999
 40
0.25
 50
359.5
 51
89.999999999999971
  0
ARC
  8
_0-4_A2
  6
PHANTOM
 62
    7
 10
186.72442599999999
 20
151.73434499999999
 40
0.25
 50
90
 51
180.5
  0
LINE
  8
_0-4_A2
  6
PHANTOM
 62
    7
 10
213.40763299999997
 20
143.98434499999996
 11
188.12814800000001
 21
143.98434499999996
  0
LINE
  8
_0-4_A2
  6
PHANTOM
 62
    7
 10
213.82004399999999
 20
151.98434499999999
 11
186.72442599999999
 21
151.98434499999999
  0
LINE
  8
_0-4_A2
  6
PHANTOM
 62
    7
 10
214.07003400000002
 20
151.73216300000001
 11
214.00760999999999
 21
144.57910899999995
  0
LINE
  8
_0-4_A2
  6
PHANTOM
 62
    7
 10
186.47443600000002
 20
151.73216300000001
 11
186.528209
 21
145.57038199999999
  0
ARC
  8
_0-4_A2
  6
CONTINUOUS
 62
    3
 10
284.52223500000002
 20
215.59346999999999
 40
0.1
 50
264.99999200000002
 51
0.0000360000000278
  0
ARC
  8
_0-4_A2
  6
CONTINUOUS
 62
    3
 10
283.57223499999997
 20
216.58002099999998
 40
1
 50
179.999964
 51
264.99986499999999
  0
ARC
  8
_0-4_A2
  6
CONTINUOUS
 62
    3
 10
284.52223500000002
 20
218.37520599999999
 40
0.1
 50
359.99998099999999
 51
95.000007999999994
  0
ARC
  8
_0-4_A2
  6
CONTINUOUS
 62
    3
 10
283.57223499999997
 20
217.388654
 40
1
 50
95.000007999999994
 51
179.999964
  0
ARC
  8
_0-4_A2
  6
CONTINUOUS
 62
    3
 10
285.422235
 20
215.59346999999999
 40
0.1
 50
179.999964
 51
275.00002699999998
  0
ARC
  8
_0-4_A2
  6
CONTINUOUS
 62
    3
 10
286.37223499999998
 20
216.58002099999998
 40
1
 50
275.00009899999997
 51
0.0000100000000013
  0
ARC
  8
_0-4_A2
  6
CONTINUOUS
 62
    3
 10
285.422235
 20
218.37520599999999
 40
0.1
 50
84.999955999999997
 51
180.000019
  0
ARC
  8
_0-4_A2
  6
CONTINUOUS
 62
    3
 10
286.37223499999998
 20
217.388654
 40
1
 50
359.99999000000002
 51
84.999955999999983
  0
ARC
  8
_0-4_A2
  6
CONTINUOUS
 62
    3
 10
287.672235
 20
214.80433999999999
 40
0.1
 50
270.00001800000001
 51
0.0000000000000127
  0
ARC
  8
_0-4_A2
  6
CONTINUOUS
 62
    3
 10
282.27223500000002
 20
219.16433699999998
 40
0.1
 50
89.999982000000002
 51
179.999964
  0
ARC
  8
_0-4_A2
  6
CONTINUOUS
 62
    3
 10
282.27223500000002
 20
214.80433999999999
 40
0.1
 50
179.999964
 51
270.00000099999999
  0
ARC
  8
_0-4_A2
  6
CONTINUOUS
 62
    3
 10
287.672235
 20
219.16433699999998
 40
0.1
 50
0
 51
89.999982000000002
  0
ARC
  8
_0-4_A2
  6
CONTINUOUS
 62
    3
 10
295.03194300000001
 20
216.60434
 40
0.2
 50
179.999964
 51
0
  0
ARC
  8
_0-4_A2
  6
CONTINUOUS
 62
    3
 10
295.03194300000001
 20
217.364337
 40
0.2
 50
0
 51
179.999964
  0
ARC
  8
_0-4_A2
  6
CONTINUOUS
 62
    3
 10
295.03194300000001
 20
217.364337
 40
0.3
 50
0
 51
179.999964
  0
ARC
  8
_0-4_A2
  6
CONTINUOUS
 62
    3
 10
295.03194300000001
 20
216.60434
 40
0.3
 50
179.999964
 51
0
  0
ARC
  8
_0-4_A2
  6
CONTINUOUS
 62
    3
 10
296.672235
 20
214.80433999999999
 40
0.1
 50
270.00001800000001
 51
0.0000000000000127
  0
ARC
  8
_0-4_A2
  6
CONTINUOUS
 62
    3
 10
291.27223500000002
 20
219.16433699999998
 40
0.1
 50
89.999982000000002
 51
179.999964
  0
ARC
  8
_0-4_A2
  6
CONTINUOUS
 62
    3
 10
291.27223500000002
 20
214.80433999999999
 40
0.1
 50
179.999964
 51
270.00000099999999
  0
ARC
  8
_0-4_A2
  6
CONTINUOUS
 62
    3
 10
296.672235
 20
219.16433699999998
 40
0.1
 50
0
 51
89.999982000000002
  0
ARC
  8
_0-4_A2
  6
CONTINUOUS
 62
    3
 10
277.27223500000002
 20
219.68433899999999
 40
0.6
 50
89.999982000000002
 51
179.999964
  0
ARC
  8
_0-4_A2
  6
CONTINUOUS
 62
    3
 10
277.27223500000002
 20
214.28433899999998
 40
0.6
 50
179.999964
 51
270.00000099999999
  0
ARC
  8
_0-4_A2
  6
CONTINUOUS
 62
    3
 10
301.672235
 20
214.28433899999998
 40
0.6
 50
270.00001800000001
 51
0.0000000000000127
  0
ARC
  8
_0-4_A2
  6
CONTINUOUS
 62
    3
 10
301.672235
 20
219.68433899999999
 40
0.6
 50
0
 51
89.999982000000002
  0
ARC
  8
_0-4_A2
  6
CONTINUOUS
 62
    3
 10
277.27223500000002
 20
214.28433899999998
 40
0.8000000000000002
 50
179.999964
 51
270.00000099999999
  0
ARC
  8
_0-4_A2
  6
CONTINUOUS
 62
    3
 10
277.27223500000002
 20
219.68433899999999
 40
0.8000000000000002
 50
89.999982000000002
 51
179.999964
  0
ARC
  8
_0-4_A2
  6
CONTINUOUS
 62
    3
 10
301.672235
 20
214.28433899999998
 40
0.8000000000000002
 50
270.00001800000001
 51
0.0000000000000127
  0
ARC
  8
_0-4_A2
  6
CONTINUOUS
 62
    3
 10
301.672235
 20
219.68433899999999
 40
0.8000000000000002
 50
0
 51
89.999982000000002
  0
LINE
  8
_0-4_A2
  6
CONTINUOUS
 62
    3
 10
284.51352000000002
 20
215.493852
 11
283.48507999999998
 21
215.583829
  0
LINE
  8
_0-4_A2
  6
CONTINUOUS
 62
    3
 10
283.48507899999998
 20
218.384849
 11
284.51351899999997
 21
218.474826
  0
LINE
  8
_0-4_A2
  6
CONTINUOUS
 62
    3
 10
282.57223499999997
 20
216.58002099999998
 11
282.57223499999997
 21
217.388654
  0
LINE
  8
_0-4_A2
  6
CONTINUOUS
 62
    3
 10
284.62223499999998
 20
215.59346999999999
 11
284.62223499999998
 21
218.37520599999999
  0
LINE
  8
_0-4_A2
  6
CONTINUOUS
 62
    3
 10
286.45938999999998
 20
215.58382800000001
 11
285.43094999999999
 21
215.493852
  0
LINE
  8
_0-4_A2
  6
CONTINUOUS
 62
    3
 10
285.43094999999999
 20
218.474826
 11
286.45938999999998
 21
218.384849
  0
LINE
  8
_0-4_A2
  6
CONTINUOUS
 62
    3
 10
287.37223499999998
 20
217.388654
 11
287.37223499999998
 21
216.58002099999998
  0
LINE
  8
_0-4_A2
  6
CONTINUOUS
 62
    3
 10
285.32223499999997
 20
218.37520599999999
 11
285.32223499999997
 21
215.59346999999999
  0
LINE
  8
_0-4_A2
  6
CONTINUOUS
 62
    3
 10
283.52223500000002
 20
216.13433900000001
 11
283.922235
 21
216.13433900000001
  0
LINE
  8
_0-4_A2
  6
CONTINUOUS
 62
    3
 10
283.52223500000002
 20
217.834337
 11
283.922235
 21
217.834337
  0
LINE
  8
_0-4_A2
  6
CONTINUOUS
 62
    3
 10
283.52223500000002
 20
216.13433900000001
 11
283.52223500000002
 21
217.834337
  0
LINE
  8
_0-4_A2
  6
CONTINUOUS
 62
    3
 10
283.922235
 20
216.13433900000001
 11
283.922235
 21
217.834337
  0
LINE
  8
_0-4_A2
  6
CONTINUOUS
 62
    3
 10
286.02223500000002
 20
216.28433899999998
 11
286.422235
 21
216.28433899999998
  0
LINE
  8
_0-4_A2
  6
CONTINUOUS
 62
    3
 10
286.02223500000002
 20
217.68433699999999
 11
286.422235
 21
217.68433699999999
  0
LINE
  8
_0-4_A2
  6
CONTINUOUS
 62
    3
 10
286.422235
 20
217.68433699999999
 11
286.422235
 21
216.28433899999998
  0
LINE
  8
_0-4_A2
  6
CONTINUOUS
 62
    3
 10
286.02223500000002
 20
217.68433699999999
 11
286.02223500000002
 21
216.28433899999998
  0
LINE
  8
_0-4_A2
  6
CONTINUOUS
 62
    3
 10
282.27223500000002
 20
214.70434
 11
287.672235
 21
214.70434
  0
LINE
  8
_0-4_A2
  6
CONTINUOUS
 62
    3
 10
282.27223500000002
 20
219.26433700000001
 11
287.672235
 21
219.26433700000001
  0
LINE
  8
_0-4_A2
  6
CONTINUOUS
 62
    3
 10
282.172235
 20
219.16433699999998
 11
282.172235
 21
214.80433999999999
  0
LINE
  8
_0-4_A2
  6
CONTINUOUS
 62
    3
 10
287.77223500000002
 20
219.16433699999998
 11
287.77223500000002
 21
214.80433999999999
  0
LINE
  8
_0-4_A2
  6
CONTINUOUS
 62
    3
 10
294.83194300000002
 20
217.364337
 11
294.83194300000002
 21
216.60434
  0
LINE
  8
_0-4_A2
  6
CONTINUOUS
 62
    3
 10
295.231943
 20
217.364337
 11
295.231943
 21
216.60434
  0
LINE
  8
_0-4_A2
  6
CONTINUOUS
 62
    3
 10
294.731943
 20
217.364337
 11
294.731943
 21
216.60434
  0
LINE
  8
_0-4_A2
  6
CONTINUOUS
 62
    3
 10
295.33194300000002
 20
217.364337
 11
295.33194300000002
 21
216.60434
  0
LINE
  8
_0-4_A2
  6
CONTINUOUS
 62
    3
 10
295.731943
 20
218.464337
 11
295.731943
 21
215.50434000000001
  0
LINE
  8
_0-4_A2
  6
CONTINUOUS
 62
    3
 10
296.172235
 20
218.464337
 11
296.172235
 21
215.50434000000001
  0
LINE
  8
_0-4_A2
  6
CONTINUOUS
 62
    3
 10
291.77223500000002
 20
215.50434000000001
 11
296.172235
 21
215.50434000000001
  0
LINE
  8
_0-4_A2
  6
CONTINUOUS
 62
    3
 10
291.77223500000002
 20
218.464337
 11
296.172235
 21
218.464337
  0
LINE
  8
_0-4_A2
  6
CONTINUOUS
 62
    3
 10
291.77223500000002
 20
218.464337
 11
291.77223500000002
 21
215.50434000000001
  0
LINE
  8
_0-4_A2
  6
CONTINUOUS
 62
    3
 10
291.672235
 20
218.56433699999999
 11
291.672235
 21
215.40433999999999
  0
LINE
  8
_0-4_A2
  6
CONTINUOUS
 62
    3
 10
296.27223500000002
 20
218.56433699999999
 11
296.27223500000002
 21
215.40433999999999
  0
LINE
  8
_0-4_A2
  6
CONTINUOUS
 62
    3
 10
291.672235
 20
215.40433999999999
 11
296.27223500000002
 21
215.40433999999999
  0
LINE
  8
_0-4_A2
  6
CONTINUOUS
 62
    3
 10
291.672235
 20
218.56433699999999
 11
296.27223500000002
 21
218.56433699999999
  0
LINE
  8
_0-4_A2
  6
CONTINUOUS
 62
    3
 10
291.27223500000002
 20
214.70434
 11
296.672235
 21
214.70434
  0
LINE
  8
_0-4_A2
  6
CONTINUOUS
 62
    3
 10
291.27223500000002
 20
219.26433700000001
 11
296.672235
 21
219.26433700000001
  0
LINE
  8
_0-4_A2
  6
CONTINUOUS
 62
    3
 10
291.172235
 20
219.16433699999998
 11
291.172235
 21
214.80433999999999
  0
LINE
  8
_0-4_A2
  6
CONTINUOUS
 62
    3
 10
296.77223500000002
 20
219.16433699999998
 11
296.77223500000002
 21
214.80433999999999
  0
LINE
  8
_0-4_A2
  6
CONTINUOUS
 62
    3
 10
302.27223500000002
 20
219.68433899999999
 11
302.27223500000002
 21
214.28433899999998
  0
LINE
  8
_0-4_A2
  6
CONTINUOUS
 62
    3
 10
277.27223500000002
 20
213.68433899999999
 11
301.672235
 21
213.68433899999999
  0
LINE
  8
_0-4_A2
  6
CONTINUOUS
 62
    3
 10
276.672235
 20
219.68433899999999
 11
276.672235
 21
214.28433899999998
  0
LINE
  8
_0-4_A2
  6
CONTINUOUS
 62
    3
 10
277.27223500000002
 20
220.28433899999998
 11
301.672235
 21
220.28433899999998
  0
LINE
  8
_0-4_A2
  6
CONTINUOUS
 62
    3
 10
291.12223499999998
 20
214.66433699999998
 11
296.82223499999997
 21
214.66433699999998
  0
LINE
  8
_0-4_A2
  6
CONTINUOUS
 62
    3
 10
291.12223499999998
 20
219.304337
 11
296.82223499999997
 21
219.304337
  0
LINE
  8
_0-4_A2
  6
CONTINUOUS
 62
    3
 10
296.82223499999997
 20
219.304337
 11
296.82223499999997
 21
214.66433699999998
  0
LINE
  8
_0-4_A2
  6
CONTINUOUS
 62
    3
 10
291.12223499999998
 20
219.304337
 11
291.12223499999998
 21
214.66433699999998
  0
LINE
  8
_0-4_A2
  6
CONTINUOUS
 62
    3
 10
282.12223499999998
 20
214.66433699999998
 11
287.82223499999997
 21
214.66433699999998
  0
LINE
  8
_0-4_A2
  6
CONTINUOUS
 62
    3
 10
282.12223499999998
 20
219.304337
 11
287.82223499999997
 21
219.304337
  0
LINE
  8
_0-4_A2
  6
CONTINUOUS
 62
    3
 10
287.82223499999997
 20
219.304337
 11
287.82223499999997
 21
214.66433699999998
  0
LINE
  8
_0-4_A2
  6
CONTINUOUS
 62
    3
 10
282.12223499999998
 20
219.304337
 11
282.12223499999998
 21
214.66433699999998
  0
LINE
  8
_0-4_A2
  6
CONTINUOUS
 62
    3
 10
276.47223500000001
 20
219.68433899999999
 11
276.47223500000001
 21
214.28433899999998
  0
LINE
  8
_0-4_A2
  6
CONTINUOUS
 62
    3
 10
302.47223500000001
 20
219.68433899999999
 11
302.47223500000001
 21
214.28433899999998
  0
LINE
  8
_0-4_A2
  6
CONTINUOUS
 62
    3
 10
277.27223500000002
 20
213.484339
 11
301.672235
 21
213.484339
  0
LINE
  8
_0-4_A2
  6
CONTINUOUS
 62
    3
 10
277.27223500000002
 20
220.484339
 11
301.672235
 21
220.484339
  0
ARC
  8
_0-4_A2
  6
CONTINUOUS
 62
    3
 10
220.572223
 20
156.28435099999998
 40
0.1
 50
89.999995999999995
 51
179.99999099999999
  0
ARC
  8
_0-4_A2
  6
CONTINUOUS
 62
    3
 10
222.97224699999998
 20
156.28435099999998
 40
0.1
 50
0.000003
 51
90.000002999999992
  0
LINE
  8
_0-4_A2
  6
CONTINUOUS
 62
    3
 10
220.572223
 20
156.38435699999999
 11
222.97224699999998
 21
156.38435699999999
  0
LINE
  8
_0-4_A2
  6
CONTINUOUS
 62
    3
 10
223.072223
 20
156.28435099999998
 11
223.072223
 21
155.184345
  0
LINE
  8
_0-4_A2
  6
CONTINUOUS
 62
    3
 10
220.47224699999998
 20
156.28435099999998
 11
220.47224699999998
 21
155.184345
  0
ARC
  8
_0-4_A2
  6
CONTINUOUS
 62
    3
 10
270.37224700000001
 20
156.28435099999998
 40
0.1
 50
0.000009
 51
90.000003999999989
  0
ARC
  8
_0-4_A2
  6
CONTINUOUS
 62
    3
 10
267.97222299999998
 20
156.28435099999998
 40
0.1
 50
89.999996999999993
 51
179.999997
  0
LINE
  8
_0-4_A2
  6
CONTINUOUS
 62
    3
 10
270.37224700000001
 20
156.38435699999999
 11
267.97222299999998
 21
156.38435699999999
  0
LINE
  8
_0-4_A2
  6
CONTINUOUS
 62
    3
 10
267.87224700000001
 20
156.28435099999998
 11
267.87224700000001
 21
155.184345
  0
LINE
  8
_0-4_A2
  6
CONTINUOUS
 62
    3
 10
270.47222299999998
 20
156.28435099999998
 11
270.47222299999998
 21
155.184345
  0
ARC
  8
_0-4_A2
  6
PHANTOM
 62
    7
 10
302.81632200000001
 20
193.58434500000001
 40
1.6000000000000005
 50
270
 51
359.5
  0
ARC
  8
_0-4_A2
  6
PHANTOM
 62
    7
 10
277.53683699999999
 20
192.58434500000001
 40
0.6
 50
180.5
 51
270
  0
ARC
  8
_0-4_A2
  6
PHANTOM
 62
    7
 10
277.12442600000002
 20
199.73434499999999
 40
0.25
 50
90
 51
180.5
  0
ARC
  8
_0-4_A2
  6
PHANTOM
 62
    7
 10
304.22004399999997
 20
199.73434499999999
 40
0.25
 50
359.5
 51
89.999999999999971
  0
LINE
  8
_0-4_A2
  6
PHANTOM
 62
    7
 10
277.53683699999999
 20
191.98434499999999
 11
302.81632200000001
 21
191.98434499999999
  0
LINE
  8
_0-4_A2
  6
PHANTOM
 62
    7
 10
277.12442600000002
 20
199.98434499999999
 11
304.22004399999997
 21
199.98434499999999
  0
LINE
  8
_0-4_A2
  6
PHANTOM
 62
    7
 10
276.874436
 20
199.73216300000001
 11
276.93685900000002
 21
192.57910899999998
  0
LINE
  8
_0-4_A2
  6
PHANTOM
 62
    7
 10
304.47003399999999
 20
199.73216300000001
 11
304.41626100000001
 21
193.57038199999999
  0
ARC
  8
_0-4_A2
  6
CONTINUOUS
 62
    3
 10
222.97224699999998
 20
272.99234000000001
 40
0.1
 50
269.99999600000001
 51
359.99999100000007
  0
ARC
  8
_0-4_A2
  6
CONTINUOUS
 62
    3
 10
220.572223
 20
272.99234000000001
 40
0.1
 50
180.00000300000002
 51
270.00000299999999
  0
LINE
  8
_0-4_A2
  6
CONTINUOUS
 62
    3
 10
222.97224699999998
 20
272.892334
 11
220.572223
 21
272.892334
  0
LINE
  8
_0-4_A2
  6
CONTINUOUS
 62
    3
 10
220.47224699999998
 20
272.99234000000001
 11
220.47224699999998
 21
274.09234700000001
  0
LINE
  8
_0-4_A2
  6
CONTINUOUS
 62
    3
 10
223.072223
 20
272.99234000000001
 11
223.072223
 21
274.09234700000001
  0
ARC
  8
_0-4_A2
  6
CONTINUOUS
 62
    3
 10
267.97222299999998
 20
272.99234000000001
 40
0.1
 50
180.00000900000003
 51
270.00000399999998
  0
ARC
  8
_0-4_A2
  6
CONTINUOUS
 62
    3
 10
270.37224700000001
 20
272.99234000000001
 40
0.1
 50
269.999997
 51
359.999997
  0
LINE
  8
_0-4_A2
  6
CONTINUOUS
 62
    3
 10
267.97222299999998
 20
272.892334
 11
270.37224700000001
 21
272.892334
  0
LINE
  8
_0-4_A2
  6
CONTINUOUS
 62
    3
 10
270.47222299999998
 20
272.99234000000001
 11
270.47222299999998
 21
274.09234700000001
  0
LINE
  8
_0-4_A2
  6
CONTINUOUS
 62
    3
 10
267.87224700000001
 20
272.99234000000001
 11
267.87224700000001
 21
274.09234700000001
  0
ARC
  8
_0-4_A2
  6
CONTINUOUS
 62
    7
 10
303.47224099999999
 20
294.08440000000001
 40
0.4000000000000001
 50
0
 51
90.000003000000006
  0
ARC
  8
_0-4_A2
  6
CONTINUOUS
 62
    7
 10
303.47224099999999
 20
276.28433899999998
 40
0.4000000000000001
 50
269.999997
 51
0
  0
ARC
  8
_0-4_A2
  6
CONTINUOUS
 62
    7
 10
187.47223500000001
 20
294.08440000000001
 40
0.4000000000000001
 50
90.000003000000006
 51
180.00000499999998
  0
ARC
  8
_0-4_A2
  6
CONTINUOUS
 62
    7
 10
187.47223500000001
 20
276.28433899999998
 40
0.4000000000000001
 50
179.99999500000001
 51
269.99999699999995
  0
ARC
  8
_0-4_A2
  6
CONTINUOUS
 62
    7
 10
188.24900500000001
 20
277.06110899999998
 40
0.4000000000000001
 50
179.99999500000001
 51
269.99999699999995
  0
ARC
  8
_0-4_A2
  6
CONTINUOUS
 62
    7
 10
188.24900500000001
 20
293.30801999999999
 40
0.4000000000000001
 50
90.000003000000006
 51
180.00000499999998
  0
ARC
  8
_0-4_A2
  6
CONTINUOUS
 62
    7
 10
302.69547699999998
 20
277.06110899999998
 40
0.4000000000000001
 50
269.999997
 51
0
  0
ARC
  8
_0-4_A2
  6
CONTINUOUS
 62
    7
 10
302.69547699999998
 20
293.30801999999999
 40
0.4000000000000001
 50
0
 51
90.000003000000006
  0
LINE
  8
_0-4_A2
  6
CONTINUOUS
 62
    7
 10
202.37496900000002
 20
294.49487299999998
 11
208.56951299999997
 21
294.49487299999998
  0
LINE
  8
_0-4_A2
  6
CONTINUOUS
 62
    7
 10
208.57223499999997
 20
294.48439999999999
 11
282.37224099999997
 21
294.48439999999999
  0
LINE
  8
_0-4_A2
  6
CONTINUOUS
 62
    7
 10
210.57223499999997
 20
275.88433900000001
 11
280.37224099999997
 21
275.88433900000001
  0
LINE
  8
_0-4_A2
  6
CONTINUOUS
 62
    7
 10
286.57224100000001
 20
275.88433900000001
 11
303.47224099999999
 21
275.88433900000001
  0
LINE
  8
_0-4_A2
  6
CONTINUOUS
 62
    7
 10
288.57224100000001
 20
294.48439999999999
 11
303.47224099999999
 21
294.48439999999999
  0
LINE
  8
_0-4_A2
  6
CONTINUOUS
 62
    7
 10
286.56951299999997
 20
275.873871
 11
280.37496299999997
 21
275.873871
  0
LINE
  8
_0-4_A2
  6
CONTINUOUS
 62
    7
 10
286.56951299999997
 20
275.28300200000001
 11
280.37496299999997
 21
275.28300200000001
  0
LINE
  8
_0-4_A2
  6
CONTINUOUS
 62
    7
 10
286.57224200000001
 20
275.88433900000001
 11
286.56951600000002
 21
275.87386700000001
  0
LINE
  8
_0-4_A2
  6
CONTINUOUS
 62
    7
 10
286.56951299999997
 20
275.28300200000001
 11
286.56951299999997
 21
275.873871
  0
LINE
  8
_0-4_A2
  6
CONTINUOUS
 62
    7
 10
280.37223799999998
 20
275.884341
 11
280.37496399999997
 21
275.87386800000001
  0
LINE
  8
_0-4_A2
  6
CONTINUOUS
 62
    7
 10
280.37496299999997
 20
275.28300200000001
 11
280.37496299999997
 21
275.873871
  0
LINE
  8
_0-4_A2
  6
CONTINUOUS
 62
    7
 10
288.56951299999997
 20
295.08574299999997
 11
288.56951299999997
 21
294.49487299999998
  0
LINE
  8
_0-4_A2
  6
CONTINUOUS
 62
    7
 10
288.57224200000001
 20
294.484397
 11
288.56951400000002
 21
294.49487599999997
  0
LINE
  8
_0-4_A2
  6
CONTINUOUS
 62
    7
 10
288.56951299999997
 20
294.49487299999998
 11
282.37496299999997
 21
294.49487299999998
  0
LINE
  8
_0-4_A2
  6
CONTINUOUS
 62
    7
 10
288.56951299999997
 20
295.08574299999997
 11
282.37496299999997
 21
295.08574299999997
  0
LINE
  8
_0-4_A2
  6
CONTINUOUS
 62
    7
 10
282.37224200000002
 20
294.48440299999998
 11
282.37496800000002
 21
294.49487599999997
  0
LINE
  8
_0-4_A2
  6
CONTINUOUS
 62
    7
 10
282.37496299999997
 20
295.08574299999997
 11
282.37496299999997
 21
294.49487299999998
  0
LINE
  8
_0-4_A2
  6
CONTINUOUS
 62
    7
 10
208.56951299999997
 20
295.08574299999997
 11
208.56951299999997
 21
294.49487299999998
  0
LINE
  8
_0-4_A2
  6
CONTINUOUS
 62
    7
 10
208.57223499999997
 20
294.48440299999998
 11
208.56950999999997
 21
294.49486999999999
  0
LINE
  8
_0-4_A2
  6
CONTINUOUS
 62
    7
 10
202.37496900000002
 20
295.08574299999997
 11
208.56951299999997
 21
295.08574299999997
  0
LINE
  8
_0-4_A2
  6
CONTINUOUS
 62
    7
 10
202.37224600000001
 20
294.48440299999998
 11
202.37497200000001
 21
294.49487599999997
  0
LINE
  8
_0-4_A2
  6
CONTINUOUS
 62
    7
 10
202.37496900000002
 20
295.08574299999997
 11
202.37496900000002
 21
294.49487299999998
  0
LINE
  8
_0-4_A2
  6
CONTINUOUS
 62
    7
 10
210.56951299999997
 20
275.28300200000001
 11
210.56951299999997
 21
275.873871
  0
LINE
  8
_0-4_A2
  6
CONTINUOUS
 62
    7
 10
210.572245
 20
275.884342
 11
210.56951900000001
 21
275.87386900000001
  0
LINE
  8
_0-4_A2
  6
CONTINUOUS
 62
    7
 10
204.37496900000002
 20
275.28300200000001
 11
204.37496900000002
 21
275.873871
  0
LINE
  8
_0-4_A2
  6
CONTINUOUS
 62
    7
 10
204.37224200000002
 20
275.88433600000001
 11
204.37496599999997
 21
275.87386900000001
  0
LINE
  8
_0-4_A2
  6
CONTINUOUS
 62
    7
 10
204.37496900000002
 20
275.28300200000001
 11
210.56951299999997
 21
275.28300200000001
  0
LINE
  8
_0-4_A2
  6
CONTINUOUS
 62
    7
 10
204.37496900000002
 20
275.873871
 11
210.56951299999997
 21
275.873871
  0
LINE
  8
_0-4_A2
  6
CONTINUOUS
 62
    7
 10
187.47223500000001
 20
275.88433900000001
 11
204.37223499999998
 21
275.88433900000001
  0
LINE
  8
_0-4_A2
  6
CONTINUOUS
 62
    7
 10
303.87224099999997
 20
276.28433899999998
 11
303.87224099999997
 21
294.08440000000001
  0
LINE
  8
_0-4_A2
  6
CONTINUOUS
 62
    7
 10
187.07223499999997
 20
276.28433899999998
 11
187.07223499999997
 21
294.08440000000001
  0
LINE
  8
_0-4_A2
  6
CONTINUOUS
 62
    7
 10
188.24900500000001
 20
276.66110900000001
 11
302.69547699999998
 21
276.66110900000001
  0
LINE
  8
_0-4_A2
  6
CONTINUOUS
 62
    7
 10
187.47223500000001
 20
294.48439999999999
 11
202.37223499999998
 21
294.48439999999999
  0
LINE
  8
_0-4_A2
  6
CONTINUOUS
 62
    7
 10
188.24900500000001
 20
293.70801999999997
 11
302.69547699999998
 21
293.70801999999997
  0
LINE
  8
_0-4_A2
  6
CONTINUOUS
 62
    7
 10
303.09547700000001
 20
277.06110899999998
 11
303.09547700000001
 21
293.30801999999999
  0
LINE
  8
_0-4_A2
  6
CONTINUOUS
 62
    7
 10
187.84900499999997
 20
277.06110899999998
 11
187.84900499999997
 21
293.30801999999999
  0
ARC
  8
_0-4_A2
  6
CONTINUOUS
 62
    7
 10
186.67099000000001
 20
144.98434499999996
 40
1
 50
180
 51
270
  0
ARC
  8
_0-4_A2
  6
CONTINUOUS
 62
    7
 10
213.97223500000001
 20
144.98434499999996
 40
1
 50
270
 51
0
  0
ARC
  8
_0-4_A2
  6
CONTINUOUS
 62
    7
 10
304.66277400000001
 20
295.17487799999997
 40
0.6
 50
0
 51
90
  0
ARC
  8
_0-4_A2
  6
CONTINUOUS
 62
    7
 10
275.27223500000002
 20
273.78432700000001
 40
0.6
 50
0
 51
90
  0
ARC
  8
_0-4_A2
  6
CONTINUOUS
 62
    7
 10
215.672235
 20
273.78432700000001
 40
0.6
 50
90
 51
180
  0
ARC
  8
_0-4_A2
  6
CONTINUOUS
 62
    7
 10
275.27223500000002
 20
273.59185200000001
 40
0.6
 50
0
 51
90
  0
ARC
  8
_0-4_A2
  6
CONTINUOUS
 62
    7
 10
215.672235
 20
273.59185200000001
 40
0.6
 50
90
 51
180
  0
ARC
  8
_0-4_A2
  6
CONTINUOUS
 62
    7
 10
186.27098999999998
 20
274.94922200000002
 40
0.6
 50
180
 51
266.53899500000005
  0
ARC
  8
_0-4_A2
  6
CONTINUOUS
 62
    7
 10
304.67345599999998
 20
274.94922000000002
 40
0.6
 50
273.46100000000001
 51
0.0000000000000127
  0
ARC
  8
_0-4_A2
  6
CONTINUOUS
 62
    7
 10
186.28169600000001
 20
274.984327
 40
0.6
 50
180
 51
270
  0
ARC
  8
_0-4_A2
  6
CONTINUOUS
 62
    7
 10
304.66277400000001
 20
274.984327
 40
0.6
 50
270
 51
0
  0
ARC
  8
_0-4_A2
  6
CONTINUOUS
 62
    7
 10
186.28169600000001
 20
295.17488100000002
 40
0.6
 50
90
 51
180
  0
ARC
  8
_0-4_A2
  6
CONTINUOUS
 62
    7
 10
275.97223500000001
 20
295.69234699999998
 40
0.1
 50
90
 51
180
  0
ARC
  8
_0-4_A2
  6
CONTINUOUS
 62
    7
 10
214.97223500000001
 20
295.69234699999998
 40
0.1
 50
0
 51
90
  0
ARC
  8
_0-4_A2
  6
CONTINUOUS
 62
    7
 10
304.87223499999998
 20
295.38433900000001
 40
0.6
 50
0
 51
90.000003000000006
  0
ARC
  8
_0-4_A2
  6
CONTINUOUS
 62
    7
 10
186.07220999999998
 20
295.38433900000001
 40
0.6
 50
90.000003000000006
 51
180.00000499999998
  0
ARC
  8
_0-4_A2
  6
CONTINUOUS
 62
    7
 10
211.75673199999999
 20
222.58433899999999
 40
1
 50
0
 51
90.000003000000006
  0
ARC
  8
_0-4_A2
  6
DASHED
 62
    7
 10
211.75673199999999
 20
225.984339
 40
1
 50
269.999997
 51
0
  0
ARC
  8
_0-4_A2
  6
CONTINUOUS
 62
    7
 10
187.25385099999999
 20
225.984339
 40
1
 50
179.99999500000001
 51
269.99999699999995
  0
CIRCLE
  8
_0-4_A2
  6
CONTINUOUS
 62
    7
 10
288.47223500000001
 20
262.98433899999997
 40
1.25
  0
ARC
  8
_0-4_A2
  6
CONTINUOUS
 62
    7
 10
276.97223500000001
 20
144.98434499999996
 40
1
 50
180
 51
270
  0
ARC
  8
_0-4_A2
  6
CONTINUOUS
 62
    7
 10
304.27345600000001
 20
225.984339
 40
1
 50
270
 51
0
  0
ARC
  8
_0-4_A2
  6
DASHED
 62
    7
 10
304.47223500000001
 20
97.784343000000006
 40
1
 50
270
 51
0
  0
ARC
  8
_0-4_A2
  6
DASHED
 62
    7
 10
186.47221000000001
 20
97.784343000000006
 40
1
 50
180
 51
270
  0
CIRCLE
  8
_0-4_A2
  6
CONTINUOUS
 62
    7
 10
288.47223500000001
 20
157.98434499999999
 40
1.5000000000000002
  0
CIRCLE
  8
_0-4_A2
  6
CONTINUOUS
 62
    7
 10
288.47223500000001
 20
157.98434499999999
 40
1.25
  0
CIRCLE
  8
_0-4_A2
  6
CONTINUOUS
 62
    7
 10
202.47223500000001
 20
157.984339
 40
1.5000000000000002
  0
CIRCLE
  8
_0-4_A2
  6
CONTINUOUS
 62
    7
 10
202.47223500000001
 20
262.98433899999997
 40
1.5000000000000002
  0
CIRCLE
  8
_0-4_A2
  6
CONTINUOUS
 62
    7
 10
288.47223500000001
 20
262.98433899999997
 40
1.5000000000000002
  0
CIRCLE
  8
_0-4_A2
  6
CONTINUOUS
 62
    7
 10
202.47223500000001
 20
157.984339
 40
1.25
  0
ARC
  8
_0-4_A2
  6
CONTINUOUS
 62
    7
 10
186.07220999999998
 20
142.02416999999996
 40
0.6
 50
180
 51
270
  0
ARC
  8
_0-4_A2
  6
CONTINUOUS
 62
    7
 10
304.87223499999998
 20
142.02416999999996
 40
0.6
 50
270
 51
0
  0
ARC
  8
_0-4_A2
  6
CONTINUOUS
 62
    7
 10
304.27345600000001
 20
144.98434499999996
 40
1
 50
270
 51
0
  0
ARC
  8
_0-4_A2
  6
CONTINUOUS
 62
    7
 10
275.97223500000001
 20
295.69234699999998
 40
0.1
 50
90
 51
180
  0
ARC
  8
_0-4_A2
  6
CONTINUOUS
 62
    7
 10
214.97223500000001
 20
295.69234699999998
 40
0.1
 50
0
 51
90
  0
ARC
  8
_0-4_A2
  6
CONTINUOUS
 62
    7
 10
304.27345600000001
 20
211.984339
 40
1
 50
0
 51
90
  0
ARC
  8
_0-4_A2
  6
CONTINUOUS
 62
    7
 10
187.25385099999999
 20
189.58433899999999
 40
1
 50
90.000003000000006
 51
180.00000499999998
  0
ARC
  8
_0-4_A2
  6
CONTINUOUS
 62
    7
 10
279.18773800000002
 20
189.58433899999999
 40
1
 50
89.999996999999993
 51
180
  0
ARC
  8
_0-4_A2
  6
CONTINUOUS
 62
    7
 10
303.69061900000002
 20
189.58433899999999
 40
1
 50
359.99999500000001
 51
89.999996999999993
  0
ARC
  8
_0-4_A2
  6
CONTINUOUS
 62
    7
 10
303.69061900000002
 20
192.984339
 40
1
 50
270.00000299999999
 51
0.0000049999999688
  0
ARC
  8
_0-4_A2
  6
DASHED
 62
    7
 10
279.18773800000002
 20
192.984339
 40
1
 50
180
 51
270.00000299999999
  0
ARC
  8
_0-4_A2
  6
CONTINUOUS
 62
    7
 10
265.77223500000002
 20
155.38434499999999
 40
0.2
 50
0
 51
90.000003000000006
  0
ARC
  8
_0-4_A2
  6
CONTINUOUS
 62
    7
 10
225.172235
 20
155.38434499999999
 40
0.2
 50
90.000003000000006
 51
180.00000499999998
  0
ARC
  8
_0-4_A2
  6
CONTINUOUS
 62
    7
 10
263.172235
 20
155.38434499999999
 40
0.2
 50
90.000003000000006
 51
180.00000499999998
  0
ARC
  8
_0-4_A2
  6
CONTINUOUS
 62
    7
 10
227.77223500000002
 20
155.38434499999999
 40
0.2
 50
0
 51
90.000003000000006
  0
ARC
  8
_0-4_A2
  6
CONTINUOUS
 62
    7
 10
275.27223500000002
 20
155.784345
 40
0.6
 50
269.999997
 51
0
  0
ARC
  8
_0-4_A2
  6
CONTINUOUS
 62
    7
 10
215.672235
 20
155.784345
 40
0.6
 50
179.99999500000001
 51
269.99999699999995
  0
ARC
  8
_0-4_A2
  6
CONTINUOUS
 62
    7
 10
304.47223500000001
 20
96.984342999999981
 40
1
 50
269.999997
 51
0
  0
ARC
  8
_0-4_A2
  6
CONTINUOUS
 62
    7
 10
186.47221000000001
 20
96.984342999999981
 40
1
 50
179.99999500000001
 51
269.99999699999995
  0
ARC
  8
_0-4_A2
  6
CONTINUOUS
 62
    7
 10
304.87223499999998
 20
295.38433900000001
 40
0.6
 50
0
 51
90.000003000000006
  0
ARC
  8
_0-4_A2
  6
CONTINUOUS
 62
    7
 10
186.07220999999998
 20
295.38433900000001
 40
0.6
 50
90.000003000000006
 51
180.00000499999998
  0
CIRCLE
  8
_0-4_A2
  6
CONTINUOUS
 62
    7
 10
202.47223500000001
 20
262.98433899999997
 40
1.25
  0
ARC
  8
_0-4_A2
  6
CONTINUOUS
 62
    7
 10
187.25385099999999
 20
192.984339
 40
1
 50
179.99999500000001
 51
269.99999699999995
  0
ARC
  8
_0-4_A2
  6
DASHED
 62
    7
 10
211.75673199999999
 20
192.984339
 40
1
 50
269.999997
 51
0
  0
ARC
  8
_0-4_A2
  6
CONTINUOUS
 62
    7
 10
211.75673199999999
 20
189.58433899999999
 40
1
 50
0
 51
90.000003000000006
  0
ARC
  8
_0-4_A2
  6
CONTINUOUS
 62
    7
 10
187.25385099999999
 20
222.58433899999999
 40
1
 50
90.000003000000006
 51
180.00000499999998
  0
LINE
  8
_0-4_A2
  6
CONTINUOUS
 62
    7
 10
223.07223499999997
 20
155.58434500000001
 11
267.87223499999998
 21
155.58434500000001
  0
LINE
  8
_0-4_A2
  6
CONTINUOUS
 62
    7
 10
275.97223500000001
 20
141.42417
 11
304.87223499999998
 21
141.42417
  0
LINE
  8
_0-4_A2
  6
CONTINUOUS
 62
    7
 10
186.07220999999998
 20
141.42417
 11
214.97223500000001
 21
141.42417
  0
LINE
  8
_0-4_A2
  6
CONTINUOUS
 62
    7
 10
214.97223500000001
 20
141.98434499999996
 11
275.97223500000001
 21
141.98434499999996
  0
LINE
  8
_0-4_A2
  6
CONTINUOUS
 62
    7
 10
214.97223500000001
 20
144.98434499999996
 11
275.97223500000001
 21
144.98434499999996
  0
LINE
  8
_0-4_A2
  6
CONTINUOUS
 62
    7
 10
210.63974200000001
 20
224.984339
 11
210.63974200000001
 21
223.58433899999999
  0
LINE
  8
_0-4_A2
  6
CONTINUOUS
 62
    7
 10
191.29090200000001
 20
224.984339
 11
191.29090200000001
 21
223.58433899999999
  0
LINE
  8
_0-4_A2
  6
CONTINUOUS
 62
    7
 10
280.30472800000001
 20
191.984339
 11
280.30472800000001
 21
190.58433899999999
  0
LINE
  8
_0-4_A2
  6
CONTINUOUS
 62
    7
 10
299.653568
 20
191.984339
 11
299.653568
 21
190.58433899999999
  0
LINE
  8
_0-4_A2
  6
CONTINUOUS
 62
    7
 10
191.29090200000001
 20
191.984339
 11
191.29090200000001
 21
190.58433899999999
  0
LINE
  8
_0-4_A2
  6
CONTINUOUS
 62
    7
 10
210.63974200000001
 20
191.984339
 11
210.63974200000001
 21
190.58433899999999
  0
LINE
  8
_0-4_A2
  6
CONTINUOUS
 62
    7
 10
200.724105
 20
223.58433899999999
 11
187.25385099999999
 21
223.58433899999999
  0
LINE
  8
_0-4_A2
  6
CONTINUOUS
 62
    7
 10
305.27345600000001
 20
211.984339
 11
305.27345600000001
 21
144.98434499999996
  0
LINE
  8
_0-4_A2
  6
CONTINUOUS
 62
    7
 10
275.97223500000001
 20
224.984339
 11
304.27345600000001
 21
224.984339
  0
LINE
  8
_0-4_A2
  6
CONTINUOUS
 62
    7
 10
275.97223500000001
 20
212.984339
 11
304.27345600000001
 21
212.984339
  0
LINE
  8
_0-4_A2
  6
CONTINUOUS
 62
    7
 10
200.724105
 20
224.984339
 11
187.25385099999999
 21
224.984339
  0
LINE
  8
_0-4_A2
  6
CONTINUOUS
 62
    7
 10
211.75673199999999
 20
223.58433899999999
 11
204.509003
 21
223.58433899999999
  0
LINE
  8
_0-4_A2
  6
CONTINUOUS
 62
    7
 10
211.75673199999999
 20
224.984339
 11
204.509003
 21
224.984339
  0
LINE
  8
_0-4_A2
  6
CONTINUOUS
 62
    7
 10
200.724105
 20
190.58433899999999
 11
187.25385099999999
 21
190.58433899999999
  0
LINE
  8
_0-4_A2
  6
CONTINUOUS
 62
    7
 10
200.724105
 20
191.984339
 11
187.25385099999999
 21
191.984339
  0
LINE
  8
_0-4_A2
  6
CONTINUOUS
 62
    7
 10
211.75673199999999
 20
190.58433899999999
 11
204.509003
 21
190.58433899999999
  0
LINE
  8
_0-4_A2
  6
CONTINUOUS
 62
    7
 10
211.75673199999999
 20
191.984339
 11
204.509003
 21
191.984339
  0
LINE
  8
_0-4_A2
  6
CONTINUOUS
 62
    7
 10
279.18773800000002
 20
191.984339
 11
287.25256000000001
 21
191.984339
  0
LINE
  8
_0-4_A2
  6
CONTINUOUS
 62
    7
 10
279.18773800000002
 20
190.58433899999999
 11
287.25256000000001
 21
190.58433899999999
  0
LINE
  8
_0-4_A2
  6
PHANTOM
 62
    7
 10
214.97223500000001
 20
274.19185399999997
 11
214.97223500000001
 21
141.42417
  0
LINE
  8
_0-4_A2
  6
PHANTOM
 62
    7
 10
275.97223500000001
 20
274.19185399999997
 11
275.97223500000001
 21
141.42417
  0
LINE
  8
_0-4_A2
  6
CONTINUOUS
 62
    7
 10
290.22036500000001
 20
191.984339
 11
303.69061900000002
 21
191.984339
  0
LINE
  8
_0-4_A2
  6
CONTINUOUS
 62
    7
 10
290.22036500000001
 20
190.58433899999999
 11
303.69061900000002
 21
190.58433899999999
  0
LINE
  8
_0-4_A2
  6
CONTINUOUS
 62
    7
 10
305.27345600000001
 20
274.94922000000002
 11
305.27345600000001
 21
225.984339
  0
LINE
  8
_0-4_A2
  6
CONTINUOUS
 62
    7
 10
276.97223500000001
 20
143.98434499999996
 11
304.27345600000001
 21
143.98434499999996
  0
LINE
  8
_0-4_A2
  6
CONTINUOUS
 62
    7
 10
186.67099000000001
 20
143.98434499999996
 11
213.97223500000001
 21
143.98434499999996
  0
LINE
  8
_0-4_A2
  6
CONTINUOUS
 62
    7
 10
214.97223500000001
 20
141.98434499999996
 11
275.53742599999998
 21
141.98434499999996
  0
LINE
  8
_0-4_A2
  6
CONTINUOUS
 62
    7
 10
275.47223500000001
 20
155.58434500000001
 11
270.47223500000001
 21
155.58434500000001
  0
LINE
  8
_0-4_A2
  6
CONTINUOUS
 62
    7
 10
262.97223500000001
 20
155.38434499999999
 11
262.97223500000001
 21
155.184345
  0
LINE
  8
_0-4_A2
  6
CONTINUOUS
 62
    7
 10
265.97223500000001
 20
155.38434499999999
 11
265.97223500000001
 21
155.184345
  0
LINE
  8
_0-4_A2
  6
CONTINUOUS
 62
    7
 10
224.97223500000001
 20
155.38434499999999
 11
224.97223500000001
 21
155.184345
  0
LINE
  8
_0-4_A2
  6
CONTINUOUS
 62
    7
 10
227.97223500000001
 20
155.38434499999999
 11
227.97223500000001
 21
155.184345
  0
LINE
  8
_0-4_A2
  6
CONTINUOUS
 62
    7
 10
263.172235
 20
155.58434500000001
 11
265.77223500000002
 21
155.58434500000001
  0
LINE
  8
_0-4_A2
  6
CONTINUOUS
 62
    7
 10
225.172235
 20
155.58434500000001
 11
227.77223500000002
 21
155.58434500000001
  0
LINE
  8
_0-4_A2
  6
CONTINUOUS
 62
    7
 10
275.47223500000001
 20
273.78433899999998
 11
270.47223500000001
 21
273.78433899999998
  0
LINE
  8
_0-4_A2
  6
CONTINUOUS
 62
    7
 10
215.672235
 20
155.184345
 11
275.27223500000002
 21
155.184345
  0
LINE
  8
_0-4_A2
  6
CONTINUOUS
 62
    7
 10
215.47223500000001
 20
155.58434500000001
 11
220.47223500000001
 21
155.58434500000001
  0
LINE
  8
_0-4_A2
  6
CONTINUOUS
 62
    7
 10
238.48180000000002
 20
194.47850600000001
 11
252.46265299999998
 21
218.69405399999999
  0
LINE
  8
_0-4_A2
  6
CONTINUOUS
 62
    7
 10
238.48180200000001
 20
210.474603
 11
252.462307
 21
234.68954899999999
  0
LINE
  8
_0-4_A2
  6
CONTINUOUS
 62
    7
 10
238.48179699999997
 20
202.476549
 11
252.46267199999999
 21
226.69213400000001
  0
LINE
  8
_0-4_A2
  6
CONTINUOUS
 62
    7
 10
215.47223500000001
 20
273.78433899999998
 11
215.47223500000001
 21
155.58434500000001
  0
LINE
  8
_0-4_A2
  6
CONTINUOUS
 62
    7
 10
275.47223500000001
 20
273.78433899999998
 11
275.47223500000001
 21
155.58434500000001
  0
LINE
  8
_0-4_A2
  6
CONTINUOUS
 62
    7
 10
185.67099000000001
 20
274.94922200000002
 11
185.67099000000001
 21
144.98434499999996
  0
LINE
  8
_0-4_A2
  6
CONTINUOUS
 62
    7
 10
220.471698
 20
274.09234700000001
 11
223.07193799999998
 21
274.09234700000001
  0
LINE
  8
_0-4_A2
  6
CONTINUOUS
 62
    7
 10
275.87223499999998
 20
273.78432700000001
 11
275.87223499999998
 21
155.784345
  0
LINE
  8
_0-4_A2
  6
CONTINUOUS
 62
    7
 10
215.07223499999997
 20
273.78432700000001
 11
215.07223499999997
 21
155.784345
  0
LINE
  8
_0-4_A2
  6
CONTINUOUS
 62
    7
 10
186.07220999999998
 20
295.98433899999997
 11
304.87223499999998
 21
295.98433899999997
  0
LINE
  8
_0-4_A2
  6
CONTINUOUS
 62
    7
 10
186.47221000000001
 20
95.984343999999978
 11
304.47223500000001
 21
95.984343999999978
  0
LINE
  8
_0-4_A2
  6
DASHED
 62
    7
 10
186.47221000000001
 20
96.784342999999978
 11
304.47223500000001
 21
96.784342999999978
  0
LINE
  8
_0-4_A2
  6
CONTINUOUS
 62
    7
 10
186.07220999999998
 20
295.98433899999997
 11
304.87223499999998
 21
295.98433899999997
  0
LINE
  8
_0-4_A2
  6
CONTINUOUS
 62
    7
 10
185.47221000000001
 20
295.38433900000001
 11
185.47221000000001
 21
96.984342999999981
  0
LINE
  8
_0-4_A2
  6
CONTINUOUS
 62
    7
 10
305.47223500000001
 20
295.38433900000001
 11
305.47223500000001
 21
96.984342999999981
  0
LINE
  8
_0-4_A2
  6
CONTINUOUS
 62
    7
 10
267.86157100000002
 20
274.09234700000001
 11
270.47173500000002
 21
274.09234700000001
  0
LINE
  8
_0-4_A2
  6
CONTINUOUS
 62
    7
 10
186.07220999999998
 20
295.98433899999997
 11
304.87223499999998
 21
295.98433899999997
  0
LINE
  8
_0-4_A2
  6
CONTINUOUS
 62
    7
 10
186.07220999999998
 20
295.98433899999997
 11
304.87223499999998
 21
295.98433899999997
  0
LINE
  8
_0-4_A2
  6
CONTINUOUS
 62
    7
 10
220.672235
 20
274.09234700000001
 11
222.87223499999998
 21
274.09234700000001
  0
LINE
  8
_0-4_A2
  6
CONTINUOUS
 62
    7
 10
185.68169599999998
 20
295.17488100000002
 11
185.68169599999998
 21
274.984327
  0
LINE
  8
_0-4_A2
  6
CONTINUOUS
 62
    7
 10
305.26277399999997
 20
295.17487799999997
 11
305.26277399999997
 21
274.984327
  0
LINE
  8
_0-4_A2
  6
CONTINUOUS
 62
    7
 10
186.28169600000001
 20
274.38432699999998
 11
304.66277400000001
 21
274.38432699999998
  0
LINE
  8
_0-4_A2
  6
CONTINUOUS
 62
    7
 10
268.07223499999997
 20
274.09234700000001
 11
270.27223500000002
 21
274.09234700000001
  0
LINE
  8
_0-4_A2
  6
CONTINUOUS
 62
    7
 10
215.672235
 20
274.19185199999998
 11
275.27223500000002
 21
274.19185199999998
  0
LINE
  8
_0-4_A2
  6
CONTINUOUS
 62
    7
 10
186.27972699999997
 20
295.774878
 11
304.66277400000001
 21
295.774878
  0
LINE
  8
_0-4_A2
  6
CONTINUOUS
 62
    7
 10
215.47223500000001
 20
273.78433899999998
 11
220.47223500000001
 21
273.78433899999998
  0
LINE
  8
_0-4_A2
  6
CONTINUOUS
 62
    7
 10
223.07223499999997
 20
273.78433899999998
 11
267.87223499999998
 21
273.78433899999998
  0
ARC
  8
_0-4_A2
  6
CONTINUOUS
 62
    7
 10
438.17225900000005
 20
96.384335999999976
 40
0.6
 50
179.99999500000001
 51
269.99999699999995
  0
ARC
  8
_0-4_A2
  6
CONTINUOUS
 62
    7
 10
433.57224700000006
 20
135.770845
 40
4
 50
0
 51
55
  0
ARC
  8
_0-4_A2
  6
CONTINUOUS
 62
    7
 10
433.07225900000003
 20
141.73650399999996
 40
0.6
 50
180
 51
235
  0
ARC
  8
_0-4_A2
  6
CONTINUOUS
 62
    7
 10
442.67225900000005
 20
216.49604299999998
 40
0.4000000000000001
 50
108.434949
 51
180
  0
ARC
  8
_0-4_A2
  6
CONTINUOUS
 62
    7
 10
442.67225900000005
 20
215.47264999999998
 40
0.4000000000000001
 50
180
 51
251.56505100000001
  0
ARC
  8
_0-4_A2
  6
CONTINUOUS
 62
    7
 10
431.972259
 20
217.88433599999999
 40
0.1
 50
89.999982000000002
 51
179.999964
  0
ARC
  8
_0-4_A2
  6
CONTINUOUS
 62
    7
 10
431.972259
 20
216.084336
 40
0.1
 50
179.999964
 51
270.00000099999999
  0
ARC
  8
_0-4_A2
  6
CONTINUOUS
 62
    7
 10
431.77225900000001
 20
214.199082
 40
0.6
 50
180.00025499999998
 51
261.25387899999998
  0
ARC
  8
_0-4_A2
  6
CONTINUOUS
 62
    7
 10
431.77225900000001
 20
219.76957999999999
 40
0.6
 50
98.746121000000002
 51
180.00001900000003
  0
ARC
  8
_0-4_A2
  6
CONTINUOUS
 62
    7
 10
432.07225900000003
 20
274.93412999999998
 40
0.6
 50
180
 51
265
  0
ARC
  8
_0-4_A2
  6
CONTINUOUS
 62
    7
 10
432.07225900000003
 20
295.185268
 40
0.6
 50
91
 51
180
  0
ARC
  8
_0-4_A2
  6
CONTINUOUS
 62
    7
 10
432.37225900000004
 20
274.20521000000002
 40
0.1
 50
0
 51
84.999999999999985
  0
ARC
  8
_0-4_A2
  6
CONTINUOUS
 62
    7
 10
438.17225900000005
 20
96.384335999999976
 40
0.6
 50
179.99999500000001
 51
269.99999699999995
  0
ARC
  8
_0-4_A2
  6
CONTINUOUS
 62
    7
 10
433.57224700000006
 20
135.770845
 40
4
 50
0
 51
55
  0
ARC
  8
_0-4_A2
  6
CONTINUOUS
 62
    7
 10
433.07225900000003
 20
141.73650399999996
 40
0.6
 50
180
 51
235
  0
ARC
  8
_0-4_A2
  6
CONTINUOUS
 62
    7
 10
442.67225900000005
 20
216.49604299999998
 40
0.4000000000000001
 50
108.434949
 51
180
  0
ARC
  8
_0-4_A2
  6
CONTINUOUS
 62
    7
 10
442.67225900000005
 20
215.47264999999998
 40
0.4000000000000001
 50
180
 51
251.56505100000001
  0
ARC
  8
_0-4_A2
  6
CONTINUOUS
 62
    7
 10
431.972259
 20
217.88433599999999
 40
0.1
 50
89.999982000000002
 51
179.999964
  0
ARC
  8
_0-4_A2
  6
CONTINUOUS
 62
    7
 10
431.972259
 20
216.084336
 40
0.1
 50
179.999964
 51
270.00000099999999
  0
ARC
  8
_0-4_A2
  6
CONTINUOUS
 62
    7
 10
431.77225900000001
 20
214.199082
 40
0.6
 50
180.00025499999998
 51
261.25387899999998
  0
ARC
  8
_0-4_A2
  6
CONTINUOUS
 62
    7
 10
431.77225900000001
 20
219.76957999999999
 40
0.6
 50
98.746121000000002
 51
180.00001900000003
  0
ARC
  8
_0-4_A2
  6
CONTINUOUS
 62
    7
 10
432.07225900000003
 20
274.93412999999998
 40
0.6
 50
180
 51
265
  0
ARC
  8
_0-4_A2
  6
CONTINUOUS
 62
    7
 10
432.07225900000003
 20
295.185268
 40
0.6
 50
91
 51
180
  0
ARC
  8
_0-4_A2
  6
CONTINUOUS
 62
    7
 10
432.37225900000004
 20
274.20521000000002
 40
0.1
 50
0
 51
84.999999999999985
  0
ARC
  8
_0-4_A2
  6
CONTINUOUS
 62
    3
 10
420.76363800000001
 20
293.60308300000002
 40
0.02
 50
92.999999000000002
 51
182.50000499999998
  0
ARC
  8
_0-4_A2
  6
CONTINUOUS
 62
    3
 10
420.726022
 20
293.54747400000002
 40
0.02
 50
273.499998
 51
2.5000000000000226
  0
ARC
  8
_0-4_A2
  6
CONTINUOUS
 62
    3
 10
419.172256
 20
276.73731099999997
 40
0.4000000000000001
 50
179.99999500000001
 51
266.49999699999995
  0
ARC
  8
_0-4_A2
  6
CONTINUOUS
 62
    3
 10
419.172256
 20
293.03165999999998
 40
0.4000000000000001
 50
93.500003000000006
 51
180.00000499999998
  0
LINE
  8
_0-4_A2
  6
CENTER
 62
    7
 10
245.47406599999999
 20
303.31592
 11
245.47406599999999
 21
92.225070999999999
  0
LINE
  8
_0-4_A2
  6
CONTINUOUS
 62
    7
 10
443.472259
 20
295.98434700000001
 11
443.472259
 21
217.184347
  0
LINE
  8
_0-4_A2
  6
CONTINUOUS
 62
    7
 10
438.27225899999996
 20
96.738957999999968
 11
443.472259
 21
96.784336999999993
  0
LINE
  8
_0-4_A2
  6
CONTINUOUS
 62
    7
 10
438.27225899999996
 20
96.738957999999968
 11
438.27225899999996
 21
95.784336999999979
  0
LINE
  8
_0-4_A2
  6
CONTINUOUS
 62
    7
 10
438.27225899999996
 20
95.784336999999979
 11
438.17225900000005
 21
95.784336999999979
  0
LINE
  8
_0-4_A2
  6
CONTINUOUS
 62
    7
 10
437.57225900000003
 20
135.770845
 11
437.57225900000003
 21
96.384335999999976
  0
LINE
  8
_0-4_A2
  6
CONTINUOUS
 62
    7
 10
432.472259
 20
274.20521000000002
 11
432.472259
 21
224.784332
  0
LINE
  8
_0-4_A2
  6
CONTINUOUS
 62
    7
 10
432.472259
 20
143.98433799999997
 11
432.472259
 21
141.73650399999996
  0
LINE
  8
_0-4_A2
  6
CONTINUOUS
 62
    7
 10
432.472259
 20
199.98433199999999
 11
432.472259
 21
143.98433799999997
  0
LINE
  8
_0-4_A2
  6
CONTINUOUS
 62
    7
 10
432.472259
 20
224.784332
 11
432.472259
 21
199.98433199999999
  0
LINE
  8
_0-4_A2
  6
CONTINUOUS
 62
    7
 10
432.728113
 20
141.24501199999997
 11
435.86655300000006
 21
139.04745299999996
  0
LINE
  8
_0-4_A2
  6
CONTINUOUS
 62
    7
 10
442.54576800000006
 20
216.875516
 11
443.472259
 21
217.184347
  0
LINE
  8
_0-4_A2
  6
CONTINUOUS
 62
    7
 10
443.472259
 20
214.78434699999999
 11
442.54576800000006
 21
215.09317699999999
  0
LINE
  8
_0-4_A2
  6
CONTINUOUS
 62
    7
 10
442.27225899999996
 20
216.49604299999998
 11
442.27225899999996
 21
215.47264999999998
  0
LINE
  8
_0-4_A2
  6
CONTINUOUS
 62
    7
 10
443.472259
 20
214.78434699999999
 11
443.472259
 21
96.784336999999993
  0
LINE
  8
_0-4_A2
  6
CONTINUOUS
 62
    7
 10
432.06178799999997
 20
295.78517599999997
 11
443.47224000000005
 21
295.98434600000001
  0
LINE
  8
_0-4_A2
  6
CONTINUOUS
 62
    7
 10
431.17225900000005
 20
219.76957999999999
 11
431.17225900000005
 21
214.199082
  0
LINE
  8
_0-4_A2
  6
CONTINUOUS
 62
    7
 10
432.472259
 20
220.48433600000001
 11
432.472259
 21
217.98433600000001
  0
LINE
  8
_0-4_A2
  6
CONTINUOUS
 62
    7
 10
431.68102099999998
 20
220.362602
 11
432.47225600000001
 21
220.48433099999999
  0
LINE
  8
_0-4_A2
  6
CONTINUOUS
 62
    7
 10
431.68102300000003
 20
213.60606100000001
 11
432.47225100000002
 21
213.48433299999999
  0
LINE
  8
_0-4_A2
  6
CONTINUOUS
 62
    7
 10
431.87225900000004
 20
217.88433599999999
 11
431.87225900000004
 21
216.084336
  0
LINE
  8
_0-4_A2
  6
CONTINUOUS
 62
    7
 10
431.972259
 20
217.98433600000001
 11
432.472259
 21
217.98433600000001
  0
LINE
  8
_0-4_A2
  6
CONTINUOUS
 62
    7
 10
431.972259
 20
215.98433600000001
 11
432.472259
 21
215.98433600000001
  0
LINE
  8
_0-4_A2
  6
CONTINUOUS
 62
    7
 10
432.472259
 20
215.98433600000001
 11
432.472259
 21
213.48433600000001
  0
LINE
  8
_0-4_A2
  6
CONTINUOUS
 62
    7
 10
442.27225899999996
 20
96.773865
 11
442.27225899999996
 21
95.684336999999999
  0
LINE
  8
_0-4_A2
  6
CONTINUOUS
 62
    7
 10
440.87225900000004
 20
96.761647999999979
 11
440.87225900000004
 21
95.684336999999999
  0
LINE
  8
_0-4_A2
  6
CONTINUOUS
 62
    7
 10
440.87225900000004
 20
95.684336999999999
 11
442.27225899999996
 21
95.684336999999999
  0
LINE
  8
_0-4_A2
  6
CONTINUOUS
 62
    7
 10
432.01996600000006
 20
274.33641399999999
 11
432.38097500000003
 21
274.30482899999998
  0
LINE
  8
_0-4_A2
  6
CONTINUOUS
 62
    7
 10
443.472259
 20
295.98434700000001
 11
443.472259
 21
217.184347
  0
LINE
  8
_0-4_A2
  6
CONTINUOUS
 62
    7
 10
438.27225899999996
 20
96.738957999999968
 11
443.472259
 21
96.784336999999993
  0
LINE
  8
_0-4_A2
  6
CONTINUOUS
 62
    7
 10
438.27225899999996
 20
96.738957999999968
 11
438.27225899999996
 21
95.784336999999979
  0
LINE
  8
_0-4_A2
  6
CONTINUOUS
 62
    7
 10
438.27225899999996
 20
95.784336999999979
 11
438.17225900000005
 21
95.784336999999979
  0
LINE
  8
_0-4_A2
  6
CONTINUOUS
 62
    7
 10
437.57225900000003
 20
135.770845
 11
437.57225900000003
 21
96.384335999999976
  0
LINE
  8
_0-4_A2
  6
CONTINUOUS
 62
    7
 10
432.472259
 20
274.20521000000002
 11
432.472259
 21
224.784332
  0
LINE
  8
_0-4_A2
  6
CONTINUOUS
 62
    7
 10
432.472259
 20
143.98433799999997
 11
432.472259
 21
141.73650399999996
  0
LINE
  8
_0-4_A2
  6
CONTINUOUS
 62
    7
 10
432.472259
 20
199.98433199999999
 11
432.472259
 21
143.98433799999997
  0
LINE
  8
_0-4_A2
  6
CONTINUOUS
 62
    7
 10
432.472259
 20
224.784332
 11
432.472259
 21
199.98433199999999
  0
LINE
  8
_0-4_A2
  6
CONTINUOUS
 62
    7
 10
432.728113
 20
141.24501199999997
 11
435.86655300000006
 21
139.04745299999996
  0
LINE
  8
_0-4_A2
  6
CONTINUOUS
 62
    7
 10
442.54576800000006
 20
216.875516
 11
443.472259
 21
217.184347
  0
LINE
  8
_0-4_A2
  6
CONTINUOUS
 62
    7
 10
443.472259
 20
214.78434699999999
 11
442.54576800000006
 21
215.09317699999999
  0
LINE
  8
_0-4_A2
  6
CONTINUOUS
 62
    7
 10
442.27225899999996
 20
216.49604299999998
 11
442.27225899999996
 21
215.47264999999998
  0
LINE
  8
_0-4_A2
  6
CONTINUOUS
 62
    7
 10
443.472259
 20
214.78434699999999
 11
443.472259
 21
96.784336999999993
  0
LINE
  8
_0-4_A2
  6
CONTINUOUS
 62
    7
 10
432.06178799999997
 20
295.78517599999997
 11
443.47224000000005
 21
295.98434600000001
  0
LINE
  8
_0-4_A2
  6
CONTINUOUS
 62
    7
 10
431.17225900000005
 20
219.76957999999999
 11
431.17225900000005
 21
214.199082
  0
LINE
  8
_0-4_A2
  6
CONTINUOUS
 62
    7
 10
432.472259
 20
220.48433600000001
 11
432.472259
 21
217.98433600000001
  0
LINE
  8
_0-4_A2
  6
CONTINUOUS
 62
    7
 10
431.68102099999998
 20
220.362602
 11
432.47225600000001
 21
220.48433099999999
  0
LINE
  8
_0-4_A2
  6
CONTINUOUS
 62
    7
 10
431.68102300000003
 20
213.60606100000001
 11
432.47225100000002
 21
213.48433299999999
  0
LINE
  8
_0-4_A2
  6
CONTINUOUS
 62
    7
 10
431.87225900000004
 20
217.88433599999999
 11
431.87225900000004
 21
216.084336
  0
LINE
  8
_0-4_A2
  6
CONTINUOUS
 62
    7
 10
431.972259
 20
217.98433600000001
 11
432.472259
 21
217.98433600000001
  0
LINE
  8
_0-4_A2
  6
CONTINUOUS
 62
    7
 10
431.972259
 20
215.98433600000001
 11
432.472259
 21
215.98433600000001
  0
LINE
  8
_0-4_A2
  6
CONTINUOUS
 62
    7
 10
432.472259
 20
215.98433600000001
 11
432.472259
 21
213.48433600000001
  0
LINE
  8
_0-4_A2
  6
CONTINUOUS
 62
    7
 10
442.27225899999996
 20
96.773865
 11
442.27225899999996
 21
95.984336999999982
  0
LINE
  8
_0-4_A2
  6
CONTINUOUS
 62
    7
 10
440.87225900000004
 20
96.761647999999979
 11
440.87225900000004
 21
95.984336999999982
  0
LINE
  8
_0-4_A2
  6
CONTINUOUS
 62
    7
 10
431.472259
 20
295.185268
 11
431.472259
 21
274.93412999999998
  0
LINE
  8
_0-4_A2
  6
CONTINUOUS
 62
    7
 10
432.01996600000006
 20
274.33641399999999
 11
432.38097500000003
 21
274.30482899999998
  0
LINE
  8
_0-4_A2
  6
CONTINUOUS
 62
    3
 10
431.44161000000002
 20
294.18283100000002
 11
419.14783799999997
 21
293.43091199999997
  0
LINE
  8
_0-4_A2
  6
CONTINUOUS
 62
    3
 10
418.77225599999997
 20
293.03165999999998
 11
418.77225599999997
 21
276.73731099999997
  0
LINE
  8
_0-4_A2
  6
CONTINUOUS
 62
    3
 10
431.47226
 20
275.58426200000002
 11
419.14784200000002
 21
276.33805599999999
  0
LINE
  8
_0-4_A2
  6
PHANTOM
 62
    7
 10
432.47244900000004
 20
151.98419699999999
 11
432.47244900000004
 21
143.98419699999999
  0
LINE
  8
_0-4_A2
  6
PHANTOM
 62
    7
 10
432.47244900000004
 20
232.984203
 11
432.47244900000004
 21
224.984203
  0
LINE
  8
_0-4_A2
  6
PHANTOM
 62
    7
 10
432.47244900000004
 20
199.98419699999999
 11
432.47244900000004
 21
191.98419699999999
  0
TEXT
  8
_0-3_A1
 62
    7
 10
476.4455121969882
 20
369.79985599999997
 40
3
 41
0.86951
 50
0
  1
ＬＥＤ照明
  0
TEXT
  8
_0-3_A1
 62
    7
 10
476.4455121969882
 20
375.79985599999997
 40
3
 41
0.86951
 50
0
  1
コンセント
  0
TEXT
  8
_0-3_A1
 62
    7
 10
476.4455121969882
 20
381.79985599999997
 40
3
 41
0.86951
 50
0
  1
着脱トレイ
  0
TEXT
  8
_0-3_A1
 62
    7
 10
467.31565719698824
 20
387.79985599999997
 40
3
 41
0.86951
 50
0
  1
ミラーキャビネット
  0
TEXT
  8
_0-3_A1
 62
    7
 10
485.57536719698822
 20
393.79985599999997
 40
3
 41
0.86951
 50
0
  1
鏡
  0
TEXT
  8
_0-3_A1
 62
    7
 10
478.08742619698818
 20
399.55000800000004
 40
3.5
 41
0.86951
 50
0
  1
部　材　名
  0
TEXT
  8
_0-3_A1
 62
    7
 10
541.41304238389329
 20
399.54979400000001
 40
3.5
 41
0.86951
 50
0
  1
備考
  0
TEXT
  8
_0-3_A1
 62
    7
 10
530.66907138389319
 20
393.79996200000005
 40
3
 41
0.86951
 50
0
  1
くもりシャットなし
  0
TEXT
  8
_0-3_A1
 62
    7
 10
528.97628238389324
 20
369.05031400000001
 40
3
 41
0.790598
 50
0
  1
消費電力
  0
TEXT
  8
_0-3_A1
 62
    7
 10
512.10154372199031
 20
369.79985599999997
 40
3
 41
0.733333
 50
0
  1
１
  0
TEXT
  8
_0-3_A1
 62
    7
 10
512.10154372199031
 20
375.79985599999997
 40
3
 41
0.733333
 50
0
  1
１
  0
TEXT
  8
_0-3_A1
 62
    7
 10
512.10154372199031
 20
381.79985599999997
 40
3
 41
0.733333
 50
0
  1
６
  0
TEXT
  8
_0-3_A1
 62
    7
 10
512.10154372199031
 20
387.79985599999997
 40
3
 41
0.733333
 50
0
  1
１
  0
TEXT
  8
_0-3_A1
 62
    7
 10
512.10154372199031
 20
393.79985599999997
 40
3
 41
0.733333
 50
0
  1
１
  0
TEXT
  8
_0-3_A1
 62
    7
 10
509.86267172199023
 20
399.55000800000004
 40
3.5
 41
0.86951
 50
0
  1
数量
  0
TEXT
  8
_0-3_A1
 62
    7
 10
460.27056809649309
 20
369.79985599999997
 40
3
 41
0.86951
 50
0
  1
５
  0
TEXT
  8
_0-3_A1
 62
    7
 10
460.27056809649309
 20
375.79985599999997
 40
3
 41
0.86951
 50
0
  1
４
  0
TEXT
  8
_0-3_A1
 62
    7
 10
460.27056809649309
 20
381.79985599999997
 40
3
 41
0.86951
 50
0
  1
３
  0
TEXT
  8
_0-3_A1
 62
    7
 10
460.27056809649309
 20
387.79985599999997
 40
3
 41
0.86951
 50
0
  1
２
  0
TEXT
  8
_0-3_A1
 62
    7
 10
460.27056809649309
 20
393.79985599999997
 40
3
 41
0.86951
 50
0
  1
１
  0
TEXT
  8
_0-3_A1
 62
    7
 10
522.96594153511762
 20
381.79996300000004
 40
3
 41
0.790598
 50
0
  1
収納重量（耐荷重）各１ｋｇ
  0
LINE
  8
_0-3_A1
  6
CONTINUOUS
 62
    7
 10
456.40675209649316
 20
404.30003900000002
 11
578.40673064525049
 21
404.30003900000002
  0
LINE
  8
_0-3_A1
  6
CONTINUOUS
 62
    7
 10
456.40675209649316
 20
362.30049700000006
 11
578.40673064525049
 21
362.30049700000006
  0
LINE
  8
_0-3_A1
  6
CONTINUOUS
 62
    7
 10
456.40675209649316
 20
392.29985599999997
 11
578.40673064525049
 21
392.29985599999997
  0
LINE
  8
_0-3_A1
  6
CONTINUOUS
 62
    7
 10
456.40675209649316
 20
386.29994699999997
 11
578.40673064525049
 21
386.29994699999997
  0
LINE
  8
_0-3_A1
  6
CONTINUOUS
 62
    7
 10
456.40675209649316
 20
398.29985599999997
 11
578.40673064525049
 21
398.29985599999997
  0
LINE
  8
_0-3_A1
  6
CONTINUOUS
 62
    7
 10
456.40675209649316
 20
374.30013100000007
 11
578.40673064525049
 21
374.30013100000007
  0
LINE
  8
_0-3_A1
  6
CONTINUOUS
 62
    7
 10
456.40675209649316
 20
380.30003900000008
 11
578.40673064525049
 21
380.30003900000008
  0
TEXT
  8
_0-3_A1
 62
    7
 10
524.76078026856271
 20
364.55031400000007
 40
3
 41
0.790598
 50
0
  1
　Ｗ６００：　９．５Ｗ
  0
TEXT
  8
_0-4_A2
 62
    7
 10
320.91007799999999
 20
356.58722456250001
 40
5
 41
1
 50
90
  1
71
  0
TEXT
  8
_0-4_A2
 62
    7
 10
287.25037337499998
 20
335.94048400000008
 40
5
 41
1
 50
0
  1
130
  0
TEXT
  8
_0-4_A2
 62
    7
 10
264.41798099999999
 20
337.618360375
 40
5
 41
1
 50
90
  1
115
  0
TEXT
  8
_0-4_A2
 62
    7
 10
243.06037131250002
 20
326.05614400000001
 40
5
 41
1
 50
0
  1
600
  0
TEXT
  8
_0-4_A2
 62
    7
 10
234.79992553125001
 20
316.728135
 40
5
 41
1
 50
0
  1
300（鏡寸法）
  0
TEXT
  8
_0-4_A2
 62
    7
 10
154.47223499999998
 20
198.80309621874999
 40
5
 41
1
 50
90
  1
589.5（鏡寸法）
  0
TEXT
  8
_0-4_A2
 62
    7
 10
334.47223500000001
 20
282.49684031250001
 40
5
 41
1
 50
90
  1
108
  0
TEXT
  8
_0-4_A2
 62
    7
 10
334.47223500000001
 20
205.7968463125
 40
5
 41
1
 50
90
  1
165
  0
TEXT
  8
_0-4_A2
 62
    7
 10
334.47223500000001
 20
165.2968463125
 40
5
 41
1
 50
90
  1
240
  0
TEXT
  8
_0-4_A2
 62
    7
 10
334.47223500000001
 20
117.69684431249999
 40
5
 41
1
 50
90
  1
236
  0
TEXT
  8
_0-4_A2
 62
    7
 10
349.47223500000001
 20
193.6968403125
 40
5
 41
1
 50
90
  1
996
  0
TEXT
  8
_0-4_A2
 62
    7
 10
425.988919
 20
326.05614400000001
 40
5
 41
1
 50
0
  1
123.5
  0
TEXT
  8
_0-4_A2
 62
    7
 10
435.70767646875003
 20
316.728135
 40
5
 41
1
 50
0
  1
60
  0
TEXT
  8
_0-4_A2
 62
    7
 10
403.60393099999998
 20
242.31235818749999
 40
5
 41
1
 50
90
  1
37.5
  0
TEXT
  8
_0-4_A2
 62
    7
 10
453.80866746875
 20
121.09403899999998
 40
5
 41
1
 50
0
  1
30
  0
TEXT
  8
_0-4_A2
 62
    7
 10
420.9386431873861
 20
66.984343999999993
 40
5
 41
1
 50
0
  1
（130）
  0
TEXT
  8
_0-4_A2
 62
    7
 10
349.47223500000001
 20
87.314751624999985
 40
5
 41
1
 50
90
  1
5
  0
TEXT
  8
_0-3_A1
 62
    7
 10
456.92583672567184
 20
399.55000800000004
 40
3.5
 41
0.86951
 50
0
  1
ＮＯ
  0
LINE
  8
_0-3_A1
  6
CONTINUOUS
 62
    7
 10
456.40675209649316
 20
356.30058900000005
 11
578.40673064525049
 21
356.30058900000005
  0
LINE
  8
_0-3_A1
  6
CONTINUOUS
 62
    7
 10
456.40675209649316
 20
362.30049700000006
 11
578.40673064525049
 21
362.30049700000006
  0
LINE
  8
_0-3_A1
  6
CONTINUOUS
 62
    7
 10
456.40675209649316
 20
404.30003900000002
 11
456.40675209649316
 21
356.30058900000005
  0
LINE
  8
_0-3_A1
  6
CONTINUOUS
 62
    7
 10
578.40673064525049
 20
404.30003900000002
 11
578.40673064525049
 21
356.30058900000005
  0
LINE
  8
_0-3_A1
  6
CONTINUOUS
 62
    7
 10
519.05487672199024
 20
356.30058900000005
 11
519.05487672199024
 21
404.30003900000002
  0
LINE
  8
_0-3_A1
  6
CONTINUOUS
 62
    7
 10
507.05487672199024
 20
356.30058900000005
 11
507.05487672199024
 21
404.30003900000002
  0
LINE
  8
_0-3_A1
  6
CONTINUOUS
 62
    7
 10
466.40673709649314
 20
356.30058900000005
 11
466.40673709649314
 21
404.30003900000002
  0
TEXT
  8
_0-3_A1
 62
    7
 10
460.27056809649309
 20
357.87897889842633
 40
3
 41
0.86951
 50
0
  1
６
  0
TEXT
  8
_0-3_A1
 62
    7
 10
476.44551219698814
 20
357.44868785765379
 40
3
 41
0.86951
 50
0
  1
電源コード
  0
TEXT
  8
_0-3_A1
 62
    7
 10
512.10154372199031
 20
357.73554855150212
 40
3
 41
0.733333
 50
0
  1
１
  0
LINE
  8
_0-3_A1
  6
CONTINUOUS
 62
    7
 10
481.40692264525046
 20
354.37623543061522
 11
578.40673064525049
 21
354.37623543061522
  0
LINE
  8
_0-3_A1
  6
CONTINUOUS
 62
    7
 10
481.40692264525046
 20
348.37623543061522
 11
578.40673064525049
 21
348.37623543061522
  0
LINE
  8
_0-3_A1
  6
CONTINUOUS
 62
    7
 10
481.40692264525046
 20
342.37623543061522
 11
578.40673064525049
 21
342.37623543061522
  0
LINE
  8
_0-3_A1
  6
CONTINUOUS
 62
    7
 10
481.40692264525046
 20
332.37623543061516
 11
578.40673064525049
 21
332.37623543061516
  0
LINE
  8
_0-3_A1
  6
CONTINUOUS
 62
    7
 10
513.40692264525046
 20
348.37623543061522
 11
513.40692264525046
 21
332.37623543061516
  0
TEXT
  8
_0-3_A1
 62
    7
 10
515.14690164525052
 20
337.76272143061521
 40
3
 41
0.8333329999999999
 50
0
  1
直結配線仕様
  0
TEXT
  8
_0-3_A1
 62
    7
 10
515.1469016452504
 20
343.76272143061521
 40
3
 41
0.8333329999999999
 50
0
  1
１口合計　１２００Ｗ
  0
LINE
  8
_0-3_A1
  6
CONTINUOUS
 62
    7
 10
578.40673064525049
 20
354.37623543061522
 11
578.40673064525049
 21
332.37623543061516
  0
LINE
  8
_0-3_A1
  6
CONTINUOUS
 62
    7
 10
481.40692264525046
 20
354.37623543061522
 11
481.40692264525046
 21
332.37623543061516
  0
TEXT
  8
_0-3_A1
 62
    7
 10
522.35349364525063
 20
349.87623543061522
 40
3
 41
0.733333
 50
0
  1
仕　　　　様
  0
TEXT
  8
_0-3_A1
 62
    7
 10
489.87074664525044
 20
343.87623543061522
 40
3
 41
0.86951
 50
0
  1
コンセント
  0
TEXT
  8
_0-3_A1
 62
    7
 10
494.6707466452504
 20
337.87623543061522
 40
3
 41
0.86951
 50
0
  1
電源
  0
TEXT
  8
_0-3_A1
 62
    7
 10
515.14690164525052
 20
333.26272143061515
 40
3
 41
0.8333329999999999
 50
0
  1
ＡＣ１００Ｖ（５０Ｈｚ／６０Ｈｚ共用）
  0
TEXT
  8
_0-3_A1
 62
    7
 10
522.96594153511762
 20
375.85176368025753
 40
3
 41
0.790598
 50
0
  1
１口／個
  0
ARC
  8
_0-4_A2
  6
CONTINUOUS
 62
    7
 10
309.09625800000003
 20
86.217015500000002
 40
1.8499980000000002
 50
161.075422
 51
198.92466999999999
  0
ARC
  8
_0-4_A2
  6
CONTINUOUS
 62
    7
 10
310.95758599999999
 20
89.795140499999973
 40
0.199999
 50
265.91441700000001
 51
355.91436499999997
  0
ARC
  8
_0-4_A2
  6
CONTINUOUS
 62
    7
 10
313.34821099999999
 20
89.586766499999995
 40
0.199999
 50
184.08563699999999
 51
245.51728700000001
  0
ARC
  8
_0-4_A2
  6
CONTINUOUS
 62
    7
 10
313.100164
 20
89.040623499999981
 40
0.399999
 50
8.2518860000000007
 51
85.914381000000005
  0
ARC
  8
_0-4_A2
  6
CONTINUOUS
 62
    7
 10
313.100164
 20
84.99326049999999
 40
0.399999
 50
274.085619
 51
351.74838699999997
  0
ARC
  8
_0-4_A2
  6
CONTINUOUS
 62
    7
 10
299.14606300000002
 20
87.01694249999997
 40
14.499976999999999
 50
351.74824
 51
8.2518860000000202
  0
ARC
  8
_0-4_A2
  6
CONTINUOUS
 62
    7
 10
312.65973500000001
 20
93.617039499999975
 40
0.199999
 50
4.085634999999999
 51
90.00003700000002
  0
ARC
  8
_0-4_A2
  6
CONTINUOUS
 62
    7
 10
311.63239099999998
 20
93.617039499999975
 40
0.199999
 50
89.999926999999985
 51
175.914363
  0
LINE
  8
_0-4_A2
  6
CONTINUOUS
 62
    7
 10
313.13979899999998
 20
84.594698499999992
 11
310.65686700000003
 21
84.417345499999981
  0
LINE
  8
_0-4_A2
  6
CONTINUOUS
 62
    7
 10
310.66446000000001
 20
89.614982499999968
 11
313.14739200000002
 21
89.437630499999997
  0
LINE
  8
_0-4_A2
  6
CONTINUOUS
 62
    7
 10
310.647039
 20
89.617039500000004
 11
310.647039
 21
84.416966499999986
  0
LINE
  8
_0-4_A2
  6
CONTINUOUS
 62
    7
 10
311.17646100000001
 20
89.778872500000005
 11
311.45148199999999
 21
93.629169499999989
  0
LINE
  8
_0-4_A2
  6
CONTINUOUS
 62
    7
 10
312.87026400000002
 20
93.631571499999992
 11
313.16017399999998
 21
89.572820499999977
  0
LINE
  8
_0-4_A2
  6
CONTINUOUS
 62
    7
 10
312.66071099999999
 20
93.816990499999988
 11
311.63336700000002
 21
93.816990499999988
  0
LINE
  8
_0-4_A2
  6
CONTINUOUS
 62
    7
 10
310.647039
 20
85.617039500000004
 11
307.34723500000001
 21
85.617039500000004
  0
LINE
  8
_0-4_A2
  6
CONTINUOUS
 62
    7
 10
310.647039
 20
86.816990499999988
 11
307.34723500000001
 21
86.816990499999988
  0
ARC
  8
_0-4_A2
  6
CONTINUOUS
 62
    7
 10
307.64606300000002
 20
118.32420049999998
 40
4.9999770000000012
 50
0.000036
 51
89.999982000000002
  0
ARC
  8
_0-4_A2
  6
CONTINUOUS
 62
    7
 10
307.64606300000002
 20
118.32420049999998
 40
3.9999769999999998
 50
0.000036
 51
89.999982000000002
  0
LINE
  8
_0-4_A2
  6
CONTINUOUS
 62
    7
 10
305.47223500000001
 20
123.32413949999998
 11
307.64606300000002
 21
123.32413949999998
  0
LINE
  8
_0-4_A2
  6
CONTINUOUS
 62
    7
 10
305.47223500000001
 20
122.32420049999998
 11
307.64606300000002
 21
122.32420049999998
  0
LINE
  8
_0-4_A2
  6
CONTINUOUS
 62
    7
 10
311.647039
 20
118.32420049999998
 11
311.647039
 21
93.816990499999988
  0
LINE
  8
_0-4_A2
  6
CONTINUOUS
 62
    7
 10
312.647039
 20
118.32420049999998
 11
312.647039
 21
93.816990499999988
  0
TEXT
  8
_0-3_A1
 62
    7
 10
284.38197424892706
 20
25.686695278969921
 40
5
 41
1
 50
0
  1
品　番：ＷＳＲ－６０ＭＫ
  0
POINT
  8
_0-4_A2
 62
    3
 10
185.47221000000001
 20
268.89121812656065
  0
POINT
  8
_0-4_A2
 62
    3
 10
202.47223500000001
 20
268.89121812656065
  0
LINE
  8
_0-4_A2
  6
CONTINUOUS
 62
    4
 10
185.47221000000001
 20
268.89121812656065
 11
202.47223500000001
 21
268.89121812656065
  0
TEXT
  8
_0-4_A2
 62
    7
 10
191.76722250000003
 20
269.39121812656065
 40
3.5
 41
0.6285714285714286
 50
0
  1
８５
  0
POINT
  8
_0-4_A2
 62
    3
 10
202.47223500000001
 20
268.89121812656065
  0
POINT
  8
_0-4_A2
 62
    3
 10
288.47223500000001
 20
268.89121812656065
  0
LINE
  8
_0-4_A2
  6
CONTINUOUS
 62
    4
 10
202.47223500000001
 20
268.89121812656065
 11
288.47223500000001
 21
268.89121812656065
  0
TEXT
  8
_0-4_A2
 62
    7
 10
248.33050037015084
 20
269.2465485442122
 40
3.5
 41
0.6285714285714286
 50
0
  1
４３０
  0
POINT
  8
_0-4_A2
 62
    3
 10
176.84073564356259
 20
262.98433899999997
  0
POINT
  8
_0-4_A2
 62
    3
 10
176.84073564356259
 20
157.98434499999999
  0
LINE
  8
_0-4_A2
  6
CONTINUOUS
 62
    4
 10
176.84073564356259
 20
262.98433899999997
 11
176.84073564356259
 21
157.98434499999999
  0
TEXT
  8
_0-4_A2
 62
    7
 10
176.34073564356259
 20
207.17434199999999
 40
3.5
 41
0.6285714285714286
 50
90
  1
５２５
  0
LINE
  8
_0-4_A2
  6
CENTER2
 62
    4
 10
288.47223500000001
 20
257.82073276924012
 11
288.47223500000001
 21
271.16136289452009
  0
LINE
  8
_0-4_A2
  6
CENTER2
 62
    4
 10
175.84073564356259
 20
262.98433899999997
 11
206.58128299817423
 21
262.98433899999997
  0
LINE
  8
_0-4_A2
  6
CENTER2
 62
    4
 10
202.47223500000001
 20
269.89121812656065
 11
202.47223500000001
 21
257.82073276924012
  0
LINE
  8
_0-4_A2
  6
CONTINUOUS
 62
    4
 10
175.84073564356259
 20
157.98434499999999
 11
206.58128299817423
 21
157.98434499999999
  0
ENDSEC
  0
EOF
