  0
SECTION
  2
HEADER
  9
$ACADVER
  1
AC1009
  9
$INSBASE
 10
0
 20
0
 30
0
  9
$EXTMIN
 10
0
 20
0
  9
$EXTMAX
 10
4200
 20
2970
  9
$LIMMIN
 10
0
 20
0
  9
$LIMMAX
 10
4200
 20
2970
  9
$LTSCALE
 40
10
  0
ENDSEC
  0
SECTION
  2
TABLES
  0
TABLE
  2
LTYPE
 70
     9
  0
LTYPE
  2
CONTINUOUS
 70
    64
  3
実線
 72
    65
 73
     0
 40
0.0
  0
LTYPE
  2
DASHED1
 70
    64
  3
--  --  --  --  --  --  --  --  
 72
    65
 73
     2
 40
2.5
 49
1.25
 49
-1.25
  0
LTYPE
  2
DASHED2
 70
    64
  3
----    ----    ----    ----    
 72
    65
 73
     2
 40
5.0
 49
2.5
 49
-2.5
  0
LTYPE
  2
DASHED3
 70
    64
  3
------  ------  ------  ------  
 72
    65
 73
     2
 40
5.0
 49
3.75
 49
-1.25
  0
LTYPE
  2
CENTER1
 70
    64
  3
----- - ----- - ----- - ----- - 
 72
    65
 73
     4
 40
10.0
 49
6.25
 49
-1.25
 49
1.25
 49
-1.25
  0
LTYPE
  2
CENTER2
 70
    64
  3
----------  --  ----------  --  
 72
    65
 73
     4
 40
20.0
 49
12.5
 49
-2.5
 49
2.5
 49
-2.5
  0
LTYPE
  2
PHANTOM1
 70
    64
  3
--- - - --- - - --- - - --- - - 
 72
    65
 73
     6
 40
10.0
 49
3.25
 49
-1.25
 49
1.25
 49
-1.25
 49
1.25
 49
-1.25
  0
LTYPE
  2
PHANTOM2
 70
    64
  3
--------  -  -  --------  -  -  
 72
    65
 73
     6
 40
20.0
 49
10.0
 49
-2.5
 49
1.25
 49
-2.5
 49
1.25
 49
-2.5
  0
LTYPE
  2
DOT
 70
    64
  3
-   -   -   -   -   -   -   -   
 72
    65
 73
     2
 40
2.5
 49
0.625
 49
-1.875
  0
LTYPE
  2
DUMMY
 70
    64
  3
ダミー
 72
    65
 73
     0
 40
0.0
  0
LTYPE
  2
RAND1
 70
    64
  3
ランダム線1
 72
    65
 73
     4
 40
10.0
 49
1.0
 49
-2.0
 49
3.0
 49
-4.0
  0
LTYPE
  2
RAND2
 70
    64
  3
ランダム線2
 72
    65
 73
     4
 40
14.0
 49
2.0
 49
-3.0
 49
4.0
 49
-5.0
  0
LTYPE
  2
RAND3
 70
    64
  3
ランダム線3
 72
    65
 73
     4
 40
18.0
 49
3.0
 49
-4.0
 49
5.0
 49
-6.0
  0
LTYPE
  2
RAND4
 70
    64
  3
ランダム線4
 72
    65
 73
     4
 40
22.0
 49
4.0
 49
-5.0
 49
6.0
 49
-7.0
  0
LTYPE
  2
RAND5
 70
    64
  3
ランダム線5
 72
    65
 73
     4
 40
26.0
 49
5.0
 49
-6.0
 49
7.0
 49
-8.0
  0
LTYPE
  2
LONG1
 70
    64
  3
----------  --  ----------  --  
 72
    65
 73
     4
 40
40.0
 49
32.5
 49
-2.5
 49
2.5
 49
-2.5
  0
LTYPE
  2
LONG2
 70
    64
  3
--------  -  -  --------  -  -  
 72
    65
 73
     6
 40
40.0
 49
30.0
 49
-2.5
 49
1.25
 49
-2.5
 49
1.25
 49
-2.5
  0
LTYPE
  2
LONG3
 70
    64
  3
+++++++++++++++..+++++++++++++++
 72
    65
 73
     2
 40
40.0
 49
37.5
 49
-2.5
  0
LTYPE
  2
LONG4
 70
    64
  3
+++++++++++++++..+++++++++++++++
 72
    65
 73
     2
 40
80.0
 49
75.0
 49
-5.0
  0
LTYPE
  2
LONG5
 70
    64
  3
----------  --  ----------  --  
 72
    65
 73
     4
 40
60.0
 49
37.5
 49
-7.5
 49
7.5
 49
-7.5
  0
LTYPE
  2
dashed
 70
   64
  3
-------   -------------   ------
 72
   65
 73
    2
 40
7.5
 49
6
 49
-1.5
  0
LTYPE
  2
dashed_spaced
 70
   64
  3
----        --------        ----
 72
   65
 73
    2
 40
12
 49
6
 49
-6
  0
LTYPE
  2
long_dashed_dotted
 70
   64
  3
------------- --- --------------
 72
   65
 73
    4
 40
15.25
 49
12
 49
-1.5
 49
0.25
 49
-1.5
  0
LTYPE
  2
long_dashed_double-dotted
 70
   64
  3
----------- --- --- ------------
 72
   65
 73
    6
 40
17
 49
12
 49
-1.5
 49
0.25
 49
-1.5
 49
0.25
 49
-1.5
  0
LTYPE
  2
long_dashed_triplicate-dotted
 70
   64
  3
--------- --- --- --- ----------
 72
   65
 73
    8
 40
18.75
 49
12
 49
-1.5
 49
0.25
 49
-1.5
 49
0.25
 49
-1.5
 49
0.25
 49
-1.5
  0
LTYPE
  2
dotted
 70
   64
  3
   -       -       -       -    
 72
   65
 73
    2
 40
1.75
 49
0.25
 49
-1.5
  0
LTYPE
  2
chain
 70
   64
  3
-------------- -- --------------
 72
   65
 73
    4
 40
18.5
 49
12
 49
-1.5
 49
3.5
 49
-1.5
  0
LTYPE
  2
chain_double_dash
 70
   64
  3
------------ -- -- -------------
 72
   65
 73
    6
 40
23.5
 49
12
 49
-1.5
 49
3.5
 49
-1.5
 49
3.5
 49
-1.5
  0
LTYPE
  2
dashed_dotted
 70
   64
  3
-----------     -     ----------
 72
   65
 73
    4
 40
9.25
 49
6
 49
-1.5
 49
0.25
 49
-1.5
  0
LTYPE
  2
double-dashed_dotted
 70
   64
  3
------   -----------   -   -----
 72
   65
 73
    6
 40
16.75
 49
6
 49
-1.5
 49
6
 49
-1.5
 49
0.25
 49
-1.5
  0
LTYPE
  2
dashed_double-dotted
 70
   64
  3
---------    -    -    ---------
 72
   65
 73
    6
 40
11
 49
6
 49
-1.5
 49
0.25
 49
-1.5
 49
0.25
 49
-1.5
  0
LTYPE
  2
double-dashed_double-dotted
 70
   64
  3
-----   ---------   -   -   ----
 72
   65
 73
    8
 40
18.5
 49
6
 49
-1.5
 49
6
 49
-1.5
 49
0.25
 49
-1.5
 49
0.25
 49
-1.5
  0
LTYPE
  2
dashed_triplicate-dotted
 70
   64
  3
-------    -    -    -    ------
 72
   65
 73
    8
 40
12.75
 49
6
 49
-1.5
 49
0.25
 49
-1.5
 49
0.25
 49
-1.5
 49
0.25
 49
-1.5
  0
LTYPE
  2
double-dashed_triplicate-dotted
 70
   64
  3
-----  ---------  -  -  -  -----
 72
   65
 73
   10
 40
20.25
 49
6
 49
-1.5
 49
6
 49
-1.5
 49
0.25
 49
-1.5
 49
0.25
 49
-1.5
 49
0.25
 49
-1.5
  0
LTYPE
  2
undefined
 70
   64
  3
--------------------------------
 72
   65
 73
    0
 40
0
  0
LTYPE
  2
_
 70
   64
  3
                                
 72
   65
 73
    0
 40
0
  0
LTYPE
  2
__18
 70
   64
  3
                                
 72
   65
 73
    0
 40
0
  0
LTYPE
  2
__19
 70
   64
  3
                                
 72
   65
 73
    0
 40
0
  0
LTYPE
  2
__20
 70
   64
  3
                                
 72
   65
 73
    0
 40
0
  0
LTYPE
  2
__21
 70
   64
  3
                                
 72
   65
 73
    0
 40
0
  0
LTYPE
  2
__22
 70
   64
  3
                                
 72
   65
 73
    0
 40
0
  0
LTYPE
  2
__23
 70
   64
  3
                                
 72
   65
 73
    0
 40
0
  0
LTYPE
  2
__24
 70
   64
  3
                                
 72
   65
 73
    0
 40
0
  0
LTYPE
  2
__25
 70
   64
  3
                                
 72
   65
 73
    0
 40
0
  0
LTYPE
  2
__26
 70
   64
  3
                                
 72
   65
 73
    0
 40
0
  0
LTYPE
  2
__27
 70
   64
  3
                                
 72
   65
 73
    0
 40
0
  0
LTYPE
  2
__28
 70
   64
  3
                                
 72
   65
 73
    0
 40
0
  0
LTYPE
  2
__29
 70
   64
  3
                                
 72
   65
 73
    0
 40
0
  0
LTYPE
  2
__30
 70
   64
  3
                                
 72
   65
 73
    0
 40
0
  0
LTYPE
  2
__31
 70
   64
  3
                                
 72
   65
 73
    0
 40
0
  0
LTYPE
  2
__32
 70
   64
  3
                                
 72
   65
 73
    0
 40
0
  0
ENDTAB
  0
TABLE
  2
STYLE
  5
3
100
AcDbSymbolTable
 70
     1
  0
STYLE
  5
10
100
AcDbSymbolTableRecord
100
AcDbTextStyleTableRecord
  2
STANDARD
 70
     0
 40
0.0
 41
1.0
 50
0.0
 71
     0
 42
0.2
  3
txt
  4
bigfont.shx
  0
STYLE
  5
26
100
AcDbSymbolTableRecord
100
AcDbTextStyleTableRecord
  2
TATEGAKI
 70
    68
 40
0.0
 41
1.0
 50
0.0
 71
     0
 42
1.0
  3
txt
  4
bigfont.shx
  0
ENDTAB
  0
TABLE
  2
LAYER
 70
   15
  0
LAYER
  2
_0-0_
 70
   64
 62
    7
  6
CONTINUOUS
  0
LAYER
  2
_0-2_天板
 70
   64
 62
    7
  6
CONTINUOUS
  0
LAYER
  2
_0-3_キャビネット
 70
   64
 62
    7
  6
CONTINUOUS
  0
LAYER
  2
_0-4_扉
 70
   64
 62
    7
  6
CONTINUOUS
  0
LAYER
  2
_0-5_把手
 70
   64
 62
    7
  6
CONTINUOUS
  0
LAYER
  2
_0-6_
 70
   64
 62
    7
  6
CONTINUOUS
  0
LAYER
  2
_0-8_
 70
   64
 62
    7
  6
CONTINUOUS
  0
LAYER
  2
_0-9_寸法線
 70
   64
 62
    7
  6
CONTINUOUS
  0
LAYER
  2
_0-d_仕様表
 70
   64
 62
    7
  6
CONTINUOUS
  0
LAYER
  2
_e-0_
 70
   64
 62
    7
  6
CONTINUOUS
  0
LAYER
  2
_f-7_
 70
   64
 62
    7
  6
CONTINUOUS
  0
LAYER
  2
_f-8_
 70
   64
 62
    7
  6
CONTINUOUS
  0
LAYER
  2
_f-9_
 70
   64
 62
    7
  6
CONTINUOUS
  0
LAYER
  2
_f-d_固定文字
 70
   64
 62
    7
  6
CONTINUOUS
  0
LAYER
  2
ADD_LINE
 70
   64
 62
    7
  6
CONTINUOUS
  0
ENDTAB
  0
ENDSEC
  0
SECTION
  2
BLOCKS
  0
ENDSEC
  0
SECTION
  2
ENTITIES
  0
POINT
  8
_0-9_寸法線
 62
    9
 10
1179.762526035422
 20
670
  0
LINE
  8
_0-3_キャビネット
  6
CENTER2
 62
    4
 10
2095.3843106180665
 20
2650
 11
2095.3843106180665
 21
2364.0741669389517
  0
POINT
  8
_0-9_寸法線
 62
    3
 10
1812.8843106180665
 20
2037.0827720629663
  0
LINE
  8
_f-8_
  6
CONTINUOUS
 62
    7
 10
2165
 20
2872
 11
2166.15
 21
2874.0000000000004
  0
LINE
  8
_f-8_
  6
CONTINUOUS
 62
    7
 10
2158.6399999999998
 20
2877
 11
2165
 21
2866
  0
LINE
  8
_f-8_
  6
CONTINUOUS
 62
    7
 10
2165
 20
2866
 11
2171.3499999999999
 21
2877
  0
LINE
  8
_f-8_
  6
CONTINUOUS
 62
    7
 10
2165
 20
2860
 11
2176.5399999999999
 21
2880
  0
LINE
  8
_f-8_
  6
CONTINUOUS
 62
    7
 10
2153.4499999999998
 20
2880
 11
2165
 21
2860
  0
LINE
  8
_f-8_
  6
CONTINUOUS
 62
    7
 10
2176.5399999999999
 20
2880
 11
2153.4499999999998
 21
2880
  0
LINE
  8
_f-8_
  6
CONTINUOUS
 62
    7
 10
2163.8400000000001
 20
2874.0000000000004
 11
2165
 21
2872
  0
LINE
  8
_f-8_
  6
CONTINUOUS
 62
    7
 10
2166.15
 20
2874.0000000000004
 11
2163.8400000000001
 21
2874.0000000000004
  0
LINE
  8
_f-8_
  6
CONTINUOUS
 62
    7
 10
2171.3499999999999
 20
2877
 11
2158.6399999999998
 21
2877
  0
LINE
  8
_f-9_
  6
CONTINUOUS
 62
    7
 10
630
 20
120
 11
630
 21
220
  0
LINE
  8
_f-9_
  6
CONTINUOUS
 62
    7
 10
170
 20
120
 11
610
 21
120
  0
LINE
  8
_f-9_
  6
CONTINUOUS
 62
    7
 10
170
 20
220
 11
610
 21
220
  0
LINE
  8
_f-9_
  6
CONTINUOUS
 62
    7
 10
1420
 20
120
 11
1420
 21
220
  0
LINE
  8
_f-9_
  6
CONTINUOUS
 62
    7
 10
2210
 20
120
 11
2210
 21
220
  0
LINE
  8
_f-9_
  6
CONTINUOUS
 62
    7
 10
2220
 20
120
 11
2220
 21
220
  0
LINE
  8
_f-9_
  6
CONTINUOUS
 62
    7
 10
630
 20
120
 11
2210
 21
120
  0
LINE
  8
_f-9_
  6
CONTINUOUS
 62
    7
 10
630
 20
220
 11
2210
 21
220
  0
LINE
  8
_f-9_
  6
CONTINUOUS
 62
    7
 10
2710
 20
120
 11
2710
 21
220
  0
LINE
  8
_f-9_
  6
CONTINUOUS
 62
    7
 10
2720
 20
120
 11
2720
 21
220
  0
LINE
  8
_f-9_
  6
CONTINUOUS
 62
    7
 10
2220
 20
120
 11
2710
 21
120
  0
LINE
  8
_f-9_
  6
CONTINUOUS
 62
    7
 10
2220
 20
220
 11
2710
 21
220
  0
LINE
  8
_f-9_
  6
CONTINUOUS
 62
    7
 10
3020
 20
120
 11
3020
 21
220
  0
LINE
  8
_f-9_
  6
CONTINUOUS
 62
    7
 10
3320
 20
120
 11
3320
 21
220
  0
LINE
  8
_f-9_
  6
CONTINUOUS
 62
    7
 10
3700
 20
120
 11
3700
 21
220
  0
LINE
  8
_f-9_
  6
CONTINUOUS
 62
    7
 10
2720
 20
120
 11
4110
 21
120
  0
LINE
  8
_f-9_
  6
CONTINUOUS
 62
    7
 10
4110
 20
120
 11
4110
 21
220
  0
LINE
  8
_f-9_
  6
CONTINUOUS
 62
    7
 10
2720
 20
220
 11
4110
 21
220
  0
LINE
  8
_0-0_
  6
CONTINUOUS
 62
    7
 10
4130
 20
2860
 11
4130
 21
100
  0
LINE
  8
_0-0_
  6
CONTINUOUS
 62
    7
 10
150
 20
2860
 11
4130
 21
2860
  0
LINE
  8
_0-0_
  6
CONTINUOUS
 62
    7
 10
150
 20
100
 11
4130
 21
100
  0
LINE
  8
_0-0_
  6
CONTINUOUS
 62
    7
 10
150
 20
100
 11
150
 21
2860
  0
TEXT
  8
_f-8_
 62
    7
 10
3340
 20
187.5
 40
25
 41
0.64
 50
0
  1
ＣＨＥＣＫＥＤ
  0
TEXT
  8
_f-8_
 62
    7
 10
3720
 20
187.5
 40
25
 41
0.64
 50
0
  1
ＳＨＥＥＴ　ＮＯ．
  0
TEXT
  8
_f-8_
 62
    7
 10
3542
 20
187.5
 40
25
 41
0.64
 50
0
  1
ＤＲＡＷＩＮＧ
  0
LINE
  8
_f-9_
  6
CONTINUOUS
 62
    7
 10
170
 20
170
 11
610
 21
170
  0
TEXT
  8
_f-8_
 62
    7
 10
2861
 20
142.5
 40
35
 41
0.5714285714285711
 50
0
  1
１／１０
  0
TEXT
  8
_f-8_
 62
    7
 10
2740.3739840854213
 20
187.46937299484983
 40
25
 41
0.64
 50
0
  1
ＳＣＡＬＥ
  0
TEXT
  8
_f-8_
 62
    7
 10
1445
 20
187.5
 40
25
 41
0.8
 50
0
  1
図面名称
  0
TEXT
  8
_f-8_
 62
    7
 10
655
 20
187.5
 40
25
 41
0.8
 50
0
  1
名　称
  0
LINE
  8
_f-7_
  6
CONTINUOUS
 62
    7
 10
120
 20
1462.6794919243113
 11
120
 21
1497.3205080756886
  0
LINE
  8
_f-7_
  6
CONTINUOUS
 62
    7
 10
120
 20
1497.3205080756886
 11
150
 21
1480
  0
LINE
  8
_f-7_
  6
CONTINUOUS
 62
    7
 10
150
 20
1480
 11
120
 21
1462.6794919243113
  0
LINE
  8
_f-7_
  6
CONTINUOUS
 62
    7
 10
125
 20
1471.3397459621555
 11
125
 21
1488.6602540378444
  0
LINE
  8
_f-7_
  6
CONTINUOUS
 62
    7
 10
125
 20
1488.6602540378444
 11
140
 21
1480
  0
LINE
  8
_f-7_
  6
CONTINUOUS
 62
    7
 10
140
 20
1480
 11
125
 21
1471.3397459621555
  0
LINE
  8
_f-7_
  6
CONTINUOUS
 62
    7
 10
128.99999999999977
 20
1478.2679491924309
 11
128.99999999999977
 21
1481.732050807569
  0
LINE
  8
_f-7_
  6
CONTINUOUS
 62
    7
 10
128.99999999999977
 20
1481.732050807569
 11
132.00000000000045
 21
1480
  0
LINE
  8
_f-7_
  6
CONTINUOUS
 62
    7
 10
132.00000000000045
 20
1480
 11
128.99999999999977
 21
1478.2679491924309
  0
LINE
  8
_f-7_
  6
CONTINUOUS
 62
    7
 10
4160
 20
1462.6794919243113
 11
4160
 21
1497.3205080756886
  0
LINE
  8
_f-7_
  6
CONTINUOUS
 62
    7
 10
4160
 20
1497.3205080756886
 11
4130
 21
1480
  0
LINE
  8
_f-7_
  6
CONTINUOUS
 62
    7
 10
4130
 20
1480
 11
4160
 21
1462.6794919243113
  0
LINE
  8
_f-7_
  6
CONTINUOUS
 62
    7
 10
4155
 20
1471.3397459621555
 11
4155
 21
1488.6602540378444
  0
LINE
  8
_f-7_
  6
CONTINUOUS
 62
    7
 10
4155
 20
1488.6602540378444
 11
4140
 21
1480
  0
LINE
  8
_f-7_
  6
CONTINUOUS
 62
    7
 10
4140
 20
1480
 11
4155
 21
1471.3397459621555
  0
LINE
  8
_f-7_
  6
CONTINUOUS
 62
    7
 10
4151
 20
1478.2679491924309
 11
4151
 21
1481.732050807569
  0
LINE
  8
_f-7_
  6
CONTINUOUS
 62
    7
 10
4151
 20
1481.732050807569
 11
4148
 21
1480
  0
LINE
  8
_f-7_
  6
CONTINUOUS
 62
    7
 10
4148
 20
1480
 11
4151
 21
1478.2679491924309
  0
LINE
  8
_0-d_仕様表
  6
CONTINUOUS
 62
    3
 10
4115
 20
2845
 11
3129.9989999999997
 21
2845
  0
LINE
  8
_0-d_仕様表
  6
CONTINUOUS
 62
    7
 10
4115
 20
2285
 11
3129.9989999999997
 21
2285
  0
LINE
  8
_0-d_仕様表
  6
CONTINUOUS
 62
    7
 10
4115
 20
2355
 11
3129.9989999999997
 21
2355
  0
LINE
  8
_0-d_仕様表
  6
CONTINUOUS
 62
    7
 10
4115
 20
2425
 11
3129.9989999999997
 21
2425
  0
LINE
  8
_0-d_仕様表
  6
CONTINUOUS
 62
    7
 10
4115
 20
2495
 11
3129.9989999999997
 21
2495
  0
LINE
  8
_0-d_仕様表
  6
CONTINUOUS
 62
    7
 10
4115
 20
2565
 11
3129.9989999999997
 21
2565
  0
LINE
  8
_0-d_仕様表
  6
CONTINUOUS
 62
    7
 10
4115
 20
2635
 11
3129.9989999999997
 21
2635
  0
LINE
  8
_0-d_仕様表
  6
CONTINUOUS
 62
    7
 10
4115
 20
2705
 11
3129.9989999999997
 21
2705
  0
LINE
  8
_0-d_仕様表
  6
CONTINUOUS
 62
    7
 10
4115
 20
2775
 11
3129.9989999999997
 21
2775
  0
LINE
  8
_0-d_仕様表
  6
CONTINUOUS
 62
    7
 10
4115
 20
2780
 11
3129.9989999999997
 21
2780
  0
TEXT
  8
_0-d_仕様表
 62
    7
 10
3216.9989999999997
 20
2302.5
 40
35
 41
0.8571428571428568
 50
0
  1
把　　手
  0
TEXT
  8
_0-d_仕様表
 62
    7
 10
3264.9989999999997
 20
2442.5
 40
35
 41
0.8571428571428568
 50
0
  1
扉
  0
TEXT
  8
_0-d_仕様表
 62
    7
 10
3216.9989999999997
 20
2372.5
 40
35
 41
0.8571428571428568
 50
0
  1
丁　　番
  0
TEXT
  8
_0-d_仕様表
 62
    7
 10
3216.9989999999997
 20
2512.5
 40
35
 41
0.8571428571428568
 50
0
  1
背　　板
  0
TEXT
  8
_0-d_仕様表
 62
    7
 10
3216.9989999999997
 20
2652.5
 40
35
 41
0.8571428571428568
 50
0
  1
側　　板
  0
TEXT
  8
_0-d_仕様表
 62
    7
 10
3216.9989999999997
 20
2582.5
 40
35
 41
0.8571428571428568
 50
0
  1
地　　板
  0
TEXT
  8
_0-d_仕様表
 62
    7
 10
3454.9989999999997
 20
2302.5
 40
35
 41
0.8571428571428568
 50
0
  1
アルミ一文字把手
  0
TEXT
  8
_0-d_仕様表
 62
    7
 10
3527.4994999999998
 20
2795
 40
35
 41
0.8571428571428568
 50
0
  1
仕　　　　様
  0
TEXT
  8
_0-d_仕様表
 62
    7
 10
3454.9989999999997
 20
2442.5
 40
35
 41
0.7714285714285713
 50
0
  1
低圧メラミン化粧パーティクルボード　１２ｔ
  0
TEXT
  8
_0-d_仕様表
 62
    7
 10
3454.9989999999997
 20
2652.5
 40
35
 41
0.7714285714285713
 50
0
  1
低圧メラミン化粧パーティクルボード　１２ｔ
  0
TEXT
  8
_f-d_固定文字
 62
    7
 10
150.01499999999992
 20
65
 40
20
 41
1
 50
0
  1
%f
  0
TEXT
  8
_f-d_固定文字
 62
    7
 10
3989
 20
65.00000323002979
 40
20
 41
1
 50
0
  1
%y
  0
TEXT
  8
_f-d_固定文字
 62
    7
 10
4020
 20
65.00000323002979
 40
20
 41
1
 50
0
  1
．
  0
TEXT
  8
_f-d_固定文字
 62
    7
 10
4049
 20
65.00000323002979
 40
20
 41
1
 50
0
  1
%m
  0
TEXT
  8
_f-d_固定文字
 62
    7
 10
4080
 20
65.00000323002979
 40
20
 41
1
 50
0
  1
．
  0
TEXT
  8
_f-d_固定文字
 62
    7
 10
4109
 20
65.00000323002979
 40
20
 41
1
 50
0
  1
%d
  0
LINE
  8
_0-d_仕様表
  6
CONTINUOUS
 62
    3
 10
3129.9989999999997
 20
2845
 11
3129.9989999999997
 21
2215
  0
LINE
  8
_0-d_仕様表
  6
CONTINUOUS
 62
    3
 10
4115
 20
2215
 11
3129.9989999999997
 21
2215
  0
LINE
  8
_0-d_仕様表
  6
CONTINUOUS
 62
    3
 10
4115
 20
2215
 11
4115
 21
2845
  0
LINE
  8
_0-d_仕様表
  6
CONTINUOUS
 62
    7
 10
3429.9989999999997
 20
2775
 11
3429.9989999999997
 21
2215
  0
TEXT
  8
_0-d_仕様表
 62
    7
 10
3204.9989999999997
 20
2235
 40
35
 41
0.8571428571428568
 50
0
  1
そ　の　他
  0
POINT
  8
_0-9_寸法線
 62
    3
 10
414.76252603542206
 20
2720
  0
LINE
  8
_0-9_寸法線
  6
CONTINUOUS
 62
    4
 10
1014.762526035422
 20
2720
 11
414.76252603542206
 21
2720
  0
TEXT
  8
_0-9_寸法線
 62
    7
 10
681.66252603542204
 20
2720
 40
35
 41
0.6285714285714286
 50
0
  1
６００
  0
LINE
  8
_0-9_寸法線
  6
CONTINUOUS
 62
    4
 10
414.76252603542206
 20
2730
 11
414.76252603542206
 21
2586.5760922319132
  0
LINE
  8
_0-8_
  6
CONTINUOUS
 62
    4
 10
839.76252603542206
 20
261.86599999999998
 11
589.7625260354215
 21
261.86599999999998
  0
LINE
  8
_0-8_
  6
CONTINUOUS
 62
    4
 10
589.7625260354215
 20
261.86599999999998
 11
589.7625260354215
 21
331.86599999999998
  0
LINE
  8
_0-8_
  6
CONTINUOUS
 62
    4
 10
589.7625260354215
 20
331.86599999999998
 11
839.76252603542206
 21
331.86599999999998
  0
LINE
  8
_0-8_
  6
CONTINUOUS
 62
    4
 10
839.76252603542206
 20
331.86599999999998
 11
839.76252603542206
 21
261.86599999999998
  0
TEXT
  8
_0-8_
 62
    7
 10
667.76252603542161
 20
279.36599999999998
 40
35
 41
0.8571428571428568
 50
0
  1
立面図
  0
LINE
  8
_0-8_
  6
CONTINUOUS
 62
    4
 10
589.76252603542206
 20
1778.9636421607872
 11
839.76252603542206
 21
1778.9636421607872
  0
LINE
  8
_0-8_
  6
CONTINUOUS
 62
    4
 10
589.76252603542206
 20
1848.9636421607872
 11
589.76252603542206
 21
1778.9636421607872
  0
LINE
  8
_0-8_
  6
CONTINUOUS
 62
    4
 10
839.76252603542206
 20
1848.9636421607872
 11
589.76252603542206
 21
1848.9636421607872
  0
LINE
  8
_0-8_
  6
CONTINUOUS
 62
    4
 10
839.76252603542206
 20
1778.9636421607872
 11
839.76252603542206
 21
1848.9636421607872
  0
TEXT
  8
_0-8_
 62
    7
 10
667.76252603542218
 20
1796.4636421607872
 40
35
 41
0.8571428571428568
 50
0
  1
平面図
  0
TEXT
  8
_0-d_仕様表
 62
    7
 10
3454.9989999999997
 20
2722.5
 40
35
 41
0.8571428571428568
 50
0
  1
陶器　　容量　１１.５Ｌ
  0
TEXT
  8
_0-d_仕様表
 62
    7
 10
3200.9989999999993
 20
2722.5
 40
35
 41
0.8571428571428568
 50
0
  1
洗　面　器
  0
POINT
  8
_0-9_寸法線
 62
    3
 10
432.26252603542206
 20
392.08277206296656
  0
LINE
  8
_0-9_寸法線
  6
CONTINUOUS
 62
    4
 10
432.26252603542206
 20
382.08277206296656
 11
432.26252603542206
 21
540.17582582829049
  0
POINT
  8
_0-9_寸法線
 62
    3
 10
997.26252603542206
 20
392.08277206296656
  0
LINE
  8
_0-9_寸法線
  6
CONTINUOUS
 62
    4
 10
997.26252603542206
 20
382.08277206296656
 11
997.26252603542206
 21
540.17582582829049
  0
POINT
  8
_0-9_寸法線
 62
    3
 10
1099.762526035422
 20
2560
  0
LINE
  8
_0-9_寸法線
  6
CONTINUOUS
 62
    4
 10
1099.762526035422
 20
2560
 11
1099.762526035422
 21
2602.2425051253435
  0
POINT
  8
_0-9_寸法線
 62
    3
 10
1179.762526035422
 20
580
  0
POINT
  8
_0-9_寸法線
 62
    3
 10
1259.762526035422
 20
580
  0
LINE
  8
_0-3_キャビネット
  6
CONTINUOUS
 62
    5
 10
432.26252603542206
 20
580
 11
997.26252603542206
 21
580
  0
LINE
  8
_0-3_キャビネット
  6
DASHED1
 62
    2
 10
444.76252603542263
 20
686.99999999999988
 11
985.26252603542275
 21
686.99999999999988
  0
LINE
  8
_0-3_キャビネット
  6
CONTINUOUS
 62
    4
 10
432.26252603542206
 20
670
 11
997.26252603542206
 21
670
  0
POINT
  8
_0-9_寸法線
 62
    3
 10
1014.762526035422
 20
2720
  0
LINE
  8
_0-2_天板
  6
CONTINUOUS
 62
    4
 10
417.76252603542218
 20
2560
 11
1011.762526035422
 21
2560
  0
LINE
  8
_0-2_天板
  6
CONTINUOUS
 62
    4
 10
426.76252603542195
 20
2535
 11
1002.762526035422
 21
2535
  0
LINE
  8
_0-2_天板
  6
CONTINUOUS
 62
    4
 10
477.76252603542218
 20
2530
 11
951.76252603542206
 21
2530
  0
LINE
  8
_0-2_天板
  6
CONTINUOUS
 62
    4
 10
467.76252603542218
 20
2520
 11
467.76252603542218
 21
2142.9144000000001
  0
LINE
  8
_0-2_天板
  6
CONTINUOUS
 62
    4
 10
961.76252603542206
 20
2520
 11
961.76252603542206
 21
2142.9144000000001
  0
LINE
  8
_0-2_天板
  6
CONTINUOUS
 62
    4
 10
1011.762526035422
 20
2560
 11
1011.762526035422
 21
2085
  0
LINE
  8
_0-2_天板
  6
CONTINUOUS
 62
    4
 10
417.76252603542218
 20
2560
 11
417.76252603542218
 21
2085
  0
LINE
  8
_0-2_天板
  6
CONTINUOUS
 62
    4
 10
427.76252603542218
 20
2075
 11
453.98692603542201
 21
2075
  0
LINE
  8
_0-2_天板
  6
CONTINUOUS
 62
    4
 10
975.53852603542213
 20
2075
 11
1001.762526035422
 21
2075
  0
LINE
  8
_0-2_天板
  6
CENTER2
 62
    4
 10
765.76252603542206
 20
2490
 11
765.76252603542206
 21
2434
  0
LINE
  8
_0-2_天板
  6
CENTER2
 62
    4
 10
663.76252603542206
 20
2490
 11
663.76252603542206
 21
2434
  0
ARC
  8
_0-2_天板
  6
CONTINUOUS
 62
    4
 10
477.76252603542218
 20
2520
 40
10
 50
90.000000000000028
 51
180.00000000000005
  0
ARC
  8
_0-2_天板
  6
CONTINUOUS
 62
    4
 10
951.76252603542206
 20
2520
 40
10
 50
0
 51
90.000000000000028
  0
ARC
  8
_0-2_天板
  6
CONTINUOUS
 62
    4
 10
426.76252603542195
 20
2544
 40
9
 50
180.00000000000005
 51
270.00000000000005
  0
ARC
  8
_0-2_天板
  6
CONTINUOUS
 62
    4
 10
1002.762526035422
 20
2544
 40
9
 50
270.00000000000005
 51
0.0000000000000508
  0
ARC
  8
_0-2_天板
  6
CONTINUOUS
 62
    4
 10
714.76252603542206
 20
2220
 40
200
 50
58.088000000000008
 51
121.91200000000002
  0
ARC
  8
_0-2_天板
  6
CONTINUOUS
 62
    4
 10
767.62412603542202
 20
2135.114
 40
300
 50
121.91200000000002
 51
177.96799999999998
  0
ARC
  8
_0-2_天板
  6
CONTINUOUS
 62
    4
 10
661.90092603542211
 20
2135.114
 40
300
 50
2.0320000000000004
 51
58.088000000000008
  0
CIRCLE
  8
_0-2_天板
  6
CONTINUOUS
 62
    4
 10
714.76252603542206
 20
2330
 40
20.500000000000003
  0
CIRCLE
  8
_0-2_天板
  6
CONTINUOUS
 62
    4
 10
714.76252603542206
 20
2330
 40
30.500000000000003
  0
ARC
  8
_0-2_天板
  6
CONTINUOUS
 62
    4
 10
530.48212603542197
 20
2143.2152
 40
62.719599999999999
 50
178.04300000000006
 51
239.35200000000003
  0
ARC
  8
_0-2_天板
  6
CONTINUOUS
 62
    4
 10
714.76252603542206
 20
2454.2268000000003
 40
424.22680000000008
 50
239.35199999999997
 51
300.64800000000002
  0
ARC
  8
_0-2_天板
  6
CONTINUOUS
 62
    4
 10
899.04292603542216
 20
2143.2152
 40
62.719599999999999
 50
300.64800000000013
 51
1.9570000000001275
  0
ARC
  8
_0-2_天板
  6
CONTINUOUS
 62
    4
 10
1001.762526035422
 20
2085
 40
10
 50
270.00000000000005
 51
0.0000000000000508
  0
ARC
  8
_0-2_天板
  6
CONTINUOUS
 62
    4
 10
427.76252603542218
 20
2085
 40
10
 50
180.00000000000005
 51
270.00000000000005
  0
ARC
  8
_0-2_天板
  6
CONTINUOUS
 62
    4
 10
453.98692603542201
 20
2045
 40
30
 50
62.008000000000016
 51
90.000000000000028
  0
ARC
  8
_0-2_天板
  6
CONTINUOUS
 62
    4
 10
714.76252603542206
 20
2535.6076000000002
 40
525.60760000000004
 50
242.00800000000003
 51
297.99200000000007
  0
ARC
  8
_0-2_天板
  6
CONTINUOUS
 62
    4
 10
975.53852603542213
 20
2045
 40
30
 50
90.000000000000028
 51
117.99200000000003
  0
CIRCLE
  8
_0-2_天板
  6
CONTINUOUS
 62
    4
 10
765.76252603542206
 20
2465
 40
13
  0
CIRCLE
  8
_0-2_天板
  6
CONTINUOUS
 62
    4
 10
663.76252603542206
 20
2465
 40
13
  0
TEXT
  8
_f-8_
 62
    7
 10
911
 20
137.5
 40
45
 41
0.8
 50
0
  1
洗面化粧台
  0
POINT
  8
_0-9_寸法線
 62
    3
 10
1099.762526035422
 20
2465
  0
LINE
  8
_0-9_寸法線
  6
CONTINUOUS
 62
    4
 10
1099.762526035422
 20
2465
 11
1099.762526035422
 21
2560
  0
TEXT
  8
_0-9_寸法線
 62
    7
 10
1099.762526035422
 20
2561.0072238752909
 40
35
 41
0.6285714285714286
 50
90
  1
９５
  0
POINT
  8
_0-9_寸法線
 62
    3
 10
1259.762526035422
 20
2009.9999999999997
  0
POINT
  8
_0-9_寸法線
 62
    3
 10
1259.762526035422
 20
2559.9999999999995
  0
LINE
  8
_0-9_寸法線
  6
CONTINUOUS
 62
    4
 10
1259.762526035422
 20
2009.9999999999997
 11
1259.762526035422
 21
2559.9999999999995
  0
TEXT
  8
_0-9_寸法線
 62
    7
 10
1259.762526035422
 20
2251.8999999999996
 40
35
 41
0.6285714285714286
 50
90
  1
５５０
  0
LINE
  8
_0-9_寸法線
  6
CONTINUOUS
 62
    4
 10
1269.762526035422
 20
2560
 11
1043.5469287571015
 21
2560
  0
LINE
  8
_0-9_寸法線
  6
CONTINUOUS
 62
    4
 10
1269.762526035422
 20
2010
 11
828.42905256918675
 21
2010
  0
LINE
  8
_0-9_寸法線
  6
CONTINUOUS
 62
    4
 10
1179.762526035422
 20
580
 11
1179.762526035422
 21
670
  0
TEXT
  8
_0-9_寸法線
 62
    7
 10
1179.762526035422
 20
602.95000000000004
 40
35
 41
0.6285714285714286
 50
90
  1
９０
  0
LINE
  8
_0-3_キャビネット
  6
CONTINUOUS
 62
    5
 10
1812.8843106180665
 20
2559.9999999999995
 11
1812.8843106180665
 21
2144.9999999999995
  0
LINE
  8
_0-3_キャビネット
  6
CONTINUOUS
 62
    5
 10
2377.8843106180665
 20
2559.9999999999995
 11
2377.8843106180665
 21
2144.9999999999995
  0
LINE
  8
_0-3_キャビネット
  6
CONTINUOUS
 62
    5
 10
1812.8843106180665
 20
2559.9999999999995
 11
2377.8843106180665
 21
2559.9999999999995
  0
LINE
  8
_0-3_キャビネット
  6
CONTINUOUS
 62
    5
 10
2377.8843106180665
 20
2144.9999999999995
 11
1812.8843106180665
 21
2144.9999999999995
  0
LINE
  8
_0-3_キャビネット
  6
CONTINUOUS
 62
    5
 10
1819.8843106180665
 20
2544.5
 11
1819.8843106180665
 21
2542
  0
LINE
  8
_0-3_キャビネット
  6
CONTINUOUS
 62
    5
 10
1824.8843106180665
 20
2559.9999999999995
 11
1824.8843106180665
 21
2544.5
  0
LINE
  8
_0-3_キャビネット
  6
CONTINUOUS
 62
    5
 10
1824.8843106180665
 20
2542
 11
1824.8843106180665
 21
2144.9999999999995
  0
LINE
  8
_0-3_キャビネット
  6
CONTINUOUS
 62
    5
 10
1819.8843106180665
 20
2544.5
 11
2370.8843106180665
 21
2544.5
  0
LINE
  8
_0-3_キャビネット
  6
CONTINUOUS
 62
    5
 10
1819.8843106180665
 20
2542
 11
2370.8843106180665
 21
2542
  0
LINE
  8
_0-3_キャビネット
  6
CONTINUOUS
 62
    5
 10
2370.8843106180665
 20
2544.5
 11
2370.8843106180665
 21
2542
  0
LINE
  8
_0-3_キャビネット
  6
CONTINUOUS
 62
    5
 10
2365.8843106180665
 20
2559.9999999999995
 11
2365.8843106180665
 21
2544.5
  0
LINE
  8
_0-3_キャビネット
  6
CONTINUOUS
 62
    5
 10
2365.8843106180665
 20
2542
 11
2365.8843106180665
 21
2144.9999999999995
  0
LINE
  8
_0-3_キャビネット
  6
CONTINUOUS
 62
    5
 10
2365.8843106180665
 20
2159.9999999999995
 11
1824.8843106180665
 21
2159.9999999999995
  0
POINT
  8
_0-9_寸法線
 62
    3
 10
2465.8843106180665
 20
2559.9999999999995
  0
POINT
  8
_0-9_寸法線
 62
    3
 10
1724.8843106180663
 20
2559.9999999999995
  0
POINT
  8
_0-9_寸法線
 62
    3
 10
1724.8843106180663
 20
2509.9999999999995
  0
LINE
  8
_0-9_寸法線
  6
CONTINUOUS
 62
    4
 10
1724.8843106180663
 20
2509.9999999999995
 11
1724.8843106180663
 21
2559.9999999999995
  0
TEXT
  8
_0-9_寸法線
 62
    7
 10
1724.8843106180663
 20
2512.9499999999998
 40
35
 41
0.6285714285714286
 50
90
  1
５０
  0
POINT
  8
_0-9_寸法線
 62
    3
 10
1724.8843106180663
 20
2509.9999999999995
  0
POINT
  8
_0-9_寸法線
 62
    3
 10
1724.8843106180663
 20
2319.9999999999995
  0
LINE
  8
_0-9_寸法線
  6
CONTINUOUS
 62
    4
 10
1724.8843106180663
 20
2319.9999999999995
 11
1724.8843106180663
 21
2509.9999999999995
  0
TEXT
  8
_0-9_寸法線
 62
    7
 10
1724.8843106180663
 20
2381.8999999999996
 40
35
 41
0.6285714285714286
 50
90
  1
１９０
  0
LINE
  8
_0-9_寸法線
  6
CONTINUOUS
 62
    4
 10
1714.8843106180663
 20
2559.9999999999995
 11
1781.0999078963868
 21
2559.9999999999995
  0
LINE
  8
_0-9_寸法線
  6
CONTINUOUS
 62
    4
 10
1714.8843106180663
 20
2319.9999999999995
 11
1781.0999078963868
 21
2319.9999999999995
  0
LINE
  8
_0-9_寸法線
  6
CONTINUOUS
 62
    4
 10
1781.0999078963868
 20
2509.9999999999995
 11
1714.8843106180663
 21
2509.9999999999995
  0
LINE
  8
_0-9_寸法線
  6
CONTINUOUS
 62
    4
 10
2475.8843106180665
 20
2559.9999999999995
 11
2409.6687133397463
 21
2559.9999999999995
  0
POINT
  8
_0-9_寸法線
 62
    3
 10
2545.8843106180665
 20
2559.9999999999995
  0
LINE
  8
_0-9_寸法線
  6
CONTINUOUS
 62
    4
 10
2555.8843106180665
 20
2559.9999999999995
 11
2465.8843106180665
 21
2559.9999999999995
  0
POINT
  8
_0-9_寸法線
 62
    3
 10
2545.8843106180665
 20
2144.9999999999995
  0
LINE
  8
_0-9_寸法線
  6
CONTINUOUS
 62
    4
 10
2555.8843106180665
 20
2145
 11
2409.6687133397463
 21
2145
  0
LINE
  8
_0-9_寸法線
  6
CONTINUOUS
 62
    4
 10
2545.8843106180665
 20
2145
 11
2545.8843106180665
 21
2559.9999999999995
  0
TEXT
  8
_0-9_寸法線
 62
    7
 10
2545.8843106180665
 20
2319.3999999999996
 40
35
 41
0.6285714285714286
 50
90
  1
４１５
  0
POINT
  8
_0-9_寸法線
 62
    3
 10
2377.8843106180665
 20
2037.0827720629663
  0
LINE
  8
_0-9_寸法線
  6
CONTINUOUS
 62
    4
 10
1812.8843106180665
 20
2027.0827720629663
 11
1812.8843106180665
 21
2105.1758258282902
  0
LINE
  8
_0-9_寸法線
  6
CONTINUOUS
 62
    4
 10
2377.8843106180665
 20
2027.0827720629663
 11
2377.8843106180665
 21
2105.1758258282902
  0
LINE
  8
_0-9_寸法線
  6
CONTINUOUS
 62
    4
 10
2333.3843106180665
 20
2037.0827720629663
 11
1857.3843106180665
 21
2037.0827720629663
  0
TEXT
  8
_0-9_寸法線
 62
    7
 10
2062.2843106180662
 20
2037.0827720629663
 40
35
 41
0.6285714285714286
 50
0
  1
４７６
  0
POINT
  8
_0-9_寸法線
 62
    3
 10
2333.3843106180665
 20
2037.0827720629663
  0
LINE
  8
_0-9_寸法線
  6
CONTINUOUS
 62
    4
 10
2333.3843106180665
 20
2027.0827720629663
 11
2333.3843106180665
 21
2105.1758258282902
  0
POINT
  8
_0-9_寸法線
 62
    3
 10
1857.3843106180665
 20
2037.0827720629663
  0
LINE
  8
_0-9_寸法線
  6
CONTINUOUS
 62
    4
 10
1857.3843106180665
 20
2027.0827720629663
 11
1857.3843106180665
 21
2105.1758258282902
  0
LINE
  8
_0-9_寸法線
  6
CONTINUOUS
 62
    4
 10
1812.8843106180665
 20
2037.0827720629663
 11
1712.8843106180665
 21
2037.0827720629663
  0
LINE
  8
_0-9_寸法線
  6
CONTINUOUS
 62
    4
 10
2377.8843106180665
 20
2037.0827720629663
 11
2477.8843106180665
 21
2037.0827720629663
  0
LINE
  8
_0-9_寸法線
  6
CONTINUOUS
 62
    4
 10
1857.3843106180665
 20
2037.0827720629663
 11
1812.8843106180665
 21
2037.0827720629663
  0
TEXT
  8
_0-9_寸法線
 62
    7
 10
1718.1581089675823
 20
2037.9598980984314
 40
35
 41
0.6285714285714286
 50
0
  1
４４．５
  0
LINE
  8
_0-9_寸法線
  6
CONTINUOUS
 62
    4
 10
2377.8843106180665
 20
2037.0827720629663
 11
2333.3843106180665
 21
2037.0827720629663
  0
TEXT
  8
_0-9_寸法線
 62
    7
 10
2382.9865868915303
 20
2037.9598980984314
 40
35
 41
0.6285714285714286
 50
0
  1
４４．５
  0
POINT
  8
_0-9_寸法線
 62
    3
 10
2095.3843106180665
 20
2640
  0
POINT
  8
_0-9_寸法線
 62
    3
 10
2095.3843106180665
 20
2640
  0
POINT
  8
_0-9_寸法線
 62
    3
 10
1812.8843106180665
 20
2640
  0
POINT
  8
_0-9_寸法線
 62
    3
 10
1812.8843106180665
 20
2640
  0
POINT
  8
_0-9_寸法線
 62
    3
 10
2377.8843106180665
 20
2640
  0
POINT
  8
_0-9_寸法線
 62
    3
 10
2377.8843106180665
 20
2640
  0
LINE
  8
_0-9_寸法線
  6
CONTINUOUS
 62
    4
 10
1812.8843106180665
 20
2640
 11
2095.3843106180665
 21
2640
  0
TEXT
  8
_0-9_寸法線
 62
    7
 10
1898.9343106180667
 20
2640
 40
35
 41
0.6285714285714286
 50
0
  1
２８２．５
  0
LINE
  8
_0-9_寸法線
  6
CONTINUOUS
 62
    4
 10
2377.8843106180665
 20
2640
 11
2095.3843106180665
 21
2640
  0
TEXT
  8
_0-9_寸法線
 62
    7
 10
2181.4343106180667
 20
2640
 40
35
 41
0.6285714285714286
 50
0
  1
２８２．５
  0
LINE
  8
_0-9_寸法線
  6
CENTER2
 62
    4
 10
765.76252603542206
 20
2490
 11
765.76252603542206
 21
2674.3023927506715
  0
LINE
  8
_0-9_寸法線
  6
CONTINUOUS
 62
    4
 10
1014.762526035422
 20
2720
 11
1014.762526035422
 21
2586.5760922319132
  0
LINE
  8
_0-9_寸法線
  6
CONTINUOUS
 62
    4
 10
1812.8843106180665
 20
2650
 11
1812.8843106180665
 21
2586.5760922319132
  0
LINE
  8
_0-9_寸法線
  6
CONTINUOUS
 62
    4
 10
2377.8843106180665
 20
2650
 11
2377.8843106180665
 21
2586.5760922319132
  0
LINE
  8
_0-8_
  6
CONTINUOUS
 62
    4
 10
1970.3843106180665
 20
1778.9636421607872
 11
2220.3843106180665
 21
1778.9636421607872
  0
LINE
  8
_0-8_
  6
CONTINUOUS
 62
    4
 10
1970.3843106180665
 20
1848.9636421607872
 11
1970.3843106180665
 21
1778.9636421607872
  0
LINE
  8
_0-8_
  6
CONTINUOUS
 62
    4
 10
2220.3843106180665
 20
1848.9636421607872
 11
1970.3843106180665
 21
1848.9636421607872
  0
LINE
  8
_0-8_
  6
CONTINUOUS
 62
    4
 10
2220.3843106180665
 20
1778.9636421607872
 11
2220.3843106180665
 21
1848.9636421607872
  0
LINE
  8
_0-2_天板
  6
CENTER2
 62
    4
 10
669.26252603542195
 20
2330
 11
760.26252603542218
 21
2330
  0
TEXT
  8
_0-8_
 62
    7
 10
1984.3843106180665
 20
1796.463642160787
 40
35
 41
0.8571428571428568
 50
0
  1
排水取り合い図
  0
TEXT
  8
_0-d_仕様表
 62
    7
 10
3454.9989999999997
 20
2582.5
 40
35
 41
0.8571428571428568
 50
0
  1
片面フラッシュ合板　１７．５ｔ
  0
TEXT
  8
_0-d_仕様表
 62
    7
 10
3454.9989999999997
 20
2512.5
 40
35
 41
0.8571428571428568
 50
0
  1
ＭＤＦ　２．５ｔ
  0
TEXT
  8
_0-d_仕様表
 62
    7
 10
3454.9989999999997
 20
2232.5
 40
35
 41
0.8571428571428568
 50
0
  1
底板点検口・Ｓトラップ　ホース付
  0
LINE
  8
_0-9_寸法線
  6
CENTER2
 62
    4
 10
663.76252603542206
 20
2490
 11
663.76252603542206
 21
2674.3023927506715
  0
CIRCLE
  8
_0-3_キャビネット
  6
CONTINUOUS
 62
    4
 10
2095.3843106180665
 20
2440
 40
67.5
  0
LINE
  8
_0-3_キャビネット
  6
CENTER2
 62
    4
 10
2001.4531114409489
 20
2439.9999999999995
 11
2475.0424675755452
 21
2439.9999999999995
  0
POINT
  8
_0-9_寸法線
 62
    3
 10
2465.8843106180665
 20
2559.9999999999995
  0
POINT
  8
_0-9_寸法線
 62
    3
 10
2465.8843106180665
 20
2439.9999999999995
  0
LINE
  8
_0-9_寸法線
  6
CONTINUOUS
 62
    4
 10
2465.8843106180665
 20
2559.9999999999995
 11
2465.8843106180665
 21
2439.9999999999995
  0
TEXT
  8
_0-9_寸法線
 62
    7
 10
2460.8843106180665
 20
2466.8999999999996
 40
35
 41
0.6285714285714286
 50
90
  1
１２０
  0
POINT
  8
_0-9_寸法線
 62
    3
 10
436.26252603542212
 20
472.08277206296656
  0
POINT
  8
_0-9_寸法線
 62
    3
 10
993.26252603542206
 20
472.08277206296656
  0
LINE
  8
_0-4_扉
  6
CONTINUOUS
 62
    3
 10
715.26252603542184
 20
673
 11
993.26252603542206
 21
673
  0
LINE
  8
_0-4_扉
  6
CONTINUOUS
 62
    3
 10
436.26252603542212
 20
673
 11
714.26252603542229
 21
673
  0
LINE
  8
_0-9_寸法線
  6
CONTINUOUS
 62
    4
 10
714.26252603542161
 20
462.08277206296656
 11
714.26252603542229
 21
540.17582582829049
  0
POINT
  8
_0-9_寸法線
 62
    9
 10
714.26252603542229
 20
472.08277206296656
  0
LINE
  8
_0-9_寸法線
  6
CONTINUOUS
 62
    4
 10
715.26252603542218
 20
462.08277206296656
 11
715.26252603542218
 21
540.17582582829049
  0
POINT
  8
_0-9_寸法線
 62
    9
 10
715.26252603542218
 20
472.08277206296656
  0
LINE
  8
_0-2_天板
  6
CENTER2
 62
    4
 10
714.76252603542206
 20
2611.6091587114415
 11
714.76252603542206
 21
2041.0637221348722
  0
POINT
  8
_0-9_寸法線
 62
    3
 10
663.76252603542206
 20
2660
  0
POINT
  8
_0-9_寸法線
 62
    3
 10
765.76252603542206
 20
2660
  0
LINE
  8
_0-9_寸法線
  6
CONTINUOUS
 62
    4
 10
765.76252603542206
 20
2660
 11
663.76252603542206
 21
2660
  0
TEXT
  8
_0-9_寸法線
 62
    7
 10
681.66252603542204
 20
2660
 40
35
 41
0.6285714285714286
 50
0
  1
１０２
  0
TEXT
  8
_0-9_寸法線
 62
    7
 10
762.34856727855435
 20
2743.4265442463638
 40
20
 41
0.75
 50
0
  1
５
  0
TEXT
  8
_0-9_寸法線
 62
    7
 10
750.12685346434886
 20
2749.5561866680473
 40
15
 41
0.6666666666666666
 50
0
  1
＋
  0
TEXT
  8
_0-9_寸法線
 62
    7
 10
749.92753308733085
 20
2738.2401537980531
 40
15
 41
0.6666666666666666
 50
0
  1
－
  0
TEXT
  8
_0-9_寸法線
 62
    7
 10
750.81748243452602
 20
2689.5897983291974
 40
15
 41
0.6666666666666666
 50
0
  1
＋
  0
TEXT
  8
_0-9_寸法線
 62
    7
 10
750.61816205750801
 20
2678.2737654592028
 40
15
 41
0.6666666666666666
 50
0
  1
－
  0
TEXT
  8
_0-9_寸法線
 62
    7
 10
763.03919624873151
 20
2683.460155907514
 40
20
 41
0.75
 50
0
  1
３
  0
TEXT
  8
_0-9_寸法線
 62
    7
 10
1072.2071104529859
 20
2607.1754456386611
 40
15
 41
0.6666666666666666
 50
90
  1
＋
  0
TEXT
  8
_0-9_寸法線
 62
    7
 10
1078.3367528746694
 20
2619.397159452867
 40
20
 41
0.75
 50
90
  1
４
  0
TEXT
  8
_0-9_寸法線
 62
    7
 10
1083.5231433229805
 20
2607.1384088903409
 40
15
 41
0.6666666666666666
 50
90
  1
－
  0
TEXT
  8
_0-9_寸法線
 62
    7
 10
1231.4950338181372
 20
2324.587516780612
 40
15
 41
0.6666666666666666
 50
90
  1
＋
  0
TEXT
  8
_0-9_寸法線
 62
    7
 10
1242.811066688132
 20
2324.3881964035945
 40
15
 41
0.6666666666666666
 50
90
  1
－
  0
TEXT
  8
_0-9_寸法線
 62
    7
 10
1237.6246762398207
 20
2336.8092305948175
 40
20
 41
0.75
 50
90
  1
１０
  0
LINE
  8
_0-8_
  6
CONTINUOUS
 62
    4
 10
849.68499096492723
 20
2610.3579731543195
 11
992.07104663691325
 21
2610.3579731543195
  0
TEXT
  8
_0-8_
 62
    7
 10
931.79348177453448
 20
2638.5274290826241
 40
15
 41
0.6666666666666666
 50
0
  1
＋
  0
TEXT
  8
_0-8_
 62
    7
 10
959.11166284894943
 20
2638.5274290826241
 40
15
 41
0.6666666666666666
 50
0
  1
－
  0
TEXT
  8
_0-8_
 62
    7
 10
944.01519558873974
 20
2636.1797728965416
 40
20
 41
0.75
 50
0
  1
３
  0
TEXT
  8
_0-8_
 62
    7
 10
971.33337666315492
 20
2636.1797728965416
 40
20
 41
0.75
 50
0
  1
１
  0
TEXT
  8
_0-8_
 62
    7
 10
860.82476686566474
 20
2613.2331519159333
 40
35
 41
0.5714285714285711
 50
0
  1
φ２６
  0
LINE
  8
_0-8_
  6
CONTINUOUS
 62
    4
 10
765.76252603542206
 20
2465
 11
849.68499096492723
 21
2610.3579731543195
  0
LINE
  8
_0-8_
  6
CONTINUOUS
 62
    3
 10
765.76252603542206
 20
2465
 11
773.52709738849762
 21
2493.9777747886719
  0
LINE
  8
_0-8_
  6
CONTINUOUS
 62
    3
 10
765.76252603542206
 20
2465
 11
786.97572947101832
 21
2486.2132034355963
  0
TEXT
  8
_0-d_仕様表
 62
    7
 10
3454.9989999999997
 20
2372.5
 40
35
 41
0.8571428571428568
 50
0
  1
ワンタッチスライド式丁番
  0
TEXT
  8
_0-d_仕様表
 62
    7
 10
3173.1537242472268
 20
2145.281299524564
 40
35
 41
0.8571428571428568
 50
0
  1
止水栓の取扱いはございません。現場にてご用意ください。
  0
LINE
  8
_0-3_キャビネット
  6
CONTINUOUS
 62
    5
 10
997.26252603542206
 20
1188.0000984777827
 11
997.26252603542206
 21
580
  0
LINE
  8
_0-3_キャビネット
  6
CONTINUOUS
 62
    5
 10
432.26252603542206
 20
1188.0000984777827
 11
432.26252603542206
 21
580
  0
LINE
  8
_0-8_
  6
CONTINUOUS
 62
    4
 10
1970.3873106180667
 20
261.86599999999998
 11
2220.3843106180665
 21
261.86599999999998
  0
LINE
  8
_0-8_
  6
CONTINUOUS
 62
    4
 10
2220.3843106180665
 20
261.86599999999998
 11
2220.3843106180665
 21
331.8659999999997
  0
LINE
  8
_0-8_
  6
CONTINUOUS
 62
    4
 10
2220.3843106180665
 20
331.8659999999997
 11
1970.3873106180667
 21
331.8659999999997
  0
LINE
  8
_0-8_
  6
CONTINUOUS
 62
    4
 10
1970.3873106180667
 20
331.8659999999997
 11
1970.3873106180667
 21
261.86599999999998
  0
TEXT
  8
_0-8_
 62
    7
 10
2048.3843106180665
 20
279.36599999999998
 40
35
 41
0.8571428571428568
 50
0
  1
断面図
  0
LINE
  8
_0-3_キャビネット
  6
CONTINUOUS
 62
    5
 10
2319.8843106180665
 20
687.5
 11
1922.8843106180665
 21
687.5
  0
LINE
  8
_0-4_扉
  6
CONTINUOUS
 62
    3
 10
1907.8843106180665
 20
673
 11
1919.8843106180663
 21
673
  0
POINT
  8
_0-9_寸法線
 62
    3
 10
2337.8843106180665
 20
392.08277206296656
  0
LINE
  8
_0-9_寸法線
  6
CONTINUOUS
 62
    4
 10
2337.8843106180665
 20
382.08277206296656
 11
2337.8843106180665
 21
540.17582582829049
  0
POINT
  8
_0-9_寸法線
 62
    3
 10
2337.8843106180665
 20
472.08277206296656
  0
LINE
  8
_0-9_寸法線
  6
CONTINUOUS
 62
    4
 10
2337.8843106180665
 20
462.08277206296656
 11
2337.8843106180665
 21
540.17582582829049
  0
POINT
  8
_0-9_寸法線
 62
    3
 10
1922.8843106180665
 20
392.08277206296656
  0
LINE
  8
_0-9_寸法線
  6
CONTINUOUS
 62
    4
 10
2337.8843106180665
 20
392.08277206296656
 11
1922.8843106180665
 21
392.08277206296656
  0
TEXT
  8
_0-9_寸法線
 62
    7
 10
2097.2843106180662
 20
392.08277206296656
 40
35
 41
0.6285714285714286
 50
0
  1
４１５
  0
LINE
  8
_0-3_キャビネット
  6
CONTINUOUS
 62
    4
 10
2319.8843106180665
 20
685
 11
1922.8843106180665
 21
685
  0
LINE
  8
_0-3_キャビネット
  6
CONTINUOUS
 62
    4
 10
2287.8843106180665
 20
670
 11
2287.8843106180665
 21
685
  0
LINE
  8
_0-3_キャビネット
  6
CONTINUOUS
 62
    4
 10
2097.8843106180665
 20
670
 11
2097.8843106180665
 21
685
  0
LINE
  8
_0-3_キャビネット
  6
CONTINUOUS
 62
    4
 10
2062.8843106180665
 20
670
 11
2062.8843106180665
 21
685
  0
LINE
  8
_0-3_キャビネット
  6
CONTINUOUS
 62
    4
 10
1954.8843106180663
 20
670
 11
1954.8843106180663
 21
685
  0
LINE
  8
_0-3_キャビネット
  6
CONTINUOUS
 62
    4
 10
1922.8843106180665
 20
670
 11
1954.8843106180663
 21
685
  0
LINE
  8
_0-3_キャビネット
  6
CONTINUOUS
 62
    4
 10
2062.8843106180665
 20
670
 11
2097.8843106180665
 21
685
  0
LINE
  8
_0-3_キャビネット
  6
CONTINUOUS
 62
    4
 10
2287.8843106180665
 20
670
 11
2319.8843106180665
 21
685
  0
POINT
  8
_0-9_寸法線
 62
    3
 10
2217.8843106180665
 20
472.08277206296656
  0
POINT
  8
_0-9_寸法線
 62
    3
 10
2337.8843106180665
 20
472.08277206296656
  0
POINT
  8
_0-9_寸法線
 62
    3
 10
2217.8843106180665
 20
472.08277206296656
  0
LINE
  8
_0-9_寸法線
  6
CONTINUOUS
 62
    4
 10
2337.8843106180665
 20
472.08277206296656
 11
2217.8843106180665
 21
472.08277206296656
  0
TEXT
  8
_0-9_寸法線
 62
    7
 10
2244.7843106180662
 20
477.08277206296656
 40
35
 41
0.6285714285714286
 50
0
  1
１２０
  0
POINT
  8
_0-9_寸法線
 62
    3
 10
436.26252603542212
 20
472.08277206296656
  0
POINT
  8
_0-9_寸法線
 62
    3
 10
714.26252603542229
 20
472.08277206296656
  0
LINE
  8
_0-9_寸法線
  6
CONTINUOUS
 62
    4
 10
436.26252603542212
 20
462.08277206296656
 11
436.26252603542212
 21
540.17582582829049
  0
LINE
  8
_0-9_寸法線
  6
CONTINUOUS
 62
    4
 10
714.26252603542229
 20
462.08277206296656
 11
714.26252603542229
 21
540.17582582829049
  0
LINE
  8
_0-4_扉
  6
CONTINUOUS
 62
    4
 10
436.26252603542212
 20
472.08277206296656
 11
714.26252603542229
 21
472.08277206296656
  0
TEXT
  8
_0-4_扉
 62
    7
 10
542.16252603542216
 20
477.08277206296656
 40
35
 41
0.6285714285714286
 50
0
  1
２７８
  0
POINT
  8
_0-9_寸法線
 62
    3
 10
715.26252603542218
 20
472.08277206296656
  0
POINT
  8
_0-9_寸法線
 62
    3
 10
993.26252603542206
 20
472.08277206296656
  0
LINE
  8
_0-9_寸法線
  6
CONTINUOUS
 62
    4
 10
715.26252603542218
 20
462.08277206296656
 11
715.26252603542218
 21
540.17582582829049
  0
LINE
  8
_0-9_寸法線
  6
CONTINUOUS
 62
    4
 10
993.26252603542206
 20
462.08277206296656
 11
993.26252603542206
 21
540.17582582829049
  0
LINE
  8
_0-4_扉
  6
CONTINUOUS
 62
    4
 10
715.26252603542218
 20
472.08277206296656
 11
993.26252603542206
 21
472.08277206296656
  0
TEXT
  8
_0-4_扉
 62
    7
 10
821.16252603542216
 20
477.08277206296656
 40
35
 41
0.6285714285714286
 50
0
  1
２７８
  0
POINT
  8
_0-9_寸法線
 62
    3
 10
432.26252603542206
 20
392.08277206296656
  0
POINT
  8
_0-9_寸法線
 62
    3
 10
997.26252603542206
 20
392.08277206296656
  0
LINE
  8
_0-4_扉
  6
CONTINUOUS
 62
    4
 10
432.26252603542206
 20
392.08277206296656
 11
997.26252603542206
 21
392.08277206296656
  0
TEXT
  8
_0-4_扉
 62
    7
 10
681.66252603542204
 20
397.08277206296656
 40
35
 41
0.6285714285714286
 50
0
  1
５６５
  0
POINT
  8
_0-9_寸法線
 62
    3
 10
2520.3843106180665
 20
580
  0
LINE
  8
_0-9_寸法線
  6
CONTINUOUS
 62
    4
 10
2530.3843106180665
 20
580
 11
2364.1687133397458
 21
580
  0
POINT
  8
_0-9_寸法線
 62
    3
 10
2440.3843106180665
 20
580
  0
LINE
  8
_0-9_寸法線
  6
CONTINUOUS
 62
    4
 10
2440.3843106180665
 20
580
 11
2440.3843106180665
 21
670
  0
TEXT
  8
_0-9_寸法線
 62
    7
 10
2440.3843106180665
 20
602.95000000000004
 40
35
 41
0.6285714285714286
 50
90
  1
９０
  0
POINT
  8
_0-9_寸法線
 62
    3
 10
2440.3843106180665
 20
670
  0
LINE
  8
_0-9_寸法線
  6
CONTINUOUS
 62
    4
 10
2450.3843106180665
 20
670
 11
2364.1687133397458
 21
670
  0
TEXT
  8
_0-d_仕様表
 62
    7
 10
3860.6210602131609
 20
2039.2434880455298
 40
35
 41
0.8571428571428568
 50
0
  1
扉　色
  0
TEXT
  8
_0-d_仕様表
 62
    7
 10
3715.7122200188973
 20
1971.7434880455298
 40
35
 41
0.8571428571428568
 50
0
  1
ＳＷ
  0
TEXT
  8
_0-d_仕様表
 62
    7
 10
3830.2421204263209
 20
1971.7434880455298
 40
35
 41
0.8571428571428568
 50
0
  1
ホワイト
  0
TEXT
  8
_0-d_仕様表
 62
    7
 10
3720.7036754285845
 20
1912.3328148613099
 40
35
 41
0.8571428571428568
 50
0
  1
ＬＧ
  0
TEXT
  8
_0-d_仕様表
 62
    7
 10
3830.3411143313564
 20
1912.3328148613099
 40
35
 41
0.8571428571428568
 50
0
  1
木　　目
  0
TEXT
  8
_0-d_仕様表
 62
    7
 10
3715.7122200188973
 20
1846.7434880455293
 40
35
 41
0.8571428571428568
 50
0
  1
ＵＷ
  0
TEXT
  8
_0-d_仕様表
 62
    7
 10
3830.24212042632
 20
1846.7434880455293
 40
35
 41
0.8571428571428568
 50
0
  1
ｳﾙﾄﾗﾎﾜｲﾄ（艶有）
  0
TEXT
  8
_0-d_仕様表
 62
    7
 10
3720.7036754285845
 20
1787.3328148613097
 40
35
 41
0.8571428571428568
 50
0
  1
ＷＮ
  0
TEXT
  8
_0-d_仕様表
 62
    7
 10
3830.2421204263209
 20
1786.7434880455293
 40
35
 41
0.8571428571428568
 50
0
  1
ｳｨﾝｻﾞｰﾅｯﾄ（艶有）
  0
LINE
  8
_0-d_仕様表
  6
CONTINUOUS
 62
    3
 10
4115
 20
2089.2434880455298
 11
4115
 21
1594.2434880455289
  0
LINE
  8
_0-d_仕様表
  6
CONTINUOUS
 62
    7
 10
3800.2421204263209
 20
2019.2434880455298
 11
3800.2421204263209
 21
1899.2434880455293
  0
TEXT
  8
_0-d_仕様表
 62
    7
 10
3720.7036754285845
 20
1727.3328148613095
 40
35
 41
0.8571428571428568
 50
0
  1
ＢＳ
  0
TEXT
  8
_0-d_仕様表
 62
    7
 10
3830.341114331356
 20
1727.3328148613095
 40
35
 41
0.8571428571428568
 50
0
  1
ブラックストーン
  0
LINE
  8
_0-d_仕様表
  6
CONTINUOUS
 62
    3
 10
3700.2421204263209
 20
2089.2434880455298
 11
3700.2421204263209
 21
1594.2434880455289
  0
LINE
  8
_0-d_仕様表
  6
CONTINUOUS
 62
    7
 10
3800.2421204263209
 20
1894.2434880455293
 11
3800.2421204263209
 21
1594.2434880455289
  0
TEXT
  8
_0-d_仕様表
 62
    7
 10
3720.7036754285845
 20
1667.3328148613095
 40
35
 41
0.8571428571428568
 50
0
  1
ＰＭ
  0
TEXT
  8
_0-d_仕様表
 62
    7
 10
3830.3411143313569
 20
1667.3328148613095
 40
35
 41
0.8571428571428568
 50
0
  1
ペールグレイン
  0
TEXT
  8
_0-d_仕様表
 62
    7
 10
3720.7036754285845
 20
1607.3328148613095
 40
35
 41
0.8571428571428568
 50
0
  1
ＭＤ
  0
TEXT
  8
_0-d_仕様表
 62
    7
 10
3830.3411143313569
 20
1607.3328148613095
 40
35
 41
0.8571428571428568
 50
0
  1
ダークグレイン
  0
LINE
  8
_0-d_仕様表
  6
CONTINUOUS
 62
    3
 10
4115
 20
2089.2434880455298
 11
3700.2421204263209
 21
2089.2434880455298
  0
LINE
  8
_0-d_仕様表
  6
CONTINUOUS
 62
    3
 10
4115
 20
1594.2434880455289
 11
3700.2421204263209
 21
1594.2434880455289
  0
LINE
  8
_0-d_仕様表
  6
CONTINUOUS
 62
    7
 10
3700.2421204263209
 20
1959.2434880455298
 11
4115
 21
1959.2434880455298
  0
LINE
  8
_0-d_仕様表
  6
CONTINUOUS
 62
    7
 10
4115
 20
1959.2434880455298
 11
3700.2421204263209
 21
1959.2434880455298
  0
LINE
  8
_0-d_仕様表
  6
CONTINUOUS
 62
    3
 10
4115
 20
1959.2434880455298
 11
3700.2421204263209
 21
1959.2434880455298
  0
LINE
  8
_0-d_仕様表
  6
CONTINUOUS
 62
    3
 10
4115
 20
1899.2434880455293
 11
3700.2421204263209
 21
1899.2434880455293
  0
LINE
  8
_0-d_仕様表
  6
CONTINUOUS
 62
    7
 10
4115
 20
1834.2434880455293
 11
3700.2421204263209
 21
1834.2434880455293
  0
LINE
  8
_0-d_仕様表
  6
CONTINUOUS
 62
    3
 10
4115
 20
1834.2434880455293
 11
3700.2421204263209
 21
1834.2434880455293
  0
LINE
  8
_0-d_仕様表
  6
CONTINUOUS
 62
    3
 10
4115
 20
1774.2434880455293
 11
3700.2421204263209
 21
1774.2434880455293
  0
LINE
  8
_0-d_仕様表
  6
CONTINUOUS
 62
    7
 10
3700.2421204263209
 20
1834.2434880455293
 11
4115
 21
1834.2434880455293
  0
LINE
  8
_0-d_仕様表
  6
CONTINUOUS
 62
    7
 10
4115
 20
1899.2434880455293
 11
3700.2421204263209
 21
1899.2434880455293
  0
LINE
  8
_0-d_仕様表
  6
CONTINUOUS
 62
    7
 10
4115
 20
1894.2434880455293
 11
3700.2421204263209
 21
1894.2434880455293
  0
LINE
  8
_0-d_仕様表
  6
CONTINUOUS
 62
    7
 10
4115
 20
1774.2434880455293
 11
3700.2421204263209
 21
1774.2434880455293
  0
LINE
  8
_0-d_仕様表
  6
CONTINUOUS
 62
    3
 10
4115
 20
1774.2434880455293
 11
3700.2421204263209
 21
1774.2434880455293
  0
LINE
  8
_0-d_仕様表
  6
CONTINUOUS
 62
    3
 10
4115
 20
1714.2434880455291
 11
3700.2421204263209
 21
1714.2434880455291
  0
LINE
  8
_0-d_仕様表
  6
CONTINUOUS
 62
    7
 10
3700.2421204263209
 20
1774.2434880455293
 11
4115
 21
1774.2434880455293
  0
LINE
  8
_0-d_仕様表
  6
CONTINUOUS
 62
    7
 10
4115
 20
1714.2434880455291
 11
3700.2421204263209
 21
1714.2434880455291
  0
LINE
  8
_0-d_仕様表
  6
CONTINUOUS
 62
    3
 10
4115
 20
1714.2434880455291
 11
3700.2421204263209
 21
1714.2434880455291
  0
LINE
  8
_0-d_仕様表
  6
CONTINUOUS
 62
    3
 10
4115
 20
1654.2434880455291
 11
3700.2421204263209
 21
1654.2434880455291
  0
LINE
  8
_0-d_仕様表
  6
CONTINUOUS
 62
    7
 10
3700.2421204263209
 20
1714.2434880455291
 11
4115
 21
1714.2434880455291
  0
LINE
  8
_0-d_仕様表
  6
CONTINUOUS
 62
    7
 10
4115
 20
1654.2434880455291
 11
3700.2421204263209
 21
1654.2434880455291
  0
LINE
  8
_0-d_仕様表
  6
CONTINUOUS
 62
    3
 10
4115
 20
1654.2434880455291
 11
3700.2421204263209
 21
1654.2434880455291
  0
LINE
  8
_0-d_仕様表
  6
CONTINUOUS
 62
    7
 10
3700.2421204263209
 20
1654.2434880455291
 11
4115
 21
1654.2434880455291
  0
LINE
  8
_0-d_仕様表
  6
CONTINUOUS
 62
    7
 10
4115
 20
2019.2434880455298
 11
3700.2421204263209
 21
2019.2434880455298
  0
LINE
  8
_0-d_仕様表
  6
CONTINUOUS
 62
    7
 10
4115
 20
2024.2434880455298
 11
3700.2421204263209
 21
2024.2434880455298
  0
LINE
  8
_e-0_
  6
CONTINUOUS
 62
    7
 10
2243.7859302690862
 20
199.51965480360598
 11
2272.9339284698526
 21
210.12865853712995
  0
LINE
  8
_e-0_
  6
CONTINUOUS
 62
    7
 10
2237.6336615052869
 20
191.95952323799758
 11
2287.5529504706664
 21
210.12865853712895
  0
LINE
  8
_e-0_
  6
CONTINUOUS
 62
    7
 10
2234.2067375789874
 20
185.39133607135255
 11
2263.8643430051365
 21
196.18582166608263
  0
LINE
  8
_e-0_
  6
CONTINUOUS
 62
    7
 10
2232.2119570371696
 20
179.34440646785787
 11
2253.9586582709303
 21
187.25955841042662
  0
LINE
  8
_e-0_
  6
CONTINUOUS
 62
    7
 10
2231.2024514117433
 20
173.65608760649877
 11
2249.4574587956462
 21
180.3003669205492
  0
LINE
  8
_e-0_
  6
CONTINUOUS
 62
    7
 10
2230.9649088875535
 20
168.248740335938
 11
2249.3748102388385
 21
174.94939644358311
  0
LINE
  8
_e-0_
  6
CONTINUOUS
 62
    7
 10
2231.3837497438626
 20
163.08029707814966
 11
2249.8286640768283
 21
169.79369686893903
  0
LINE
  8
_e-0_
  6
CONTINUOUS
 62
    7
 10
2232.3950068941753
 20
158.12747571767488
 11
2251.269568818267
 21
164.99725444285843
  0
LINE
  8
_e-0_
  6
CONTINUOUS
 62
    7
 10
2233.9675550564961
 20
153.37894757832998
 11
2253.6625167678698
 21
160.54732740628253
  0
LINE
  8
_e-0_
  6
CONTINUOUS
 62
    7
 10
2236.0955302019183
 20
148.83257832814223
 11
2257.099910488102
 21
156.47754754152117
  0
LINE
  8
_e-0_
  6
CONTINUOUS
 62
    7
 10
2238.7970089264299
 20
144.49494730998821
 11
2261.880116002736
 21
152.89651120014326
  0
LINE
  8
_e-0_
  6
CONTINUOUS
 62
    7
 10
2242.1181877425701
 20
140.38286867935909
 11
2268.9468388985251
 21
150.14769912563821
  0
LINE
  8
_e-0_
  6
CONTINUOUS
 62
    7
 10
2246.1455691824353
 20
136.52782678312661
 11
2284.5651405528205
 21
150.51140717521263
  0
LINE
  8
_e-0_
  6
CONTINUOUS
 62
    7
 10
2251.0351047702797
 20
132.98658333410969
 11
2279.1844822576495
 21
143.2321188526356
  0
LINE
  8
_e-0_
  6
CONTINUOUS
 62
    7
 10
2279.5849322183671
 20
201.90764820482513
 11
2302.1719724714803
 21
210.12865853713066
  0
LINE
  8
_e-0_
  6
CONTINUOUS
 62
    7
 10
2260.5624543087296
 20
189.663143601351
 11
2313.0511299164636
 21
208.76745915862059
  0
LINE
  8
_e-0_
  6
CONTINUOUS
 62
    7
 10
2273.0696188494734
 20
188.89449034687174
 11
2313.0511299164636
 21
203.44657029624102
  0
LINE
  8
_e-0_
  6
CONTINUOUS
 62
    7
 10
2287.6886408502887
 20
188.89449034687174
 11
2313.0511299164636
 21
198.12568143386158
  0
LINE
  8
_e-0_
  6
CONTINUOUS
 62
    7
 10
2291.8751463425487
 20
185.09736486926669
 11
2313.0511299164636
 21
192.80479257148215
  0
LINE
  8
_e-0_
  6
CONTINUOUS
 62
    7
 10
2291.8751463425487
 20
179.77647600688726
 11
2313.0511299164636
 21
187.48390370910215
  0
LINE
  8
_e-0_
  6
CONTINUOUS
 62
    7
 10
2291.8751463425487
 20
174.45558714450783
 11
2313.0511299164636
 21
182.16301484672271
  0
LINE
  8
_e-0_
  6
CONTINUOUS
 62
    7
 10
2291.8751463425487
 20
169.13469828212839
 11
2313.0511299164636
 21
176.84212598434328
  0
LINE
  8
_e-0_
  6
CONTINUOUS
 62
    7
 10
2291.8008475696451
 20
163.78676687796939
 11
2313.0511299164636
 21
171.52123712196384
  0
LINE
  8
_e-0_
  6
CONTINUOUS
 62
    7
 10
2290.6539909363364
 20
158.04845633809463
 11
2313.0511299164636
 21
166.20034825958413
  0
LINE
  8
_e-0_
  6
CONTINUOUS
 62
    7
 10
2288.3949962857823
 20
151.90536066354695
 11
2313.0511299164636
 21
160.87945939720469
  0
LINE
  8
_e-0_
  6
CONTINUOUS
 62
    7
 10
2284.4003861827632
 20
145.13055262616916
 11
2311.8608666367176
 21
155.12535013005759
  0
LINE
  8
_e-0_
  6
CONTINUOUS
 62
    7
 10
2275.7463468865153
 20
136.65985105378524
 11
2309.0387712913652
 21
148.77730256370853
  0
LINE
  8
_e-0_
  6
CONTINUOUS
 62
    7
 10
2266.9791201478205
 20
128.14795262145821
 11
2304.1703780821812
 21
141.68446348448242
  0
LINE
  8
_e-0_
  6
CONTINUOUS
 62
    7
 10
2282.1376414569663
 20
128.34431431109749
 11
2292.7244583873175
 21
132.19760054937069
  0
LINE
  8
_e-0_
  6
CONTINUOUS
 62
    3
 10
2266.4464672734898
 20
197.56612819678281
 11
2262.3244734593249
 21
194.75680664380121
  0
LINE
  8
_e-0_
  6
CONTINUOUS
 62
    3
 10
2282.3868421919432
 20
128.14795262145651
 11
2266.9204010401704
 21
128.14795262145651
  0
ARC
  8
_e-0_
  6
CONTINUOUS
 62
    3
 10
2282.3868421919432
 20
133.14795262145651
 40
5
 50
270
 51
286.20399351045659
  0
LINE
  8
_e-0_
  6
CONTINUOUS
 62
    3
 10
2313.2288608412613
 20
210.12865853712895
 11
2313.2288608412613
 21
159.77346730566921
  0
ARC
  8
_e-0_
  6
CONTINUOUS
 62
    3
 10
2271.9221657766447
 20
169.15823653484835
 40
42.5
 50
286.20399351045648
 51
345.50707147989851
  0
ARC
  8
_e-0_
  6
CONTINUOUS
 62
    3
 10
2308.2288608412613
 20
159.77346730566921
 40
5
 50
345.50707147989879
 51
0.0000000000000159
  0
ARC
  8
_e-0_
  6
CONTINUOUS
 62
    3
 10
2250.0927387377205
 20
170.4956084628958
 40
40
 50
279.71265316664215
 51
332.69093929010892
  0
ARC
  8
_e-0_
  6
CONTINUOUS
 62
    3
 10
2255.9974857549714
 20
135.99729020443191
 40
5
 50
241.9452628118
 51
279.71265316664221
  0
ARC
  8
_e-0_
  6
CONTINUOUS
 62
    3
 10
2263.2643122966178
 20
205.12865853712895
 40
5
 50
90
 51
106.05338143786268
  0
LINE
  8
_e-0_
  6
CONTINUOUS
 62
    3
 10
2288.4334989152221
 20
210.12865853712881
 11
2278.2181989551913
 21
205.24067691222057
  0
LINE
  8
_e-0_
  6
CONTINUOUS
 62
    3
 10
2278.2181989551913
 20
205.24067691222057
 11
2272.2994583375816
 21
201.4444897898403
  0
LINE
  8
_e-0_
  6
CONTINUOUS
 62
    3
 10
2266.4464672734898
 20
197.56612819678252
 11
2272.2994583375816
 21
201.4444897898403
  0
ARC
  8
_e-0_
  6
CONTINUOUS
 62
    3
 10
2263.2643122966178
 20
205.12865853712895
 40
5
 50
90
 51
106.05338143786268
  0
ARC
  8
_e-0_
  6
CONTINUOUS
 62
    3
 10
2263.2643122966178
 20
205.12865853712895
 40
5
 50
90
 51
106.05338143786268
  0
LINE
  8
_e-0_
  6
CONTINUOUS
 62
    3
 10
2288.4334989152221
 20
210.12865853712895
 11
2263.2643122966178
 21
210.12865853712895
  0
ARC
  8
_e-0_
  6
CONTINUOUS
 62
    3
 10
2273.6342932765642
 20
169.09099082020304
 40
42.5
 50
106.05338143786271
 51
241.94526281180051
  0
ARC
  8
_e-0_
  6
CONTINUOUS
 62
    3
 10
2263.2643122966178
 20
205.12865853712895
 40
5
 50
90
 51
106.05338143786268
  0
LINE
  8
_e-0_
  6
CONTINUOUS
 62
    3
 10
2299.1719829458552
 20
210.12865853712895
 11
2313.2288608412613
 21
210.12865853712895
  0
ARC
  8
_e-0_
  6
CONTINUOUS
 62
    3
 10
2299.1719829458552
 20
205.12865853712895
 40
5
 50
90
 51
112.84552721528325
  0
LINE
  8
_e-0_
  6
CONTINUOUS
 62
    3
 10
2292.0528772673465
 20
188.89449034687004
 11
2269.0173546029673
 21
188.89449034687004
  0
ARC
  8
_e-0_
  6
CONTINUOUS
 62
    3
 10
2269.0173546029673
 20
183.89449034687004
 40
5
 50
90
 51
110.93110431809542
  0
ARC
  8
_e-0_
  6
CONTINUOUS
 62
    3
 10
2254.2292662802574
 20
177.70386452217394
 40
0.5
 50
165.368776721252
 51
224.67319701305797
  0
LINE
  8
_e-0_
  6
CONTINUOUS
 62
    3
 10
2253.8737020580624
 20
177.3523334653737
 11
2253.6837582739271
 21
177.54445650133447
  0
ARC
  8
_e-0_
  6
CONTINUOUS
 62
    3
 10
2276.1622566207875
 20
165.2142768803236
 40
25
 50
110.93110431809527
 51
150.17701829297226
  0
ARC
  8
_e-0_
  6
CONTINUOUS
 62
    3
 10
2254.0393224961217
 20
177.89598755813472
 40
0.5
 50
224.67319701305652
 51
330.17701829297561
  0
LINE
  8
_e-0_
  6
CONTINUOUS
 62
    3
 10
2297.2307430642558
 20
209.73643324104926
 11
2283.5233941157548
 21
203.96157353985984
  0
LINE
  8
_e-0_
  6
CONTINUOUS
 62
    3
 10
2283.5233941157548
 20
203.96157353985984
 11
2277.114528385443
 21
200.4613679180602
  0
ARC
  8
_e-0_
  6
CONTINUOUS
 62
    3
 10
2277.9347719955744
 20
171.51524603489747
 40
25
 50
126.05682261028302
 51
165.36877672125814
  0
ARC
  8
_e-0_
  6
CONTINUOUS
 62
    3
 10
2322.0287923520791
 20
111.11536133502738
 40
100
 50
116.68868989749238
 51
126.03335467187628
  0
LINE
  8
_e-0_
  6
CONTINUOUS
 62
    3
 10
2262.3244734593245
 20
194.75680664380149
 11
2254.3560414411385
 21
187.50185893935451
  0
LINE
  8
_e-0_
  6
CONTINUOUS
 62
    3
 10
2254.3560414411385
 20
187.50185893935451
 11
2252.5108960046536
 21
185.36863764275494
  0
ARC
  8
_e-0_
  6
CONTINUOUS
 62
    3
 10
2274.5493829743445
 20
174.5520307550089
 40
25
 50
169.07329675873063
 51
296.32138326661799
  0
LINE
  8
_e-0_
  6
CONTINUOUS
 62
    3
 10
2252.5108960046541
 20
185.36863764275494
 11
2250.002621066113
 21
179.29085759512361
  0
LINE
  8
_e-0_
  6
CONTINUOUS
 62
    3
 10
2292.0528772673465
 20
188.89449034687004
 11
2292.0528772673465
 21
164.42425885831653
  0
ARC
  8
_e-0_
  6
CONTINUOUS
 62
    3
 10
2277.2840925230507
 20
144.13090983307199
 40
5
 50
311.4163090429962
 51
326.13300916724881
  0
ARC
  8
_e-0_
  6
CONTINUOUS
 62
    3
 10
2252.285941088533
 20
168.73596234419835
 40
40
 50
316.78132524618342
 51
353.81191653224226
  0
ARC
  8
_e-0_
  6
CONTINUOUS
 62
    3
 10
2240.9001979970053
 20
185.376663785662
 40
60
 50
294.69555798319504
 51
311.41630904299643
  0
ARC
  8
_e-0_
  6
CONTINUOUS
 62
    3
 10
2271.9268153318698
 20
202.98067150791609
 40
75
 50
264.68313230529076
 51
266.17253517307824
  0
ARC
  8
_e-0_
  6
CONTINUOUS
 62
    3
 10
2265.0233680716155
 20
128.80121063143832
 40
0.5
 50
174.02086603460466
 51
264.68313230528985
  0
ARC
  8
_e-0_
  6
CONTINUOUS
 62
    3
 10
2267.0124878650103
 20
128.59287809071872
 40
2.5
 50
114.69555798319522
 51
174.02086603461154
  0
LINE
  8
_e-0_
  6
CONTINUOUS
 62
    7
 10
2376.8899919095943
 20
169.43032024062034
 11
2388.2618909747961
 21
173.56935300743344
  0
LINE
  8
_e-0_
  6
CONTINUOUS
 62
    3
 10
2436.2585234464268
 20
162.63312492519389
 11
2436.2585234464268
 21
136.49018622829544
  0
CIRCLE
  8
_e-0_
  6
CONTINUOUS
 62
    3
 10
2365.5167430510387
 20
162.46293449130519
 40
13.33773795583065
  0
CIRCLE
  8
_e-0_
  6
CONTINUOUS
 62
    3
 10
2365.2330256036634
 20
162.17921704393006
 40
25.691707563897665
  0
LINE
  8
_e-0_
  6
CONTINUOUS
 62
    3
 10
2399.4939617252575
 20
188.26250382114977
 11
2399.4939617252575
 21
136.49018622829544
  0
LINE
  8
_e-0_
  6
CONTINUOUS
 62
    3
 10
2399.4939617252575
 20
136.49018622829544
 11
2414.856930753669
 21
136.49018622829544
  0
LINE
  8
_e-0_
  6
CONTINUOUS
 62
    3
 10
2414.856930753669
 20
136.49018622829544
 11
2414.856930753669
 21
172.63312492519389
  0
LINE
  8
_e-0_
  6
CONTINUOUS
 62
    3
 10
2451.1774760289304
 20
136.49018622829544
 11
2436.2585234464268
 21
136.49018622829544
  0
LINE
  8
_e-0_
  6
CONTINUOUS
 62
    3
 10
2426.2585234464268
 20
172.63312492519389
 11
2414.856930753669
 21
172.63312492519389
  0
ARC
  8
_e-0_
  6
CONTINUOUS
 62
    3
 10
2426.2585234464268
 20
162.63312492519389
 40
10
 50
0
 51
90
  0
LINE
  8
_e-0_
  6
CONTINUOUS
 62
    3
 10
2426.1774760289299
 20
188.26250382114977
 11
2399.4939617252575
 21
188.26250382114977
  0
LINE
  8
_e-0_
  6
CONTINUOUS
 62
    3
 10
2451.1774760289304
 20
163.26250382114977
 11
2451.1774760289304
 21
136.49018622829544
  0
ARC
  8
_e-0_
  6
CONTINUOUS
 62
    3
 10
2426.1774760289299
 20
163.26250382114977
 40
25
 50
0
 51
90
  0
ARC
  8
_e-0_
  6
CONTINUOUS
 62
    3
 10
2486.2452606175233
 20
162.17653762406428
 40
13.33773795583065
 50
23.422555400004949
 51
97.191484740792631
  0
LINE
  8
_e-0_
  6
CONTINUOUS
 62
    3
 10
2474.0065761310629
 20
167.47841048365671
 11
2498.4839451039833
 21
167.47841048365671
  0
ARC
  8
_e-0_
  6
CONTINUOUS
 62
    3
 10
2486.2452606175233
 20
162.17653762406428
 40
13.33773795583065
 50
92.530763017635237
 51
156.57744459999506
  0
ARC
  8
_e-0_
  6
CONTINUOUS
 62
    3
 10
2486.2452606175233
 20
162.17653762406428
 40
13.33773795583065
 50
204.21097500392608
 51
316.0067678116265
  0
LINE
  8
_e-0_
  6
CONTINUOUS
 62
    3
 10
2474.0806890359867
 20
156.70676139316753
 11
2511.5200753562385
 21
156.70676139316753
  0
LINE
  8
_e-0_
  6
CONTINUOUS
 62
    3
 10
2495.8407207162626
 20
152.91249966689292
 11
2508.7092412098891
 21
149.78943472664496
  0
ARC
  8
_e-0_
  6
CONTINUOUS
 62
    3
 10
2486.5655867677851
 20
162.8171899245882
 40
25.691707563897665
 50
346.24110979921471
 51
329.53046432565093
  0
ARC
  8
_e-0_
  6
CONTINUOUS
 62
    3
 10
2546.5135590423406
 20
162.14309845353909
 40
11.089756641867943
 50
94.502189492040685
 51
357.22978420280037
  0
LINE
  8
_e-0_
  6
CONTINUOUS
 62
    3
 10
2556.5903561511468
 20
173.19863581905565
 11
2545.6430442891501
 21
173.19863581905565
  0
LINE
  8
_e-0_
  6
CONTINUOUS
 62
    3
 10
2557.5903561511468
 20
172.19863581905599
 11
2557.5903561511468
 21
161.60712439988742
  0
ARC
  8
_e-0_
  6
CONTINUOUS
 62
    3
 10
2556.5903561511468
 20
172.19863581905599
 40
1
 50
0
 51
90
  0
LINE
  8
_e-0_
  6
CONTINUOUS
 62
    3
 10
2548.9703457355517
 20
188.29058742736094
 11
2557.3930775458175
 21
188.29058742736094
  0
ARC
  8
_e-0_
  6
CONTINUOUS
 62
    3
 10
2546.9662856612039
 20
162.67716163604518
 40
25.691707563897665
 50
85.526146014136969
 51
347.40557840019874
  0
LINE
  8
_e-0_
  6
CONTINUOUS
 62
    3
 10
2557.3930775458175
 20
209.12865853712901
 11
2557.3930775458175
 21
188.29058742736094
  0
ARC
  8
_e-0_
  6
CONTINUOUS
 62
    3
 10
2558.3930775458175
 20
209.12865853712901
 40
1
 50
90
 51
180
  0
LINE
  8
_e-0_
  6
CONTINUOUS
 62
    3
 10
2572.0397992563612
 20
209.12865853712901
 11
2572.0397992563612
 21
157.07513043814088
  0
LINE
  8
_e-0_
  6
CONTINUOUS
 62
    3
 10
2571.0397992563616
 20
210.12865853712895
 11
2558.3930775458175
 21
210.12865853712895
  0
ARC
  8
_e-0_
  6
CONTINUOUS
 62
    3
 10
2571.0397992563616
 20
209.12865853712901
 40
1
 50
0
 51
90
  0
CIRCLE
  8
_e-0_
  6
CONTINUOUS
 62
    3
 10
2607.4932845795829
 20
162.61858771142584
 40
13.33773795583065
  0
CIRCLE
  8
_e-0_
  6
CONTINUOUS
 62
    3
 10
2607.2095671322085
 20
162.334870264051
 40
25.691707563897665
  0
ARC
  8
_e-0_
  6
CONTINUOUS
 62
    3
 10
2361.3056445788688
 20
183.56108960512415
 40
5
 50
90
 51
106.05338143786268
  0
ARC
  8
_e-0_
  6
CONTINUOUS
 62
    3
 10
2361.3056445788688
 20
183.56108960512415
 40
5
 50
90
 51
106.05338143786268
  0
ARC
  8
_e-0_
  6
CONTINUOUS
 62
    3
 10
2361.3056445788688
 20
183.56108960512415
 40
5
 50
90
 51
106.05338143786268
  0
ARC
  8
_e-0_
  6
CONTINUOUS
 62
    3
 10
2361.3056445788688
 20
183.56108960512415
 40
5
 50
90
 51
106.05338143786268
  0
LINE
  8
_e-0_
  6
CONTINUOUS
 62
    7
 10
2346.3470804331013
 20
179.59716504486777
 11
2368.5044577934554
 21
187.66179087344028
  0
LINE
  8
_e-0_
  6
CONTINUOUS
 62
    7
 10
2361.2415063076145
 20
179.69740385729494
 11
2376.5205845613304
 21
185.25853354867166
  0
LINE
  8
_e-0_
  6
CONTINUOUS
 62
    7
 10
2341.7511550984831
 20
172.60349616177705
 11
2361.2415063076145
 21
179.69740385729494
  0
LINE
  8
_e-0_
  6
CONTINUOUS
 62
    7
 10
2339.9278406436087
 20
166.61897511011602
 11
2357.2356669233163
 21
172.91850869577984
  0
LINE
  8
_e-0_
  6
CONTINUOUS
 62
    7
 10
2339.5613566552269
 20
161.16469698463049
 11
2352.6357267551816
 21
165.92337853279389
  0
LINE
  8
_e-0_
  6
CONTINUOUS
 62
    7
 10
2340.2704529847874
 20
156.10189807943811
 11
2352.3257797311662
 21
160.489678179473
  0
LINE
  8
_e-0_
  6
CONTINUOUS
 62
    7
 10
2341.9204823498939
 20
151.38157079162255
 11
2353.9794571535694
 21
155.77067867592631
  0
LINE
  8
_e-0_
  6
CONTINUOUS
 62
    7
 10
2344.504128974107
 20
147.00105239631881
 11
2357.564943671171
 21
151.75480018131679
  0
LINE
  8
_e-0_
  6
CONTINUOUS
 62
    7
 10
2348.1361647674011
 20
143.00211645248765
 11
2364.9879954656798
 21
149.13568121955449
  0
LINE
  8
_e-0_
  6
CONTINUOUS
 62
    7
 10
2353.1501292054063
 20
139.50616140121155
 11
2375.2534753949121
 21
147.55112149187283
  0
LINE
  8
_e-0_
  6
CONTINUOUS
 62
    7
 10
2360.6217579801264
 20
136.90472301431668
 11
2375.3071030149835
 21
142.24975148693374
  0
LINE
  8
_e-0_
  6
CONTINUOUS
 62
    7
 10
2375.3071030149835
 20
142.24975148693374
 11
2385.0115931457403
 21
145.78189703325932
  0
LINE
  8
_e-0_
  6
CONTINUOUS
 62
    7
 10
2374.4001538198344
 20
147.24053783828736
 11
2389.063020487204
 21
152.57738485422379
  0
LINE
  8
_e-0_
  6
CONTINUOUS
 62
    7
 10
2374.4883804748506
 20
152.59353857696169
 11
2390.6567834919524
 21
158.47835601080646
  0
LINE
  8
_e-0_
  6
CONTINUOUS
 62
    7
 10
2378.4912308361026
 20
159.37134582305873
 11
2390.8686178519897
 21
163.87634627483464
  0
LINE
  8
_e-0_
  6
CONTINUOUS
 62
    7
 10
2378.6565159204478
 20
164.75239353630797
 11
2390.0320630429459
 21
168.89275408738967
  0
LINE
  8
_e-0_
  6
CONTINUOUS
 62
    7
 10
2365.1397018509305
 20
175.7953421400316
 11
2381.7641004494612
 21
181.84612839247364
  0
LINE
  8
_e-0_
  6
CONTINUOUS
 62
    7
 10
2373.159843452322
 20
173.39354609515908
 11
2385.5507858710998
 21
177.90348031010012
  0
LINE
  8
_e-0_
  6
CONTINUOUS
 62
    7
 10
2399.4939617252575
 20
182.97838129215278
 11
2414.0119690553087
 21
188.26250382114977
  0
LINE
  8
_e-0_
  6
CONTINUOUS
 62
    7
 10
2399.4939617252575
 20
177.65749242977335
 11
2428.3670442872125
 21
188.16643505383524
  0
LINE
  8
_e-0_
  6
CONTINUOUS
 62
    7
 10
2399.4939617252575
 20
172.33660356739392
 11
2436.7743097980664
 21
185.90554058897964
  0
LINE
  8
_e-0_
  6
CONTINUOUS
 62
    7
 10
2399.4939617252575
 20
167.01571470501448
 11
2442.1110032081055
 21
182.52704927725858
  0
LINE
  8
_e-0_
  6
CONTINUOUS
 62
    7
 10
2399.4939617252575
 20
161.69482584263505
 11
2414.856930753669
 21
167.28648927893004
  0
LINE
  8
_e-0_
  6
CONTINUOUS
 62
    7
 10
2428.7090082786239
 20
172.32823318076128
 11
2445.9244086202584
 21
178.5941264760919
  0
LINE
  8
_e-0_
  6
CONTINUOUS
 62
    7
 10
2399.4939617252575
 20
156.37393698025562
 11
2414.856930753669
 21
161.96560041655061
  0
LINE
  8
_e-0_
  6
CONTINUOUS
 62
    7
 10
2403.3398935234458
 20
136.49018622829544
 11
2414.856930753669
 21
140.68204496703231
  0
LINE
  8
_e-0_
  6
CONTINUOUS
 62
    7
 10
2399.4939617252575
 20
140.41127039311675
 11
2414.856930753669
 21
146.00293382941202
  0
LINE
  8
_e-0_
  6
CONTINUOUS
 62
    7
 10
2399.4939617252575
 20
145.73215925549646
 11
2414.856930753669
 21
151.32382269179146
  0
LINE
  8
_e-0_
  6
CONTINUOUS
 62
    7
 10
2399.4939617252575
 20
151.0530481178759
 11
2414.856930753669
 21
156.64471155417118
  0
LINE
  8
_e-0_
  6
CONTINUOUS
 62
    7
 10
2436.2585234464268
 20
159.113365397844
 11
2451.1774760289304
 21
164.5434200643038
  0
LINE
  8
_e-0_
  6
CONTINUOUS
 62
    7
 10
2436.2585234464268
 20
153.79247653546485
 11
2451.1774760289304
 21
159.22253120192465
  0
LINE
  8
_e-0_
  6
CONTINUOUS
 62
    7
 10
2436.105047565391
 20
164.37839360784892
 11
2450.3687179376247
 21
169.56994505472636
  0
LINE
  8
_e-0_
  6
CONTINUOUS
 62
    7
 10
2436.2585234464268
 20
148.47158767308542
 11
2451.1774760289304
 21
153.90164233954521
  0
LINE
  8
_e-0_
  6
CONTINUOUS
 62
    7
 10
2436.2585234464268
 20
143.1506988107057
 11
2451.1774760289304
 21
148.5807534771655
  0
LINE
  8
_e-0_
  6
CONTINUOUS
 62
    7
 10
2436.2585234464268
 20
137.82980994832598
 11
2451.1774760289304
 21
143.25986461478606
  0
LINE
  8
_e-0_
  6
CONTINUOUS
 62
    7
 10
2447.1969595258929
 20
136.49018622829544
 11
2451.1774760289304
 21
137.93897575240634
  0
LINE
  8
_e-0_
  6
CONTINUOUS
 62
    7
 10
2434.0189024056153
 20
168.93998772771169
 11
2448.6296862431445
 21
174.25787814386978
  0
LINE
  8
_e-0_
  6
CONTINUOUS
 62
    7
 10
2469.1883842563338
 20
181.74063227593791
 11
2487.7135419125711
 21
188.48323824789645
  0
LINE
  8
_e-0_
  6
CONTINUOUS
 62
    7
 10
2463.6316388937825
 20
174.39725350219305
 11
2496.6904887083792
 21
186.42969081378254
  0
LINE
  8
_e-0_
  6
CONTINUOUS
 62
    7
 10
2461.4628990865917
 20
168.28700790412767
 11
2502.2794299488264
 21
183.14301020398858
  0
LINE
  8
_e-0_
  6
CONTINUOUS
 62
    7
 10
2461.4992419870632
 20
162.97934677574687
 11
2473.9894671720021
 21
167.52541696234658
  0
LINE
  8
_e-0_
  6
CONTINUOUS
 62
    7
 10
2492.1508316310541
 20
174.13561303910114
 11
2506.2885679576884
 21
179.28132824190015
  0
LINE
  8
_e-0_
  6
CONTINUOUS
 62
    7
 10
2496.6927278595248
 20
170.46783921101109
 11
2509.1784918759253
 21
175.01228566505261
  0
LINE
  8
_e-0_
  6
CONTINUOUS
 62
    7
 10
2463.2093427036916
 20
158.28088367181749
 11
2488.4793399340492
 21
167.47841048365671
  0
LINE
  8
_e-0_
  6
CONTINUOUS
 62
    7
 10
2462.8888794596255
 20
152.84335572742151
 11
2511.1140538755621
 21
170.39588375711787
  0
LINE
  8
_e-0_
  6
CONTINUOUS
 62
    7
 10
2465.300291731432
 20
148.400149154524
 11
2476.9283430630944
 21
152.63241372176821
  0
LINE
  8
_e-0_
  6
CONTINUOUS
 62
    7
 10
2488.1225212892722
 20
156.70676139316753
 11
2512.1228430370119
 21
165.44216412215632
  0
LINE
  8
_e-0_
  6
CONTINUOUS
 62
    7
 10
2502.7415432900879
 20
156.70676139316753
 11
2512.1151621126959
 21
160.11847963195407
  0
LINE
  8
_e-0_
  6
CONTINUOUS
 62
    7
 10
2468.7281740890052
 20
144.32690743686691
 11
2482.5550140975401
 21
149.35946563393486
  0
LINE
  8
_e-0_
  6
CONTINUOUS
 62
    7
 10
2473.4508580764295
 20
140.72493497175571
 11
2502.4973614552445
 21
151.29699761115659
  0
LINE
  8
_e-0_
  6
CONTINUOUS
 62
    7
 10
2480.3069495598269
 20
137.89945933273884
 11
2507.3767895083869
 21
147.75207532036432
  0
LINE
  8
_e-0_
  6
CONTINUOUS
 62
    7
 10
2552.6231690921717
 20
137.61596638527407
 11
2558.7418873346696
 21
139.84299769740459
  0
LINE
  8
_e-0_
  6
CONTINUOUS
 62
    7
 10
2539.4012676014826
 20
138.12447666464265
 11
2568.5435873921023
 21
148.73141362589478
  0
LINE
  8
_e-0_
  6
CONTINUOUS
 62
    7
 10
2532.9976800904732
 20
141.11465028049622
 11
2571.5269734698549
 21
155.13816621790056
  0
LINE
  8
_e-0_
  6
CONTINUOUS
 62
    7
 10
2522.081864354775
 20
169.06695144424446
 11
2572.0397992563612
 21
187.25015271383
  0
LINE
  8
_e-0_
  6
CONTINUOUS
 62
    7
 10
2524.5896829795606
 20
175.30061163898437
 11
2572.0397992563612
 21
192.57104157620943
  0
LINE
  8
_e-0_
  6
CONTINUOUS
 62
    7
 10
2557.3930775458175
 20
208.52362629350906
 11
2561.8028673926596
 21
210.12865853712895
  0
LINE
  8
_e-0_
  6
CONTINUOUS
 62
    7
 10
2557.3930775458175
 20
203.20273743112977
 11
2572.0397992563612
 21
208.53370816334788
  0
LINE
  8
_e-0_
  6
CONTINUOUS
 62
    7
 10
2557.3930775458175
 20
197.88184856875005
 11
2572.0397992563612
 21
203.21281930096859
  0
LINE
  8
_e-0_
  6
CONTINUOUS
 62
    7
 10
2557.3930775458175
 20
192.56095970637034
 11
2572.0397992563612
 21
197.89193043858915
  0
LINE
  8
_e-0_
  6
CONTINUOUS
 62
    7
 10
2531.3600319802562
 20
183.08570601321093
 11
2545.8030101140193
 21
188.34252014805827
  0
LINE
  8
_e-0_
  6
CONTINUOUS
 62
    7
 10
2548.0525958796984
 20
173.19863581905565
 11
2572.0397992563612
 21
181.92926385145057
  0
LINE
  8
_e-0_
  6
CONTINUOUS
 62
    7
 10
2521.2864022906337
 20
163.45653806802943
 11
2538.3752084417083
 21
169.67635484616607
  0
LINE
  8
_e-0_
  6
CONTINUOUS
 62
    7
 10
2521.6554107736333
 20
158.26995730965364
 11
2535.4846691325356
 21
163.30339571427089
  0
LINE
  8
_e-0_
  6
CONTINUOUS
 62
    7
 10
2522.9940114609526
 20
153.43627925302655
 11
2536.1404517985765
 21
158.22119222247806
  0
LINE
  8
_e-0_
  6
CONTINUOUS
 62
    7
 10
2525.2563435788042
 20
148.93881194156961
 11
2539.0354883761397
 21
153.95401050144357
  0
LINE
  8
_e-0_
  6
CONTINUOUS
 62
    7
 10
2528.5117312327797
 20
144.80278728623488
 11
2545.7561370732087
 21
151.07923771975691
  0
LINE
  8
_e-0_
  6
CONTINUOUS
 62
    7
 10
2554.2054905278623
 20
154.15455087604527
 11
2572.0397992563612
 21
160.64570840193255
  0
LINE
  8
_e-0_
  6
CONTINUOUS
 62
    7
 10
2557.505937791675
 20
160.67670430221767
 11
2572.0397992563612
 21
165.96659726431198
  0
LINE
  8
_e-0_
  6
CONTINUOUS
 62
    7
 10
2557.5903561511468
 20
166.02831893467055
 11
2572.0397992563612
 21
171.28748612669141
  0
LINE
  8
_e-0_
  6
CONTINUOUS
 62
    7
 10
2557.5903561511468
 20
171.34920779704998
 11
2572.0397992563612
 21
176.60837498907085
  0
LINE
  8
_e-0_
  6
CONTINUOUS
 62
    7
 10
2595.1467628188602
 20
185.01862193009401
 11
2601.869376832742
 21
187.46545332760774
  0
LINE
  8
_e-0_
  6
CONTINUOUS
 62
    7
 10
2585.5936460434281
 20
176.22068291698809
 11
2614.8426950414304
 21
186.86646613285404
  0
LINE
  8
_e-0_
  6
CONTINUOUS
 62
    7
 10
2608.5181174973608
 20
136.67650840108905
 11
2622.7000364868072
 21
141.83830477802189
  0
LINE
  8
_e-0_
  6
CONTINUOUS
 62
    7
 10
2598.2444761483161
 20
138.25809761488983
 11
2629.5534764025951
 21
149.65364177207987
  0
LINE
  8
_e-0_
  6
CONTINUOUS
 62
    7
 10
2582.6330921261528
 20
169.82224055178022
 11
2621.2234503919626
 21
183.86798229020314
  0
LINE
  8
_e-0_
  6
CONTINUOUS
 62
    7
 10
2592.2968185805402
 20
141.41421615899105
 11
2632.0809325371146
 21
155.89444943583799
  0
LINE
  8
_e-0_
  6
CONTINUOUS
 62
    7
 10
2588.0695495912832
 20
145.19650493704432
 11
2602.246111940276
 21
150.35635165629656
  0
LINE
  8
_e-0_
  6
CONTINUOUS
 62
    7
 10
2585.0094293819529
 20
149.40360112995108
 11
2597.3909335115822
 21
153.91010008858017
  0
LINE
  8
_e-0_
  6
CONTINUOUS
 62
    7
 10
2582.919829983693
 20
153.96393800982366
 11
2594.8695180063709
 21
158.31326875884542
  0
LINE
  8
_e-0_
  6
CONTINUOUS
 62
    7
 10
2581.7538748691904
 20
158.86045391603374
 11
2594.1774270088017
 21
163.38225709870641
  0
LINE
  8
_e-0_
  6
CONTINUOUS
 62
    7
 10
2581.5798124660104
 20
164.11798924475078
 11
2595.9853391150813
 21
169.36117215394091
  0
LINE
  8
_e-0_
  6
CONTINUOUS
 62
    7
 10
2611.9748325174678
 20
175.18087181340547
 11
2625.6969314853622
 21
180.17530738937352
  0
LINE
  8
_e-0_
  6
CONTINUOUS
 62
    7
 10
2617.2029460570038
 20
171.76286066078091
 11
2628.9430705154381
 21
176.03591651023151
  0
LINE
  8
_e-0_
  6
CONTINUOUS
 62
    7
 10
2619.9310564926913
 20
167.43492279278257
 11
2631.1973168341919
 21
171.53550620858254
  0
LINE
  8
_e-0_
  6
CONTINUOUS
 62
    7
 10
2620.8298424207368
 20
162.44116525518904
 11
2632.5279188691888
 21
166.69891688059578
  0
LINE
  8
_e-0_
  6
CONTINUOUS
 62
    7
 10
2619.394865425299
 20
156.5979874796136
 11
2632.8880000931144
 21
161.50908686564349
  0
TEXT
  8
_e-0_
 62
    7
 10
2642.8586825750176
 20
180.56247057449553
 40
35
 41
0.5714285714285711
 50
0
  1
ワンド
  0
TEXT
  8
_e-0_
 62
    7
 10
2649.7045100149039
 20
147.0179161190498
 40
30
 41
0.6666666666666666
 50
0
  1
株式
  0
TEXT
  8
_e-0_
 62
    7
 10
2649.0199272709155
 20
118.95002361551377
 40
30
 41
0.6666666666666666
 50
0
  1
会社
  0
LINE
  8
_0-6_
  6
CONTINUOUS
 62
    5
 10
2203.8843106180665
 20
984.20710699999983
 11
2217.8843106180665
 21
984.20710699999983
  0
LINE
  8
_0-6_
  6
CONTINUOUS
 62
    5
 10
2217.8843106180665
 20
979.20710699999983
 11
2231.8843106180661
 21
979.20710699999983
  0
LINE
  8
_0-6_
  6
CONTINUOUS
 62
    5
 10
2203.8843106180665
 20
974.20710699999983
 11
2217.8843106180665
 21
974.20710699999983
  0
LINE
  8
_0-6_
  6
CONTINUOUS
 62
    5
 10
2203.8843106180665
 20
964.20710699999983
 11
2217.8843106180665
 21
964.20710699999983
  0
LINE
  8
_0-6_
  6
CONTINUOUS
 62
    5
 10
2203.8843106180665
 20
954.20710699999983
 11
2217.8843106180665
 21
954.20710699999983
  0
LINE
  8
_0-6_
  6
CONTINUOUS
 62
    5
 10
2203.8843106180665
 20
944.20710699999983
 11
2217.8843106180665
 21
944.20710699999983
  0
LINE
  8
_0-6_
  6
CONTINUOUS
 62
    5
 10
2217.8843106180665
 20
939.20710699999983
 11
2231.8843106180661
 21
939.20710699999983
  0
LINE
  8
_0-6_
  6
CONTINUOUS
 62
    5
 10
2203.8843106180665
 20
934.20710699999983
 11
2217.8843106180665
 21
934.20710699999983
  0
LINE
  8
_0-6_
  6
CONTINUOUS
 62
    5
 10
2217.8843106180665
 20
929.20710699999983
 11
2231.8843106180661
 21
929.20710699999983
  0
LINE
  8
_0-6_
  6
CONTINUOUS
 62
    5
 10
2203.8843106180665
 20
924.20710699999983
 11
2217.8843106180665
 21
924.20710699999983
  0
LINE
  8
_0-6_
  6
CONTINUOUS
 62
    5
 10
2217.8843106180665
 20
919.20710699999995
 11
2231.8843106180661
 21
919.20710699999995
  0
LINE
  8
_0-6_
  6
CONTINUOUS
 62
    5
 10
2203.8843106180665
 20
914.20710699999995
 11
2217.8843106180665
 21
914.20710699999995
  0
LINE
  8
_0-6_
  6
CONTINUOUS
 62
    5
 10
2217.8843106180665
 20
909.20710699999995
 11
2231.8843106180661
 21
909.20710699999995
  0
LINE
  8
_0-6_
  6
CONTINUOUS
 62
    5
 10
2203.8843106180665
 20
904.20710699999995
 11
2217.8843106180665
 21
904.20710699999995
  0
LINE
  8
_0-6_
  6
CONTINUOUS
 62
    5
 10
2217.8843106180665
 20
899.20710699999995
 11
2231.8843106180661
 21
899.20710699999995
  0
LINE
  8
_0-6_
  6
CONTINUOUS
 62
    5
 10
2203.8843106180665
 20
894.20710699999995
 11
2217.8843106180665
 21
894.20710699999995
  0
LINE
  8
_0-6_
  6
CONTINUOUS
 62
    5
 10
2217.8843106180665
 20
889.20710699999995
 11
2231.8843106180661
 21
889.20710699999995
  0
LINE
  8
_0-6_
  6
CONTINUOUS
 62
    5
 10
2203.8843106180665
 20
884.20710699999995
 11
2217.8843106180665
 21
884.20710699999995
  0
LINE
  8
_0-6_
  6
CONTINUOUS
 62
    5
 10
2217.8843106180665
 20
879.20710699999995
 11
2231.8843106180661
 21
879.20710699999995
  0
LINE
  8
_0-6_
  6
CONTINUOUS
 62
    5
 10
2203.8843106180665
 20
874.20710699999995
 11
2217.8843106180665
 21
874.20710699999995
  0
LINE
  8
_0-6_
  6
CONTINUOUS
 62
    5
 10
2217.8843106180665
 20
869.20710699999995
 11
2231.8843106180661
 21
869.20710699999995
  0
LINE
  8
_0-6_
  6
CONTINUOUS
 62
    5
 10
2203.8843106180665
 20
864.20710699999995
 11
2217.8843106180665
 21
864.20710699999995
  0
LINE
  8
_0-6_
  6
CONTINUOUS
 62
    5
 10
2217.8843106180665
 20
859.20710699999995
 11
2231.8843106180661
 21
859.20710699999995
  0
LINE
  8
_0-6_
  6
CONTINUOUS
 62
    5
 10
2203.8843106180665
 20
854.20710699999995
 11
2217.8843106180665
 21
854.20710699999995
  0
LINE
  8
_0-6_
  6
CONTINUOUS
 62
    5
 10
2217.8843106180665
 20
849.20710699999995
 11
2231.8843106180661
 21
849.20710699999995
  0
LINE
  8
_0-6_
  6
CONTINUOUS
 62
    5
 10
2203.8843106180665
 20
844.20710699999983
 11
2217.8843106180665
 21
844.20710699999983
  0
LINE
  8
_0-6_
  6
CONTINUOUS
 62
    5
 10
2217.8843106180665
 20
839.20710699999983
 11
2231.8843106180661
 21
839.20710699999983
  0
LINE
  8
_0-6_
  6
CONTINUOUS
 62
    5
 10
2203.8843106180665
 20
834.20710699999983
 11
2217.8843106180665
 21
834.20710699999983
  0
LINE
  8
_0-6_
  6
CONTINUOUS
 62
    5
 10
2217.8843106180665
 20
829.20710699999983
 11
2231.8843106180661
 21
829.20710699999983
  0
LINE
  8
_0-6_
  6
CONTINUOUS
 62
    5
 10
2203.8843106180665
 20
824.20710699999983
 11
2217.8843106180665
 21
824.20710699999983
  0
LINE
  8
_0-6_
  6
CONTINUOUS
 62
    5
 10
2217.8843106180665
 20
819.20710699999972
 11
2231.8843106180661
 21
819.20710699999972
  0
LINE
  8
_0-6_
  6
CONTINUOUS
 62
    5
 10
2203.8843106180665
 20
814.20710699999972
 11
2217.8843106180665
 21
814.20710699999972
  0
LINE
  8
_0-6_
  6
CONTINUOUS
 62
    5
 10
2217.8843106180665
 20
809.20710699999972
 11
2231.8843106180661
 21
809.20710699999972
  0
LINE
  8
_0-6_
  6
CONTINUOUS
 62
    5
 10
2203.8843106180665
 20
804.20710699999972
 11
2217.8843106180665
 21
804.20710699999972
  0
LINE
  8
_0-6_
  6
CONTINUOUS
 62
    5
 10
2217.8843106180665
 20
799.20710699999972
 11
2231.8843106180661
 21
799.20710699999972
  0
LINE
  8
_0-6_
  6
CONTINUOUS
 62
    5
 10
2203.8843106180665
 20
794.20710699999972
 11
2217.8843106180665
 21
794.20710699999972
  0
LINE
  8
_0-6_
  6
CONTINUOUS
 62
    5
 10
2217.8843106180665
 20
789.20710699999972
 11
2231.8843106180661
 21
789.20710699999972
  0
LINE
  8
_0-6_
  6
CONTINUOUS
 62
    5
 10
2203.8843106180665
 20
784.20710699999972
 11
2217.8843106180665
 21
784.20710699999972
  0
LINE
  8
_0-6_
  6
CONTINUOUS
 62
    5
 10
2217.8843106180665
 20
779.20710699999972
 11
2231.8843106180661
 21
779.20710699999972
  0
LINE
  8
_0-6_
  6
CONTINUOUS
 62
    5
 10
2203.8843106180665
 20
774.20710699999972
 11
2217.8843106180665
 21
774.20710699999972
  0
LINE
  8
_0-6_
  6
CONTINUOUS
 62
    5
 10
2217.8843106180665
 20
769.20710699999972
 11
2231.8843106180661
 21
769.20710699999972
  0
LINE
  8
_0-6_
  6
CONTINUOUS
 62
    5
 10
2203.8843106180665
 20
764.20710699999972
 11
2217.8843106180665
 21
764.20710699999972
  0
LINE
  8
_0-6_
  6
CONTINUOUS
 62
    5
 10
2217.8843106180665
 20
759.20710699999972
 11
2231.8843106180661
 21
759.20710699999972
  0
LINE
  8
_0-6_
  6
CONTINUOUS
 62
    5
 10
2203.8843106180665
 20
754.20710699999972
 11
2217.8843106180665
 21
754.20710699999972
  0
LINE
  8
_0-6_
  6
CONTINUOUS
 62
    5
 10
2217.8843106180665
 20
749.20710699999972
 11
2231.8843106180661
 21
749.20710699999972
  0
LINE
  8
_0-6_
  6
CONTINUOUS
 62
    5
 10
2203.8843106180665
 20
744.20710699999972
 11
2217.8843106180665
 21
744.20710699999972
  0
LINE
  8
_0-6_
  6
CONTINUOUS
 62
    5
 10
2217.8843106180665
 20
739.20710699999972
 11
2231.8843106180661
 21
739.20710699999972
  0
LINE
  8
_0-6_
  6
CONTINUOUS
 62
    5
 10
2203.8843106180665
 20
734.20710699999972
 11
2217.8843106180665
 21
734.20710699999972
  0
LINE
  8
_0-6_
  6
CONTINUOUS
 62
    5
 10
2217.8843106180665
 20
729.20710699999972
 11
2231.8843106180661
 21
729.20710699999972
  0
LINE
  8
_0-6_
  6
CONTINUOUS
 62
    5
 10
2203.8843106180665
 20
724.20710699999972
 11
2217.8843106180665
 21
724.20710699999972
  0
LINE
  8
_0-6_
  6
CONTINUOUS
 62
    5
 10
2217.8843106180665
 20
719.20710699999972
 11
2231.8843106180661
 21
719.20710699999972
  0
LINE
  8
_0-6_
  6
CONTINUOUS
 62
    5
 10
2203.8843106180665
 20
714.20710699999972
 11
2217.8843106180665
 21
714.20710699999972
  0
LINE
  8
_0-6_
  6
CONTINUOUS
 62
    5
 10
2217.8843106180665
 20
709.20710699999972
 11
2231.8843106180661
 21
709.20710699999972
  0
LINE
  8
_0-6_
  6
CONTINUOUS
 62
    5
 10
2231.8843106180661
 20
694.20710699999972
 11
2235.3843106180665
 21
696.70710699999972
  0
LINE
  8
_0-6_
  6
CONTINUOUS
 62
    5
 10
2235.3843106180665
 20
696.70710699999972
 11
2231.8843106180661
 21
699.20710699999972
  0
LINE
  8
_0-6_
  6
CONTINUOUS
 62
    5
 10
2231.8843106180661
 20
699.20710699999972
 11
2235.3843106180665
 21
701.70710699999972
  0
LINE
  8
_0-6_
  6
CONTINUOUS
 62
    5
 10
2235.3843106180665
 20
701.70710699999972
 11
2231.8843106180661
 21
704.20710699999972
  0
LINE
  8
_0-6_
  6
CONTINUOUS
 62
    5
 10
2231.8843106180661
 20
704.20710699999972
 11
2235.3843106180665
 21
706.70710699999972
  0
LINE
  8
_0-6_
  6
CONTINUOUS
 62
    5
 10
2235.3843106180665
 20
706.70710699999972
 11
2231.8843106180661
 21
709.20710699999972
  0
LINE
  8
_0-6_
  6
CONTINUOUS
 62
    5
 10
2231.8843106180661
 20
709.20710699999972
 11
2235.3843106180665
 21
711.70710699999972
  0
LINE
  8
_0-6_
  6
CONTINUOUS
 62
    5
 10
2235.3843106180665
 20
711.70710699999972
 11
2231.8843106180661
 21
714.20710699999972
  0
LINE
  8
_0-6_
  6
CONTINUOUS
 62
    5
 10
2231.8843106180661
 20
714.20710699999972
 11
2235.3843106180665
 21
716.70710699999972
  0
LINE
  8
_0-6_
  6
CONTINUOUS
 62
    5
 10
2235.3843106180665
 20
716.70710699999972
 11
2231.8843106180661
 21
719.20710699999972
  0
LINE
  8
_0-6_
  6
CONTINUOUS
 62
    5
 10
2231.8843106180661
 20
719.20710699999972
 11
2235.3843106180665
 21
721.70710699999972
  0
LINE
  8
_0-6_
  6
CONTINUOUS
 62
    5
 10
2235.3843106180665
 20
721.70710699999972
 11
2231.8843106180661
 21
724.20710699999972
  0
LINE
  8
_0-6_
  6
CONTINUOUS
 62
    5
 10
2231.8843106180661
 20
724.20710699999972
 11
2235.3843106180665
 21
726.70710699999972
  0
LINE
  8
_0-6_
  6
CONTINUOUS
 62
    5
 10
2235.3843106180665
 20
726.70710699999972
 11
2231.8843106180661
 21
729.20710699999972
  0
LINE
  8
_0-6_
  6
CONTINUOUS
 62
    5
 10
2231.8843106180661
 20
729.20710699999972
 11
2235.3843106180665
 21
731.70710699999972
  0
LINE
  8
_0-6_
  6
CONTINUOUS
 62
    5
 10
2235.3843106180665
 20
731.70710699999972
 11
2231.8843106180661
 21
734.20710699999972
  0
LINE
  8
_0-6_
  6
CONTINUOUS
 62
    5
 10
2231.8843106180661
 20
734.20710699999972
 11
2235.3843106180665
 21
736.70710699999972
  0
LINE
  8
_0-6_
  6
CONTINUOUS
 62
    5
 10
2235.3843106180665
 20
736.70710699999972
 11
2231.8843106180661
 21
739.20710699999972
  0
LINE
  8
_0-6_
  6
CONTINUOUS
 62
    5
 10
2231.8843106180661
 20
739.20710699999972
 11
2235.3843106180665
 21
741.70710699999972
  0
LINE
  8
_0-6_
  6
CONTINUOUS
 62
    5
 10
2235.3843106180665
 20
741.70710699999972
 11
2231.8843106180661
 21
744.20710699999972
  0
LINE
  8
_0-6_
  6
CONTINUOUS
 62
    5
 10
2231.8843106180661
 20
744.20710699999972
 11
2235.3843106180665
 21
746.70710699999972
  0
LINE
  8
_0-6_
  6
CONTINUOUS
 62
    5
 10
2235.3843106180665
 20
746.70710699999972
 11
2231.8843106180661
 21
749.20710699999972
  0
LINE
  8
_0-6_
  6
CONTINUOUS
 62
    5
 10
2231.8843106180661
 20
749.20710699999972
 11
2235.3843106180665
 21
751.70710699999972
  0
LINE
  8
_0-6_
  6
CONTINUOUS
 62
    5
 10
2235.3843106180665
 20
751.70710699999972
 11
2231.8843106180661
 21
754.20710699999972
  0
LINE
  8
_0-6_
  6
CONTINUOUS
 62
    5
 10
2231.8843106180661
 20
754.20710699999972
 11
2235.3843106180665
 21
756.70710699999972
  0
LINE
  8
_0-6_
  6
CONTINUOUS
 62
    5
 10
2235.3843106180665
 20
756.70710699999972
 11
2231.8843106180661
 21
759.20710699999972
  0
LINE
  8
_0-6_
  6
CONTINUOUS
 62
    5
 10
2231.8843106180661
 20
759.20710699999972
 11
2235.3843106180665
 21
761.70710699999972
  0
LINE
  8
_0-6_
  6
CONTINUOUS
 62
    5
 10
2235.3843106180665
 20
761.70710699999972
 11
2231.8843106180661
 21
764.20710699999972
  0
LINE
  8
_0-6_
  6
CONTINUOUS
 62
    5
 10
2231.8843106180661
 20
764.20710699999972
 11
2235.3843106180665
 21
766.70710699999972
  0
LINE
  8
_0-6_
  6
CONTINUOUS
 62
    5
 10
2235.3843106180665
 20
766.70710699999972
 11
2231.8843106180661
 21
769.20710699999972
  0
LINE
  8
_0-6_
  6
CONTINUOUS
 62
    5
 10
2231.8843106180661
 20
769.20710699999972
 11
2235.3843106180665
 21
771.70710699999972
  0
LINE
  8
_0-6_
  6
CONTINUOUS
 62
    5
 10
2235.3843106180665
 20
771.70710699999972
 11
2231.8843106180661
 21
774.20710699999972
  0
LINE
  8
_0-6_
  6
CONTINUOUS
 62
    5
 10
2231.8843106180661
 20
774.20710699999972
 11
2235.3843106180665
 21
776.70710699999972
  0
LINE
  8
_0-6_
  6
CONTINUOUS
 62
    5
 10
2235.3843106180665
 20
776.70710699999972
 11
2231.8843106180661
 21
779.20710699999972
  0
LINE
  8
_0-6_
  6
CONTINUOUS
 62
    5
 10
2231.8843106180661
 20
779.20710699999972
 11
2235.3843106180665
 21
781.70710699999972
  0
LINE
  8
_0-6_
  6
CONTINUOUS
 62
    5
 10
2235.3843106180665
 20
781.70710699999972
 11
2231.8843106180661
 21
784.20710699999972
  0
LINE
  8
_0-6_
  6
CONTINUOUS
 62
    5
 10
2231.8843106180661
 20
784.20710699999972
 11
2235.3843106180665
 21
786.70710699999972
  0
LINE
  8
_0-6_
  6
CONTINUOUS
 62
    5
 10
2235.3843106180665
 20
786.70710699999972
 11
2231.8843106180661
 21
789.20710699999972
  0
LINE
  8
_0-6_
  6
CONTINUOUS
 62
    5
 10
2231.8843106180661
 20
789.20710699999972
 11
2235.3843106180665
 21
791.70710699999972
  0
LINE
  8
_0-6_
  6
CONTINUOUS
 62
    5
 10
2235.3843106180665
 20
791.70710699999972
 11
2231.8843106180661
 21
794.20710699999972
  0
LINE
  8
_0-6_
  6
CONTINUOUS
 62
    5
 10
2231.8843106180661
 20
794.20710699999972
 11
2235.3843106180665
 21
796.70710699999972
  0
LINE
  8
_0-6_
  6
CONTINUOUS
 62
    5
 10
2235.3843106180665
 20
796.70710699999972
 11
2231.8843106180661
 21
799.20710699999972
  0
LINE
  8
_0-6_
  6
CONTINUOUS
 62
    5
 10
2231.8843106180661
 20
799.20710699999972
 11
2235.3843106180665
 21
801.70710699999972
  0
LINE
  8
_0-6_
  6
CONTINUOUS
 62
    5
 10
2235.3843106180665
 20
801.70710699999972
 11
2231.8843106180661
 21
804.20710699999972
  0
LINE
  8
_0-6_
  6
CONTINUOUS
 62
    5
 10
2231.8843106180661
 20
804.20710699999972
 11
2235.3843106180665
 21
806.70710699999972
  0
LINE
  8
_0-6_
  6
CONTINUOUS
 62
    5
 10
2235.3843106180665
 20
806.70710699999972
 11
2231.8843106180661
 21
809.20710699999972
  0
LINE
  8
_0-6_
  6
CONTINUOUS
 62
    5
 10
2231.8843106180661
 20
809.20710699999972
 11
2235.3843106180665
 21
811.70710699999972
  0
LINE
  8
_0-6_
  6
CONTINUOUS
 62
    5
 10
2235.3843106180665
 20
811.70710699999972
 11
2231.8843106180661
 21
814.20710699999972
  0
LINE
  8
_0-6_
  6
CONTINUOUS
 62
    5
 10
2231.8843106180661
 20
814.20710699999972
 11
2235.3843106180665
 21
816.70710699999972
  0
LINE
  8
_0-6_
  6
CONTINUOUS
 62
    5
 10
2235.3843106180665
 20
816.70710699999972
 11
2231.8843106180661
 21
819.20710699999972
  0
LINE
  8
_0-6_
  6
CONTINUOUS
 62
    5
 10
2231.8843106180661
 20
819.20710699999972
 11
2235.3843106180665
 21
821.70710699999983
  0
LINE
  8
_0-6_
  6
CONTINUOUS
 62
    5
 10
2235.3843106180665
 20
821.70710699999983
 11
2231.8843106180661
 21
824.20710699999983
  0
LINE
  8
_0-6_
  6
CONTINUOUS
 62
    5
 10
2231.8843106180661
 20
824.20710699999983
 11
2235.3843106180665
 21
826.70710699999983
  0
LINE
  8
_0-6_
  6
CONTINUOUS
 62
    5
 10
2235.3843106180665
 20
826.70710699999983
 11
2231.8843106180661
 21
829.20710699999983
  0
LINE
  8
_0-6_
  6
CONTINUOUS
 62
    5
 10
2231.8843106180661
 20
829.20710699999983
 11
2235.3843106180665
 21
831.70710699999983
  0
LINE
  8
_0-6_
  6
CONTINUOUS
 62
    5
 10
2235.3843106180665
 20
831.70710699999983
 11
2231.8843106180661
 21
834.20710699999983
  0
LINE
  8
_0-6_
  6
CONTINUOUS
 62
    5
 10
2231.8843106180661
 20
834.20710699999983
 11
2235.3843106180665
 21
836.70710699999983
  0
LINE
  8
_0-6_
  6
CONTINUOUS
 62
    5
 10
2235.3843106180665
 20
836.70710699999983
 11
2231.8843106180661
 21
839.20710699999983
  0
LINE
  8
_0-6_
  6
CONTINUOUS
 62
    5
 10
2231.8843106180661
 20
839.20710699999983
 11
2235.3843106180665
 21
841.70710699999983
  0
LINE
  8
_0-6_
  6
CONTINUOUS
 62
    5
 10
2235.3843106180665
 20
841.70710699999983
 11
2231.8843106180661
 21
844.20710699999983
  0
LINE
  8
_0-6_
  6
CONTINUOUS
 62
    5
 10
2231.8843106180661
 20
844.20710699999983
 11
2235.3843106180665
 21
846.70710699999995
  0
LINE
  8
_0-6_
  6
CONTINUOUS
 62
    5
 10
2235.3843106180665
 20
846.70710699999995
 11
2231.8843106180661
 21
849.20710699999995
  0
LINE
  8
_0-6_
  6
CONTINUOUS
 62
    5
 10
2231.8843106180661
 20
849.20710699999995
 11
2235.3843106180665
 21
851.70710699999995
  0
LINE
  8
_0-6_
  6
CONTINUOUS
 62
    5
 10
2235.3843106180665
 20
851.70710699999995
 11
2231.8843106180661
 21
854.20710699999995
  0
LINE
  8
_0-6_
  6
CONTINUOUS
 62
    5
 10
2231.8843106180661
 20
854.20710699999995
 11
2235.3843106180665
 21
856.70710699999995
  0
LINE
  8
_0-6_
  6
CONTINUOUS
 62
    5
 10
2235.3843106180665
 20
856.70710699999995
 11
2231.8843106180661
 21
859.20710699999995
  0
LINE
  8
_0-6_
  6
CONTINUOUS
 62
    5
 10
2231.8843106180661
 20
859.20710699999995
 11
2235.3843106180665
 21
861.70710699999995
  0
LINE
  8
_0-6_
  6
CONTINUOUS
 62
    5
 10
2235.3843106180665
 20
861.70710699999995
 11
2231.8843106180661
 21
864.20710699999995
  0
LINE
  8
_0-6_
  6
CONTINUOUS
 62
    5
 10
2231.8843106180661
 20
864.20710699999995
 11
2235.3843106180665
 21
866.70710699999995
  0
LINE
  8
_0-6_
  6
CONTINUOUS
 62
    5
 10
2235.3843106180665
 20
866.70710699999995
 11
2231.8843106180661
 21
869.20710699999995
  0
LINE
  8
_0-6_
  6
CONTINUOUS
 62
    5
 10
2231.8843106180661
 20
869.20710699999995
 11
2235.3843106180665
 21
871.70710699999995
  0
LINE
  8
_0-6_
  6
CONTINUOUS
 62
    5
 10
2235.3843106180665
 20
871.70710699999995
 11
2231.8843106180661
 21
874.20710699999995
  0
LINE
  8
_0-6_
  6
CONTINUOUS
 62
    5
 10
2231.8843106180661
 20
874.20710699999995
 11
2235.3843106180665
 21
876.70710699999995
  0
LINE
  8
_0-6_
  6
CONTINUOUS
 62
    5
 10
2235.3843106180665
 20
876.70710699999995
 11
2231.8843106180661
 21
879.20710699999995
  0
LINE
  8
_0-6_
  6
CONTINUOUS
 62
    5
 10
2231.8843106180661
 20
879.20710699999995
 11
2235.3843106180665
 21
881.70710699999995
  0
LINE
  8
_0-6_
  6
CONTINUOUS
 62
    5
 10
2235.3843106180665
 20
881.70710699999995
 11
2231.8843106180661
 21
884.20710699999995
  0
LINE
  8
_0-6_
  6
CONTINUOUS
 62
    5
 10
2231.8843106180661
 20
884.20710699999995
 11
2235.3843106180665
 21
886.70710699999995
  0
LINE
  8
_0-6_
  6
CONTINUOUS
 62
    5
 10
2235.3843106180665
 20
886.70710699999995
 11
2231.8843106180661
 21
889.20710699999995
  0
LINE
  8
_0-6_
  6
CONTINUOUS
 62
    5
 10
2231.8843106180661
 20
889.20710699999995
 11
2235.3843106180665
 21
891.70710699999995
  0
LINE
  8
_0-6_
  6
CONTINUOUS
 62
    5
 10
2235.3843106180665
 20
891.70710699999995
 11
2231.8843106180661
 21
894.20710699999995
  0
LINE
  8
_0-6_
  6
CONTINUOUS
 62
    5
 10
2231.8843106180661
 20
894.20710699999995
 11
2235.3843106180665
 21
896.70710699999995
  0
LINE
  8
_0-6_
  6
CONTINUOUS
 62
    5
 10
2235.3843106180665
 20
896.70710699999995
 11
2231.8843106180661
 21
899.20710699999995
  0
LINE
  8
_0-6_
  6
CONTINUOUS
 62
    5
 10
2231.8843106180661
 20
899.20710699999995
 11
2235.3843106180665
 21
901.70710699999995
  0
LINE
  8
_0-6_
  6
CONTINUOUS
 62
    5
 10
2235.3843106180665
 20
901.70710699999995
 11
2231.8843106180661
 21
904.20710699999995
  0
LINE
  8
_0-6_
  6
CONTINUOUS
 62
    5
 10
2231.8843106180661
 20
904.20710699999995
 11
2235.3843106180665
 21
906.70710699999995
  0
LINE
  8
_0-6_
  6
CONTINUOUS
 62
    5
 10
2235.3843106180665
 20
906.70710699999995
 11
2231.8843106180661
 21
909.20710699999995
  0
LINE
  8
_0-6_
  6
CONTINUOUS
 62
    5
 10
2231.8843106180661
 20
909.20710699999995
 11
2235.3843106180665
 21
911.70710699999995
  0
LINE
  8
_0-6_
  6
CONTINUOUS
 62
    5
 10
2235.3843106180665
 20
911.70710699999995
 11
2231.8843106180661
 21
914.20710699999995
  0
LINE
  8
_0-6_
  6
CONTINUOUS
 62
    5
 10
2231.8843106180661
 20
914.20710699999995
 11
2235.3843106180665
 21
916.70710699999995
  0
LINE
  8
_0-6_
  6
CONTINUOUS
 62
    5
 10
2235.3843106180665
 20
916.70710699999995
 11
2231.8843106180661
 21
919.20710699999995
  0
LINE
  8
_0-6_
  6
CONTINUOUS
 62
    5
 10
2231.8843106180661
 20
919.20710699999995
 11
2235.3843106180665
 21
921.70710699999983
  0
LINE
  8
_0-6_
  6
CONTINUOUS
 62
    5
 10
2235.3843106180665
 20
921.70710699999983
 11
2231.8843106180661
 21
924.20710699999983
  0
LINE
  8
_0-6_
  6
CONTINUOUS
 62
    5
 10
2231.8843106180661
 20
924.20710699999983
 11
2235.3843106180665
 21
926.70710699999983
  0
LINE
  8
_0-6_
  6
CONTINUOUS
 62
    5
 10
2235.3843106180665
 20
926.70710699999983
 11
2231.8843106180661
 21
929.20710699999983
  0
LINE
  8
_0-6_
  6
CONTINUOUS
 62
    5
 10
2231.8843106180661
 20
929.20710699999983
 11
2235.3843106180665
 21
931.70710699999983
  0
LINE
  8
_0-6_
  6
CONTINUOUS
 62
    5
 10
2235.3843106180665
 20
931.70710699999983
 11
2231.8843106180661
 21
934.20710699999983
  0
LINE
  8
_0-6_
  6
CONTINUOUS
 62
    5
 10
2231.8843106180661
 20
934.20710699999983
 11
2235.3843106180665
 21
936.70710699999983
  0
LINE
  8
_0-6_
  6
CONTINUOUS
 62
    5
 10
2235.3843106180665
 20
936.70710699999983
 11
2231.8843106180661
 21
939.20710699999983
  0
LINE
  8
_0-6_
  6
CONTINUOUS
 62
    5
 10
2231.8843106180661
 20
939.20710699999983
 11
2235.3843106180665
 21
941.70710699999983
  0
LINE
  8
_0-6_
  6
CONTINUOUS
 62
    5
 10
2235.3843106180665
 20
941.70710699999983
 11
2231.8843106180661
 21
944.20710699999983
  0
LINE
  8
_0-6_
  6
CONTINUOUS
 62
    5
 10
2231.8843106180661
 20
974.20710699999983
 11
2235.3843106180665
 21
976.70710699999983
  0
LINE
  8
_0-6_
  6
CONTINUOUS
 62
    5
 10
2235.3843106180665
 20
976.70710699999983
 11
2231.8843106180661
 21
979.20710699999983
  0
LINE
  8
_0-6_
  6
CONTINUOUS
 62
    5
 10
2231.8843106180661
 20
979.20710699999983
 11
2235.3843106180665
 21
981.70710699999983
  0
LINE
  8
_0-6_
  6
CONTINUOUS
 62
    5
 10
2235.3843106180665
 20
981.70710699999983
 11
2231.8843106180661
 21
984.20710699999983
  0
LINE
  8
_0-6_
  6
CONTINUOUS
 62
    5
 10
2231.8843106180661
 20
984.20710699999983
 11
2235.3843106180665
 21
986.70710699999983
  0
LINE
  8
_0-6_
  6
CONTINUOUS
 62
    5
 10
2235.3843106180665
 20
986.70710699999983
 11
2231.8843106180661
 21
989.20710699999983
  0
LINE
  8
_0-6_
  6
CONTINUOUS
 62
    5
 10
2203.8843106180665
 20
694.20710699999972
 11
2200.3843106180665
 21
696.70710699999972
  0
LINE
  8
_0-6_
  6
CONTINUOUS
 62
    5
 10
2200.3843106180665
 20
696.70710699999972
 11
2203.8843106180665
 21
699.20710699999972
  0
LINE
  8
_0-6_
  6
CONTINUOUS
 62
    5
 10
2203.8843106180665
 20
699.20710699999972
 11
2200.3843106180665
 21
701.70710699999972
  0
LINE
  8
_0-6_
  6
CONTINUOUS
 62
    5
 10
2200.3843106180665
 20
701.70710699999972
 11
2203.8843106180665
 21
704.20710699999972
  0
LINE
  8
_0-6_
  6
CONTINUOUS
 62
    5
 10
2203.8843106180665
 20
704.20710699999972
 11
2200.3843106180665
 21
706.70710699999972
  0
LINE
  8
_0-6_
  6
CONTINUOUS
 62
    5
 10
2200.3843106180665
 20
706.70710699999972
 11
2203.8843106180665
 21
709.20710699999972
  0
LINE
  8
_0-6_
  6
CONTINUOUS
 62
    5
 10
2203.8843106180665
 20
709.20710699999972
 11
2200.3843106180665
 21
711.70710699999972
  0
LINE
  8
_0-6_
  6
CONTINUOUS
 62
    5
 10
2200.3843106180665
 20
711.70710699999972
 11
2203.8843106180665
 21
714.20710699999972
  0
LINE
  8
_0-6_
  6
CONTINUOUS
 62
    5
 10
2203.8843106180665
 20
714.20710699999972
 11
2200.3843106180665
 21
716.70710699999972
  0
LINE
  8
_0-6_
  6
CONTINUOUS
 62
    5
 10
2200.3843106180665
 20
716.70710699999972
 11
2203.8843106180665
 21
719.20710699999972
  0
LINE
  8
_0-6_
  6
CONTINUOUS
 62
    5
 10
2203.8843106180665
 20
719.20710699999972
 11
2200.3843106180665
 21
721.70710699999972
  0
LINE
  8
_0-6_
  6
CONTINUOUS
 62
    5
 10
2200.3843106180665
 20
721.70710699999972
 11
2203.8843106180665
 21
724.20710699999972
  0
LINE
  8
_0-6_
  6
CONTINUOUS
 62
    5
 10
2203.8843106180665
 20
724.20710699999972
 11
2200.3843106180665
 21
726.70710699999972
  0
LINE
  8
_0-6_
  6
CONTINUOUS
 62
    5
 10
2200.3843106180665
 20
726.70710699999972
 11
2203.8843106180665
 21
729.20710699999972
  0
LINE
  8
_0-6_
  6
CONTINUOUS
 62
    5
 10
2203.8843106180665
 20
729.20710699999972
 11
2200.3843106180665
 21
731.70710699999972
  0
LINE
  8
_0-6_
  6
CONTINUOUS
 62
    5
 10
2200.3843106180665
 20
731.70710699999972
 11
2203.8843106180665
 21
734.20710699999972
  0
LINE
  8
_0-6_
  6
CONTINUOUS
 62
    5
 10
2203.8843106180665
 20
734.20710699999972
 11
2200.3843106180665
 21
736.70710699999972
  0
LINE
  8
_0-6_
  6
CONTINUOUS
 62
    5
 10
2200.3843106180665
 20
736.70710699999972
 11
2203.8843106180665
 21
739.20710699999972
  0
LINE
  8
_0-6_
  6
CONTINUOUS
 62
    5
 10
2203.8843106180665
 20
739.20710699999972
 11
2200.3843106180665
 21
741.70710699999972
  0
LINE
  8
_0-6_
  6
CONTINUOUS
 62
    5
 10
2200.3843106180665
 20
741.70710699999972
 11
2203.8843106180665
 21
744.20710699999972
  0
LINE
  8
_0-6_
  6
CONTINUOUS
 62
    5
 10
2203.8843106180665
 20
744.20710699999972
 11
2200.3843106180665
 21
746.70710699999972
  0
LINE
  8
_0-6_
  6
CONTINUOUS
 62
    5
 10
2200.3843106180665
 20
746.70710699999972
 11
2203.8843106180665
 21
749.20710699999972
  0
LINE
  8
_0-6_
  6
CONTINUOUS
 62
    5
 10
2203.8843106180665
 20
749.20710699999972
 11
2200.3843106180665
 21
751.70710699999972
  0
LINE
  8
_0-6_
  6
CONTINUOUS
 62
    5
 10
2200.3843106180665
 20
751.70710699999972
 11
2203.8843106180665
 21
754.20710699999972
  0
LINE
  8
_0-6_
  6
CONTINUOUS
 62
    5
 10
2203.8843106180665
 20
754.20710699999972
 11
2200.3843106180665
 21
756.70710699999972
  0
LINE
  8
_0-6_
  6
CONTINUOUS
 62
    5
 10
2200.3843106180665
 20
756.70710699999972
 11
2203.8843106180665
 21
759.20710699999972
  0
LINE
  8
_0-6_
  6
CONTINUOUS
 62
    5
 10
2203.8843106180665
 20
759.20710699999972
 11
2200.3843106180665
 21
761.70710699999972
  0
LINE
  8
_0-6_
  6
CONTINUOUS
 62
    5
 10
2200.3843106180665
 20
761.70710699999972
 11
2203.8843106180665
 21
764.20710699999972
  0
LINE
  8
_0-6_
  6
CONTINUOUS
 62
    5
 10
2203.8843106180665
 20
764.20710699999972
 11
2200.3843106180665
 21
766.70710699999972
  0
LINE
  8
_0-6_
  6
CONTINUOUS
 62
    5
 10
2200.3843106180665
 20
766.70710699999972
 11
2203.8843106180665
 21
769.20710699999972
  0
LINE
  8
_0-6_
  6
CONTINUOUS
 62
    5
 10
2203.8843106180665
 20
769.20710699999972
 11
2200.3843106180665
 21
771.70710699999972
  0
LINE
  8
_0-6_
  6
CONTINUOUS
 62
    5
 10
2200.3843106180665
 20
771.70710699999972
 11
2203.8843106180665
 21
774.20710699999972
  0
LINE
  8
_0-6_
  6
CONTINUOUS
 62
    5
 10
2203.8843106180665
 20
774.20710699999972
 11
2200.3843106180665
 21
776.70710699999972
  0
LINE
  8
_0-6_
  6
CONTINUOUS
 62
    5
 10
2200.3843106180665
 20
776.70710699999972
 11
2203.8843106180665
 21
779.20710699999972
  0
LINE
  8
_0-6_
  6
CONTINUOUS
 62
    5
 10
2203.8843106180665
 20
779.20710699999972
 11
2200.3843106180665
 21
781.70710699999972
  0
LINE
  8
_0-6_
  6
CONTINUOUS
 62
    5
 10
2200.3843106180665
 20
781.70710699999972
 11
2203.8843106180665
 21
784.20710699999972
  0
LINE
  8
_0-6_
  6
CONTINUOUS
 62
    5
 10
2203.8843106180665
 20
784.20710699999972
 11
2200.3843106180665
 21
786.70710699999972
  0
LINE
  8
_0-6_
  6
CONTINUOUS
 62
    5
 10
2200.3843106180665
 20
786.70710699999972
 11
2203.8843106180665
 21
789.20710699999972
  0
LINE
  8
_0-6_
  6
CONTINUOUS
 62
    5
 10
2203.8843106180665
 20
789.20710699999972
 11
2200.3843106180665
 21
791.70710699999972
  0
LINE
  8
_0-6_
  6
CONTINUOUS
 62
    5
 10
2200.3843106180665
 20
791.70710699999972
 11
2203.8843106180665
 21
794.20710699999972
  0
LINE
  8
_0-6_
  6
CONTINUOUS
 62
    5
 10
2203.8843106180665
 20
794.20710699999972
 11
2200.3843106180665
 21
796.70710699999972
  0
LINE
  8
_0-6_
  6
CONTINUOUS
 62
    5
 10
2200.3843106180665
 20
796.70710699999972
 11
2203.8843106180665
 21
799.20710699999972
  0
LINE
  8
_0-6_
  6
CONTINUOUS
 62
    5
 10
2203.8843106180665
 20
799.20710699999972
 11
2200.3843106180665
 21
801.70710699999972
  0
LINE
  8
_0-6_
  6
CONTINUOUS
 62
    5
 10
2200.3843106180665
 20
801.70710699999972
 11
2203.8843106180665
 21
804.20710699999972
  0
LINE
  8
_0-6_
  6
CONTINUOUS
 62
    5
 10
2203.8843106180665
 20
804.20710699999972
 11
2200.3843106180665
 21
806.70710699999972
  0
LINE
  8
_0-6_
  6
CONTINUOUS
 62
    5
 10
2200.3843106180665
 20
806.70710699999972
 11
2203.8843106180665
 21
809.20710699999972
  0
LINE
  8
_0-6_
  6
CONTINUOUS
 62
    5
 10
2203.8843106180665
 20
809.20710699999972
 11
2200.3843106180665
 21
811.70710699999972
  0
LINE
  8
_0-6_
  6
CONTINUOUS
 62
    5
 10
2200.3843106180665
 20
811.70710699999972
 11
2203.8843106180665
 21
814.20710699999972
  0
LINE
  8
_0-6_
  6
CONTINUOUS
 62
    5
 10
2203.8843106180665
 20
814.20710699999972
 11
2200.3843106180665
 21
816.70710699999972
  0
LINE
  8
_0-6_
  6
CONTINUOUS
 62
    5
 10
2200.3843106180665
 20
816.70710699999972
 11
2203.8843106180665
 21
819.20710699999972
  0
LINE
  8
_0-6_
  6
CONTINUOUS
 62
    5
 10
2203.8843106180665
 20
819.20710699999972
 11
2200.3843106180665
 21
821.70710699999983
  0
LINE
  8
_0-6_
  6
CONTINUOUS
 62
    5
 10
2200.3843106180665
 20
821.70710699999983
 11
2203.8843106180665
 21
824.20710699999983
  0
LINE
  8
_0-6_
  6
CONTINUOUS
 62
    5
 10
2203.8843106180665
 20
824.20710699999983
 11
2200.3843106180665
 21
826.70710699999983
  0
LINE
  8
_0-6_
  6
CONTINUOUS
 62
    5
 10
2200.3843106180665
 20
826.70710699999983
 11
2203.8843106180665
 21
829.20710699999983
  0
LINE
  8
_0-6_
  6
CONTINUOUS
 62
    5
 10
2203.8843106180665
 20
829.20710699999983
 11
2200.3843106180665
 21
831.70710699999983
  0
LINE
  8
_0-6_
  6
CONTINUOUS
 62
    5
 10
2200.3843106180665
 20
831.70710699999983
 11
2203.8843106180665
 21
834.20710699999983
  0
LINE
  8
_0-6_
  6
CONTINUOUS
 62
    5
 10
2203.8843106180665
 20
834.20710699999983
 11
2200.3843106180665
 21
836.70710699999983
  0
LINE
  8
_0-6_
  6
CONTINUOUS
 62
    5
 10
2200.3843106180665
 20
836.70710699999983
 11
2203.8843106180665
 21
839.20710699999983
  0
LINE
  8
_0-6_
  6
CONTINUOUS
 62
    5
 10
2203.8843106180665
 20
839.20710699999983
 11
2200.3843106180665
 21
841.70710699999983
  0
LINE
  8
_0-6_
  6
CONTINUOUS
 62
    5
 10
2200.3843106180665
 20
841.70710699999983
 11
2203.8843106180665
 21
844.20710699999983
  0
LINE
  8
_0-6_
  6
CONTINUOUS
 62
    5
 10
2203.8843106180665
 20
844.20710699999983
 11
2200.3843106180665
 21
846.70710699999995
  0
LINE
  8
_0-6_
  6
CONTINUOUS
 62
    5
 10
2200.3843106180665
 20
846.70710699999995
 11
2203.8843106180665
 21
849.20710699999995
  0
LINE
  8
_0-6_
  6
CONTINUOUS
 62
    5
 10
2203.8843106180665
 20
849.20710699999995
 11
2200.3843106180665
 21
851.70710699999995
  0
LINE
  8
_0-6_
  6
CONTINUOUS
 62
    5
 10
2200.3843106180665
 20
851.70710699999995
 11
2203.8843106180665
 21
854.20710699999995
  0
LINE
  8
_0-6_
  6
CONTINUOUS
 62
    5
 10
2203.8843106180665
 20
854.20710699999995
 11
2200.3843106180665
 21
856.70710699999995
  0
LINE
  8
_0-6_
  6
CONTINUOUS
 62
    5
 10
2200.3843106180665
 20
856.70710699999995
 11
2203.8843106180665
 21
859.20710699999995
  0
LINE
  8
_0-6_
  6
CONTINUOUS
 62
    5
 10
2203.8843106180665
 20
859.20710699999995
 11
2200.3843106180665
 21
861.70710699999995
  0
LINE
  8
_0-6_
  6
CONTINUOUS
 62
    5
 10
2200.3843106180665
 20
861.70710699999995
 11
2203.8843106180665
 21
864.20710699999995
  0
LINE
  8
_0-6_
  6
CONTINUOUS
 62
    5
 10
2203.8843106180665
 20
864.20710699999995
 11
2200.3843106180665
 21
866.70710699999995
  0
LINE
  8
_0-6_
  6
CONTINUOUS
 62
    5
 10
2200.3843106180665
 20
866.70710699999995
 11
2203.8843106180665
 21
869.20710699999995
  0
LINE
  8
_0-6_
  6
CONTINUOUS
 62
    5
 10
2203.8843106180665
 20
869.20710699999995
 11
2200.3843106180665
 21
871.70710699999995
  0
LINE
  8
_0-6_
  6
CONTINUOUS
 62
    5
 10
2200.3843106180665
 20
871.70710699999995
 11
2203.8843106180665
 21
874.20710699999995
  0
LINE
  8
_0-6_
  6
CONTINUOUS
 62
    5
 10
2203.8843106180665
 20
874.20710699999995
 11
2200.3843106180665
 21
876.70710699999995
  0
LINE
  8
_0-6_
  6
CONTINUOUS
 62
    5
 10
2200.3843106180665
 20
876.70710699999995
 11
2203.8843106180665
 21
879.20710699999995
  0
LINE
  8
_0-6_
  6
CONTINUOUS
 62
    5
 10
2203.8843106180665
 20
879.20710699999995
 11
2200.3843106180665
 21
881.70710699999995
  0
LINE
  8
_0-6_
  6
CONTINUOUS
 62
    5
 10
2200.3843106180665
 20
881.70710699999995
 11
2203.8843106180665
 21
884.20710699999995
  0
LINE
  8
_0-6_
  6
CONTINUOUS
 62
    5
 10
2203.8843106180665
 20
884.20710699999995
 11
2200.3843106180665
 21
886.70710699999995
  0
LINE
  8
_0-6_
  6
CONTINUOUS
 62
    5
 10
2200.3843106180665
 20
886.70710699999995
 11
2203.8843106180665
 21
889.20710699999995
  0
LINE
  8
_0-6_
  6
CONTINUOUS
 62
    5
 10
2203.8843106180665
 20
889.20710699999995
 11
2200.3843106180665
 21
891.70710699999995
  0
LINE
  8
_0-6_
  6
CONTINUOUS
 62
    5
 10
2200.3843106180665
 20
891.70710699999995
 11
2203.8843106180665
 21
894.20710699999995
  0
LINE
  8
_0-6_
  6
CONTINUOUS
 62
    5
 10
2203.8843106180665
 20
894.20710699999995
 11
2200.3843106180665
 21
896.70710699999995
  0
LINE
  8
_0-6_
  6
CONTINUOUS
 62
    5
 10
2200.3843106180665
 20
896.70710699999995
 11
2203.8843106180665
 21
899.20710699999995
  0
LINE
  8
_0-6_
  6
CONTINUOUS
 62
    5
 10
2203.8843106180665
 20
899.20710699999995
 11
2200.3843106180665
 21
901.70710699999995
  0
LINE
  8
_0-6_
  6
CONTINUOUS
 62
    5
 10
2200.3843106180665
 20
901.70710699999995
 11
2203.8843106180665
 21
904.20710699999995
  0
LINE
  8
_0-6_
  6
CONTINUOUS
 62
    5
 10
2203.8843106180665
 20
904.20710699999995
 11
2200.3843106180665
 21
906.70710699999995
  0
LINE
  8
_0-6_
  6
CONTINUOUS
 62
    5
 10
2200.3843106180665
 20
906.70710699999995
 11
2203.8843106180665
 21
909.20710699999995
  0
LINE
  8
_0-6_
  6
CONTINUOUS
 62
    5
 10
2203.8843106180665
 20
909.20710699999995
 11
2200.3843106180665
 21
911.70710699999995
  0
LINE
  8
_0-6_
  6
CONTINUOUS
 62
    5
 10
2200.3843106180665
 20
911.70710699999995
 11
2203.8843106180665
 21
914.20710699999995
  0
LINE
  8
_0-6_
  6
CONTINUOUS
 62
    5
 10
2203.8843106180665
 20
914.20710699999995
 11
2200.3843106180665
 21
916.70710699999995
  0
LINE
  8
_0-6_
  6
CONTINUOUS
 62
    5
 10
2200.3843106180665
 20
916.70710699999995
 11
2203.8843106180665
 21
919.20710699999995
  0
LINE
  8
_0-6_
  6
CONTINUOUS
 62
    5
 10
2203.8843106180665
 20
919.20710699999995
 11
2200.3843106180665
 21
921.70710699999983
  0
LINE
  8
_0-6_
  6
CONTINUOUS
 62
    5
 10
2200.3843106180665
 20
921.70710699999983
 11
2203.8843106180665
 21
924.20710699999983
  0
LINE
  8
_0-6_
  6
CONTINUOUS
 62
    5
 10
2203.8843106180665
 20
924.20710699999983
 11
2200.3843106180665
 21
926.70710699999983
  0
LINE
  8
_0-6_
  6
CONTINUOUS
 62
    5
 10
2200.3843106180665
 20
926.70710699999983
 11
2203.8843106180665
 21
929.20710699999983
  0
LINE
  8
_0-6_
  6
CONTINUOUS
 62
    5
 10
2203.8843106180665
 20
929.20710699999983
 11
2200.3843106180665
 21
931.70710699999983
  0
LINE
  8
_0-6_
  6
CONTINUOUS
 62
    5
 10
2200.3843106180665
 20
931.70710699999983
 11
2203.8843106180665
 21
934.20710699999983
  0
LINE
  8
_0-6_
  6
CONTINUOUS
 62
    5
 10
2203.8843106180665
 20
934.20710699999983
 11
2200.3843106180665
 21
936.70710699999983
  0
LINE
  8
_0-6_
  6
CONTINUOUS
 62
    5
 10
2200.3843106180665
 20
936.70710699999983
 11
2203.8843106180665
 21
939.20710699999983
  0
LINE
  8
_0-6_
  6
CONTINUOUS
 62
    5
 10
2203.8843106180665
 20
939.20710699999983
 11
2200.3843106180665
 21
941.70710699999983
  0
LINE
  8
_0-6_
  6
CONTINUOUS
 62
    5
 10
2200.3843106180665
 20
941.70710699999983
 11
2203.8843106180665
 21
944.20710699999983
  0
LINE
  8
_0-6_
  6
CONTINUOUS
 62
    5
 10
2203.8843106180665
 20
944.20710699999983
 11
2200.3843106180665
 21
946.70710699999983
  0
LINE
  8
_0-6_
  6
CONTINUOUS
 62
    5
 10
2200.3843106180665
 20
946.70710699999983
 11
2203.8843106180665
 21
949.20710699999983
  0
LINE
  8
_0-6_
  6
CONTINUOUS
 62
    5
 10
2203.8843106180665
 20
949.20710699999983
 11
2200.3843106180665
 21
951.70710699999983
  0
LINE
  8
_0-6_
  6
CONTINUOUS
 62
    5
 10
2200.3843106180665
 20
951.70710699999983
 11
2203.8843106180665
 21
954.20710699999983
  0
LINE
  8
_0-6_
  6
CONTINUOUS
 62
    5
 10
2203.8843106180665
 20
954.20710699999983
 11
2200.3843106180665
 21
956.70710699999983
  0
LINE
  8
_0-6_
  6
CONTINUOUS
 62
    5
 10
2200.3843106180665
 20
956.70710699999983
 11
2203.8843106180665
 21
959.20710699999983
  0
LINE
  8
_0-6_
  6
CONTINUOUS
 62
    5
 10
2203.8843106180665
 20
959.20710699999983
 11
2200.3843106180665
 21
961.70710699999983
  0
LINE
  8
_0-6_
  6
CONTINUOUS
 62
    5
 10
2200.3843106180665
 20
961.70710699999983
 11
2203.8843106180665
 21
964.20710699999983
  0
LINE
  8
_0-6_
  6
CONTINUOUS
 62
    5
 10
2203.8843106180665
 20
964.20710699999983
 11
2200.3843106180665
 21
966.70710699999983
  0
LINE
  8
_0-6_
  6
CONTINUOUS
 62
    5
 10
2200.3843106180665
 20
966.70710699999983
 11
2203.8843106180665
 21
969.20710699999983
  0
LINE
  8
_0-6_
  6
CONTINUOUS
 62
    5
 10
2203.8843106180665
 20
969.20710699999983
 11
2200.3843106180665
 21
971.70710699999983
  0
LINE
  8
_0-6_
  6
CONTINUOUS
 62
    5
 10
2200.3843106180665
 20
971.70710699999983
 11
2203.8843106180665
 21
974.20710699999983
  0
LINE
  8
_0-6_
  6
CONTINUOUS
 62
    5
 10
2203.8843106180665
 20
974.20710699999983
 11
2200.3843106180665
 21
976.70710699999983
  0
LINE
  8
_0-6_
  6
CONTINUOUS
 62
    5
 10
2200.3843106180665
 20
976.70710699999983
 11
2203.8843106180665
 21
979.20710699999983
  0
LINE
  8
_0-6_
  6
CONTINUOUS
 62
    5
 10
2203.8843106180665
 20
979.20710699999983
 11
2200.3843106180665
 21
981.70710699999983
  0
LINE
  8
_0-6_
  6
CONTINUOUS
 62
    5
 10
2200.3843106180665
 20
981.70710699999983
 11
2203.8843106180665
 21
984.20710699999983
  0
LINE
  8
_0-6_
  6
CONTINUOUS
 62
    5
 10
2203.8843106180665
 20
704.20710699999972
 11
2217.8843106180665
 21
704.20710699999972
  0
LINE
  8
_0-6_
  6
CONTINUOUS
 62
    5
 10
2217.8843106180665
 20
699.20710699999972
 11
2231.8843106180661
 21
699.20710699999972
  0
LINE
  8
_0-6_
  6
CONTINUOUS
 62
    5
 10
2231.8843106180661
 20
944.20710699999983
 11
2234.0800994993055
 21
945.77552762945629
  0
LINE
  8
_0-6_
  6
CONTINUOUS
 62
    5
 10
2089.3843106180665
 20
1105.2071069999997
 11
2089.3843106180665
 21
1070.2071069999997
  0
LINE
  8
_0-6_
  6
CONTINUOUS
 62
    5
 10
2126.3843106180665
 20
1105.2071069999997
 11
2126.3843106180665
 21
1070.2071069999997
  0
LINE
  8
_0-6_
  6
CONTINUOUS
 62
    5
 10
2126.3843106180665
 20
1070.2071069999997
 11
2123.7343106180665
 21
1067.5571069999998
  0
LINE
  8
_0-6_
  6
CONTINUOUS
 62
    5
 10
2089.3843106180665
 20
1070.2071069999997
 11
2092.0343106180666
 21
1067.5571069999998
  0
LINE
  8
_0-6_
  6
CONTINUOUS
 62
    5
 10
2084.4843106180665
 20
1105.2071069999997
 11
2131.2843106180666
 21
1105.2071069999997
  0
LINE
  8
_0-6_
  6
CONTINUOUS
 62
    5
 10
2086.4843106180665
 20
1123.2071069999997
 11
2129.2843106180666
 21
1123.2071069999997
  0
LINE
  8
_0-6_
  6
CONTINUOUS
 62
    5
 10
2084.4843106180665
 20
1121.2071069999999
 11
2084.4843106180665
 21
1105.2071069999997
  0
LINE
  8
_0-6_
  6
CONTINUOUS
 62
    5
 10
2131.2843106180666
 20
1121.2071069999999
 11
2131.2843106180666
 21
1105.2071069999997
  0
ARC
  8
_0-6_
  6
CONTINUOUS
 62
    5
 10
2086.4843106180665
 20
1121.2071069999999
 40
2
 50
90
 51
180
  0
ARC
  8
_0-6_
  6
CONTINUOUS
 62
    5
 10
2129.2843106180666
 20
1121.2071069999999
 40
2
 50
0
 51
90
  0
LINE
  8
_0-6_
  6
CONTINUOUS
 62
    5
 10
2092.0343106180666
 20
1067.5571069999998
 11
2123.7343106180665
 21
1067.5571069999998
  0
LINE
  8
_0-6_
  6
CONTINUOUS
 62
    5
 10
2090.7543216180665
 20
1121.2071069999999
 11
2090.7543216180665
 21
1105.2071069999997
  0
LINE
  8
_0-6_
  6
CONTINUOUS
 62
    5
 10
2101.6142996180665
 20
1121.2071069999999
 11
2101.6142996180665
 21
1105.2071069999997
  0
LINE
  8
_0-6_
  6
CONTINUOUS
 62
    5
 10
2114.1543216180666
 20
1121.2071069999999
 11
2114.1543216180666
 21
1105.2071069999997
  0
LINE
  8
_0-6_
  6
CONTINUOUS
 62
    5
 10
2125.0142996180666
 20
1121.2071069999999
 11
2125.0142996180666
 21
1105.2071069999997
  0
LINE
  8
_0-6_
  6
CONTINUOUS
 62
    5
 10
2128.9705496180667
 20
1073.2071069999997
 11
2128.9705496180667
 21
1057.2071069999997
  0
LINE
  8
_0-6_
  6
CONTINUOUS
 62
    5
 10
2141.5105716180664
 20
1073.2071069999997
 11
2141.5105716180664
 21
1057.2071069999997
  0
LINE
  8
_0-6_
  6
CONTINUOUS
 62
    5
 10
2083.9843106180665
 20
1149.2071069999999
 11
2131.7843106180666
 21
1149.2071069999999
  0
LINE
  8
_0-6_
  6
CONTINUOUS
 62
    5
 10
2073.8843106180665
 20
1182.7071069999999
 11
2141.8843106180665
 21
1182.7071069999999
  0
LINE
  8
_0-6_
  6
CONTINUOUS
 62
    5
 10
2073.8843106180665
 20
1185.7071069999997
 11
2073.8843106180665
 21
1182.7071069999999
  0
LINE
  8
_0-6_
  6
CONTINUOUS
 62
    5
 10
2141.8843106180665
 20
1185.7071069999997
 11
2141.8843106180665
 21
1182.7071069999999
  0
LINE
  8
_0-6_
  6
CONTINUOUS
 62
    5
 10
2075.3843106180665
 20
1179.6001649999998
 11
2075.3843106180665
 21
1182.7071069999999
  0
LINE
  8
_0-6_
  6
CONTINUOUS
 62
    5
 10
2140.3843106180665
 20
1179.6001649999998
 11
2140.3843106180665
 21
1182.7071069999999
  0
LINE
  8
_0-6_
  6
CONTINUOUS
 62
    5
 10
2073.8843106180665
 20
1183.2071069999997
 11
2141.8843106180665
 21
1183.2071069999997
  0
LINE
  8
_0-6_
  6
CONTINUOUS
 62
    5
 10
2073.8843106180665
 20
1185.7071069999997
 11
2141.8843106180665
 21
1185.7071069999997
  0
LINE
  8
_0-6_
  6
CONTINUOUS
 62
    5
 10
2073.8843106180665
 20
1185.7071069999997
 11
2078.9852776180664
 21
1190
  0
LINE
  8
_0-6_
  6
CONTINUOUS
 62
    5
 10
2136.7833436180667
 20
1190
 11
2141.8843106180665
 21
1185.7071069999997
  0
LINE
  8
_0-6_
  6
CONTINUOUS
 62
    5
 10
2083.9843106180665
 20
1149.2071069999999
 11
2083.9843106180665
 21
1161.100165
  0
LINE
  8
_0-6_
  6
CONTINUOUS
 62
    5
 10
2131.7843106180666
 20
1149.2071069999999
 11
2131.7843106180666
 21
1161.100165
  0
LINE
  8
_0-6_
  6
CONTINUOUS
 62
    5
 10
2075.3843106180665
 20
1179.6001649999998
 11
2140.3843106180665
 21
1179.6001649999998
  0
LINE
  8
_0-6_
  6
CONTINUOUS
 62
    5
 10
2133.8843106180665
 20
1161.100165
 11
2081.8843106180665
 21
1161.100165
  0
LINE
  8
_0-6_
  6
CONTINUOUS
 62
    5
 10
2081.8843106180665
 20
1161.100165
 11
2081.8843106180665
 21
1179.6001649999998
  0
LINE
  8
_0-6_
  6
CONTINUOUS
 62
    5
 10
2133.8843106180665
 20
1161.100165
 11
2133.8843106180665
 21
1179.6001649999998
  0
LINE
  8
_0-6_
  6
CONTINUOUS
 62
    5
 10
2085.8843106180665
 20
1162.6001649999998
 11
2085.8843106180665
 21
1179.6001649999998
  0
LINE
  8
_0-6_
  6
CONTINUOUS
 62
    5
 10
2103.8843106180665
 20
1162.6001649999998
 11
2103.8843106180665
 21
1179.6001649999998
  0
LINE
  8
_0-6_
  6
CONTINUOUS
 62
    5
 10
2111.8843106180665
 20
1162.6001649999998
 11
2111.8843106180665
 21
1179.6001649999998
  0
LINE
  8
_0-6_
  6
CONTINUOUS
 62
    5
 10
2129.8843106180665
 20
1162.6001649999998
 11
2129.8843106180665
 21
1179.6001649999998
  0
LINE
  8
_0-6_
  6
CONTINUOUS
 62
    5
 10
2092.0343106180666
 20
1149.2071069999999
 11
2092.0343106180666
 21
1123.2071069999997
  0
LINE
  8
_0-6_
  6
CONTINUOUS
 62
    5
 10
2123.7343106180665
 20
1149.2071069999999
 11
2123.7343106180665
 21
1123.2071069999997
  0
LINE
  8
_0-6_
  6
CONTINUOUS
 62
    5
 10
2123.7343106180665
 20
1057.2071069999997
 11
2158.6405606180665
 21
1057.2071069999997
  0
LINE
  8
_0-6_
  6
CONTINUOUS
 62
    5
 10
2158.6405606180665
 20
1073.2071069999997
 11
2158.6405606180665
 21
1057.2071069999997
  0
ARC
  8
_0-6_
  6
CONTINUOUS
 62
    5
 10
2156.6405606180665
 20
1073.2071069999997
 40
2
 50
0
 51
90
  0
LINE
  8
_0-6_
  6
CONTINUOUS
 62
    5
 10
2151.0905606180667
 20
1077.0352319999997
 11
2151.0905606180667
 21
1075.2071069999997
  0
LINE
  8
_0-6_
  6
CONTINUOUS
 62
    5
 10
2152.3705496180664
 20
1073.2071069999997
 11
2152.3705496180664
 21
1057.2071069999997
  0
LINE
  8
_0-6_
  6
CENTER2
 62
    4
 10
2107.8843106180665
 20
1217
 11
2107.8843106180665
 21
1061.5999999999999
  0
LINE
  8
_0-6_
  6
CONTINUOUS
 62
    5
 10
2202.0343106180666
 20
1054.2071069999999
 11
2217.8843106180665
 21
1054.2071069999999
  0
LINE
  8
_0-6_
  6
CONTINUOUS
 62
    5
 10
2217.8843106180665
 20
1049.2071069999999
 11
2231.8843106180661
 21
1049.2071069999999
  0
LINE
  8
_0-6_
  6
CONTINUOUS
 62
    5
 10
2203.8843106180665
 20
1044.2071069999999
 11
2217.8843106180665
 21
1044.2071069999999
  0
LINE
  8
_0-6_
  6
CONTINUOUS
 62
    5
 10
2231.8843106180661
 20
1044.2071069999999
 11
2235.3843106180665
 21
1046.7071069999999
  0
LINE
  8
_0-6_
  6
CONTINUOUS
 62
    5
 10
2235.3843106180665
 20
1046.7071069999999
 11
2231.8843106180661
 21
1049.2071069999999
  0
LINE
  8
_0-6_
  6
CONTINUOUS
 62
    5
 10
2231.8843106180661
 20
1049.2071069999999
 11
2235.3843106180665
 21
1051.7071069999999
  0
LINE
  8
_0-6_
  6
CONTINUOUS
 62
    5
 10
2235.3843106180665
 20
1051.7071069999999
 11
2233.734310618066
 21
1054.2071069999999
  0
LINE
  8
_0-6_
  6
CONTINUOUS
 62
    5
 10
2203.8843106180665
 20
1044.2071069999999
 11
2200.3843106180665
 21
1046.7071069999999
  0
LINE
  8
_0-6_
  6
CONTINUOUS
 62
    5
 10
2200.3843106180665
 20
1046.7071069999999
 11
2203.8843106180665
 21
1049.2071069999999
  0
LINE
  8
_0-6_
  6
CONTINUOUS
 62
    5
 10
2203.8843106180665
 20
1049.2071069999999
 11
2200.3843106180665
 21
1051.7071069999999
  0
LINE
  8
_0-6_
  6
CONTINUOUS
 62
    5
 10
2200.3843106180665
 20
1051.7071069999999
 11
2202.0343106180666
 21
1054.2071069999999
  0
LINE
  8
_0-6_
  6
CONTINUOUS
 62
    5
 10
2233.734310618066
 20
1054.2071069999999
 11
2233.734310618066
 21
1077.0352319999997
  0
LINE
  8
_0-6_
  6
CONTINUOUS
 62
    5
 10
2202.0343106180666
 20
1077.0352319999997
 11
2202.0343106180666
 21
1054.2071069999999
  0
ARC
  8
_0-6_
  6
CONTINUOUS
 62
    5
 10
2176.5624356180665
 20
1076.1211694999997
 40
25.488270366376838
 50
2.0551867598927233
 51
182.05518675989273
  0
LINE
  8
_0-6_
  6
CONTINUOUS
 62
    5
 10
2126.3843106180665
 20
1075.2071069999997
 11
2156.6405606180665
 21
1075.2071069999997
  0
ARC
  8
_0-6_
  6
CONTINUOUS
 62
    5
 10
2176.5624356180665
 20
1076.1211694999997
 40
57.188270366376841
 50
0.9159654426195802
 51
142.3482252502855
  0
LINE
  8
_0-6_
  6
CONTINUOUS
 62
    5
 10
2092.0343106180666
 20
1067.5571069999998
 11
2092.0343106180666
 21
1029.8003609999998
  0
LINE
  8
_0-6_
  6
CONTINUOUS
 62
    5
 10
2123.7343106180665
 20
1067.5571069999998
 11
2123.7343106180665
 21
1027.2071069999997
  0
LINE
  8
_0-6_
  6
CONTINUOUS
 62
    5
 10
2123.7343106180665
 20
1032.2071069999997
 11
2139.0624356180665
 21
1032.2071069999997
  0
LINE
  8
_0-6_
  6
CONTINUOUS
 62
    5
 10
2104.0624356180665
 20
1002.2324289999994
 11
2104.0624356180665
 21
997.70710699999983
  0
LINE
  8
_0-6_
  6
CONTINUOUS
 62
    5
 10
2139.0624356180665
 20
1032.2071069999997
 11
2139.0624356180665
 21
997.70710699999983
  0
LINE
  8
_0-6_
  6
CONTINUOUS
 62
    5
 10
2098.5624356180665
 20
997.70710699999983
 11
2144.5624356180665
 21
997.70710699999983
  0
LINE
  8
_0-6_
  6
CONTINUOUS
 62
    5
 10
2100.0624356180665
 20
981.20710699999995
 11
2143.0624356180665
 21
981.20710699999995
  0
LINE
  8
_0-6_
  6
CONTINUOUS
 62
    5
 10
2144.5624356180665
 20
982.70710699999983
 11
2144.5624356180665
 21
997.70710699999983
  0
LINE
  8
_0-6_
  6
CONTINUOUS
 62
    5
 10
2098.5624356180665
 20
982.70710699999983
 11
2098.5624356180665
 21
997.70710699999983
  0
ARC
  8
_0-6_
  6
CONTINUOUS
 62
    5
 10
2100.0624356180665
 20
982.70710699999983
 40
1.5000000000000002
 50
180
 51
270
  0
ARC
  8
_0-6_
  6
CONTINUOUS
 62
    5
 10
2143.0624356180665
 20
982.70710699999983
 40
1.5000000000000002
 50
270
 51
0
  0
ARC
  8
_0-6_
  6
CONTINUOUS
 62
    5
 10
2132.0343106180666
 20
1029.8003609999998
 40
40
 50
180
 51
216.14378899999999
  0
ARC
  8
_0-6_
  6
CONTINUOUS
 62
    5
 10
2111.8458266180664
 20
1015.0550189999999
 40
15
 50
216.14378899999999
 51
310.37397499999997
  0
LINE
  8
_0-6_
  6
CONTINUOUS
 62
    5
 10
2100.7087766180666
 20
981.20710699999995
 11
2100.7087766180666
 21
997.70710699999983
  0
LINE
  8
_0-6_
  6
CONTINUOUS
 62
    5
 10
2142.4160946180663
 20
981.20710699999995
 11
2142.4160946180663
 21
997.70710699999983
  0
LINE
  8
_0-6_
  6
CONTINUOUS
 62
    5
 10
2113.2788966180664
 20
982.70710699999983
 11
2113.2788966180664
 21
997.70710699999983
  0
LINE
  8
_0-6_
  6
CONTINUOUS
 62
    5
 10
2129.8459746180665
 20
982.70710699999983
 11
2129.8459746180665
 21
997.70710699999983
  0
LINE
  8
_0-6_
  6
CONTINUOUS
 62
    5
 10
2108.8124356180665
 20
997.70710699999983
 11
2108.8124356180665
 21
982.70710699999983
  0
LINE
  8
_0-6_
  6
CONTINUOUS
 62
    5
 10
2134.3124356180665
 20
997.70710699999983
 11
2134.3124356180665
 21
982.70710699999983
  0
ARC
  8
_0-6_
  6
CONTINUOUS
 62
    5
 10
2110.3124356180665
 20
982.70710699999983
 40
1.5000000000000002
 50
180
 51
270
  0
ARC
  8
_0-6_
  6
CONTINUOUS
 62
    5
 10
2111.7788966180664
 20
982.70710699999983
 40
1.5000000000000002
 50
270
 51
0
  0
ARC
  8
_0-6_
  6
CONTINUOUS
 62
    5
 10
2131.3459746180665
 20
982.70710699999983
 40
1.5000000000000002
 50
180
 51
270
  0
ARC
  8
_0-6_
  6
CONTINUOUS
 62
    5
 10
2132.8124356180665
 20
982.70710699999983
 40
1.5000000000000002
 50
270
 51
0
  0
LINE
  8
_0-6_
  6
CONTINUOUS
 62
    5
 10
2153.7405606180664
 20
1057.2071069999997
 11
2153.7405606180664
 21
1027.2071069999997
  0
LINE
  8
_0-6_
  6
CONTINUOUS
 62
    5
 10
2139.6405606180665
 20
1027.2071069999997
 11
2153.7405606180664
 21
1027.2071069999997
  0
ARC
  8
_0-6_
  6
CONTINUOUS
 62
    5
 10
2109.4802216180664
 20
1028.1309359999997
 40
40
 50
317.693553
 51
358.67659400000002
  0
LINE
  8
_0-6_
  6
CONTINUOUS
 62
    5
 10
2217.8843106180665
 20
999.20710699999983
 11
2231.8843106180661
 21
999.20710699999983
  0
LINE
  8
_0-6_
  6
CONTINUOUS
 62
    5
 10
2203.8843106180665
 20
994.20710699999983
 11
2217.8843106180665
 21
994.20710699999983
  0
LINE
  8
_0-6_
  6
CONTINUOUS
 62
    5
 10
2217.8843106180665
 20
989.20710699999983
 11
2231.8843106180661
 21
989.20710699999983
  0
LINE
  8
_0-6_
  6
CONTINUOUS
 62
    5
 10
2231.8843106180661
 20
989.20710699999983
 11
2235.3843106180665
 21
991.70710699999983
  0
LINE
  8
_0-6_
  6
CONTINUOUS
 62
    5
 10
2235.3843106180665
 20
991.70710699999983
 11
2231.8843106180661
 21
994.20710699999983
  0
LINE
  8
_0-6_
  6
CONTINUOUS
 62
    5
 10
2231.8843106180661
 20
994.20710699999983
 11
2235.3843106180665
 21
996.70710699999983
  0
LINE
  8
_0-6_
  6
CONTINUOUS
 62
    5
 10
2235.3843106180665
 20
996.70710699999983
 11
2231.8843106180661
 21
999.20710699999983
  0
LINE
  8
_0-6_
  6
CONTINUOUS
 62
    5
 10
2203.8843106180665
 20
989.20710699999983
 11
2200.3843106180665
 21
991.70710699999983
  0
LINE
  8
_0-6_
  6
CONTINUOUS
 62
    5
 10
2200.3843106180665
 20
991.70710699999983
 11
2203.8843106180665
 21
994.20710699999983
  0
LINE
  8
_0-6_
  6
CONTINUOUS
 62
    5
 10
2200.3843106180665
 20
986.70710699999983
 11
2203.8843106180665
 21
989.20710699999983
  0
LINE
  8
_0-6_
  6
CONTINUOUS
 62
    5
 10
2203.8843106180665
 20
984.20710699999983
 11
2200.3843106180665
 21
986.70710699999983
  0
LINE
  8
_0-6_
  6
CONTINUOUS
 62
    5
 10
2217.8843106180665
 20
1009.2071069999998
 11
2231.8843106180661
 21
1009.2071069999998
  0
LINE
  8
_0-6_
  6
CONTINUOUS
 62
    5
 10
2203.8843106180665
 20
1004.2071069999998
 11
2217.8843106180665
 21
1004.2071069999998
  0
LINE
  8
_0-6_
  6
CONTINUOUS
 62
    5
 10
2217.8843106180665
 20
999.20710699999983
 11
2231.8843106180661
 21
999.20710699999983
  0
LINE
  8
_0-6_
  6
CONTINUOUS
 62
    5
 10
2231.8843106180661
 20
999.20710699999983
 11
2235.3843106180665
 21
1001.7071069999998
  0
LINE
  8
_0-6_
  6
CONTINUOUS
 62
    5
 10
2235.3843106180665
 20
1001.7071069999998
 11
2231.8843106180661
 21
1004.2071069999998
  0
LINE
  8
_0-6_
  6
CONTINUOUS
 62
    5
 10
2231.8843106180661
 20
1004.2071069999998
 11
2235.3843106180665
 21
1006.7071069999998
  0
LINE
  8
_0-6_
  6
CONTINUOUS
 62
    5
 10
2235.3843106180665
 20
1006.7071069999998
 11
2231.8843106180661
 21
1009.2071069999998
  0
LINE
  8
_0-6_
  6
CONTINUOUS
 62
    5
 10
2203.8843106180665
 20
999.20710699999983
 11
2200.3843106180665
 21
1001.7071069999998
  0
LINE
  8
_0-6_
  6
CONTINUOUS
 62
    5
 10
2200.3843106180665
 20
1001.7071069999998
 11
2203.8843106180665
 21
1004.2071069999998
  0
LINE
  8
_0-6_
  6
CONTINUOUS
 62
    5
 10
2200.3843106180665
 20
996.70710699999983
 11
2203.8843106180665
 21
999.20710699999983
  0
LINE
  8
_0-6_
  6
CONTINUOUS
 62
    5
 10
2203.8843106180665
 20
994.20710699999983
 11
2200.3843106180665
 21
996.70710699999983
  0
LINE
  8
_0-6_
  6
CONTINUOUS
 62
    5
 10
2217.8843106180665
 20
1019.2071069999998
 11
2231.8843106180661
 21
1019.2071069999998
  0
LINE
  8
_0-6_
  6
CONTINUOUS
 62
    5
 10
2203.8843106180665
 20
1014.2071069999998
 11
2217.8843106180665
 21
1014.2071069999998
  0
LINE
  8
_0-6_
  6
CONTINUOUS
 62
    5
 10
2217.8843106180665
 20
1009.2071069999998
 11
2231.8843106180661
 21
1009.2071069999998
  0
LINE
  8
_0-6_
  6
CONTINUOUS
 62
    5
 10
2231.8843106180661
 20
1009.2071069999998
 11
2235.3843106180665
 21
1011.7071069999998
  0
LINE
  8
_0-6_
  6
CONTINUOUS
 62
    5
 10
2235.3843106180665
 20
1011.7071069999998
 11
2231.8843106180661
 21
1014.2071069999998
  0
LINE
  8
_0-6_
  6
CONTINUOUS
 62
    5
 10
2231.8843106180661
 20
1014.2071069999998
 11
2235.3843106180665
 21
1016.7071069999998
  0
LINE
  8
_0-6_
  6
CONTINUOUS
 62
    5
 10
2235.3843106180665
 20
1016.7071069999998
 11
2231.8843106180661
 21
1019.2071069999998
  0
LINE
  8
_0-6_
  6
CONTINUOUS
 62
    5
 10
2203.8843106180665
 20
1009.2071069999998
 11
2200.3843106180665
 21
1011.7071069999998
  0
LINE
  8
_0-6_
  6
CONTINUOUS
 62
    5
 10
2200.3843106180665
 20
1011.7071069999998
 11
2203.8843106180665
 21
1014.2071069999998
  0
LINE
  8
_0-6_
  6
CONTINUOUS
 62
    5
 10
2200.3843106180665
 20
1006.7071069999998
 11
2203.8843106180665
 21
1009.2071069999998
  0
LINE
  8
_0-6_
  6
CONTINUOUS
 62
    5
 10
2203.8843106180665
 20
1004.2071069999998
 11
2200.3843106180665
 21
1006.7071069999998
  0
LINE
  8
_0-6_
  6
CONTINUOUS
 62
    5
 10
2217.8843106180665
 20
1029.2071069999999
 11
2231.8843106180661
 21
1029.2071069999999
  0
LINE
  8
_0-6_
  6
CONTINUOUS
 62
    5
 10
2203.8843106180665
 20
1024.2071069999999
 11
2217.8843106180665
 21
1024.2071069999999
  0
LINE
  8
_0-6_
  6
CONTINUOUS
 62
    5
 10
2231.8843106180661
 20
1019.2071069999998
 11
2235.3843106180665
 21
1021.7071069999998
  0
LINE
  8
_0-6_
  6
CONTINUOUS
 62
    5
 10
2235.3843106180665
 20
1021.7071069999998
 11
2231.8843106180661
 21
1024.2071069999999
  0
LINE
  8
_0-6_
  6
CONTINUOUS
 62
    5
 10
2231.8843106180661
 20
1024.2071069999999
 11
2235.3843106180665
 21
1026.7071069999999
  0
LINE
  8
_0-6_
  6
CONTINUOUS
 62
    5
 10
2235.3843106180665
 20
1026.7071069999999
 11
2231.8843106180661
 21
1029.2071069999999
  0
LINE
  8
_0-6_
  6
CONTINUOUS
 62
    5
 10
2203.8843106180665
 20
1019.2071069999998
 11
2200.3843106180665
 21
1021.7071069999998
  0
LINE
  8
_0-6_
  6
CONTINUOUS
 62
    5
 10
2200.3843106180665
 20
1021.7071069999998
 11
2203.8843106180665
 21
1024.2071069999999
  0
LINE
  8
_0-6_
  6
CONTINUOUS
 62
    5
 10
2200.3843106180665
 20
1016.7071069999998
 11
2203.8843106180665
 21
1019.2071069999998
  0
LINE
  8
_0-6_
  6
CONTINUOUS
 62
    5
 10
2203.8843106180665
 20
1014.2071069999998
 11
2200.3843106180665
 21
1016.7071069999998
  0
LINE
  8
_0-6_
  6
CONTINUOUS
 62
    5
 10
2217.8843106180665
 20
1039.2071069999999
 11
2231.8843106180661
 21
1039.2071069999999
  0
LINE
  8
_0-6_
  6
CONTINUOUS
 62
    5
 10
2203.8843106180665
 20
1034.2071069999999
 11
2217.8843106180665
 21
1034.2071069999999
  0
LINE
  8
_0-6_
  6
CONTINUOUS
 62
    5
 10
2217.8843106180665
 20
1029.2071069999999
 11
2231.8843106180661
 21
1029.2071069999999
  0
LINE
  8
_0-6_
  6
CONTINUOUS
 62
    5
 10
2231.8843106180661
 20
1029.2071069999999
 11
2235.3843106180665
 21
1031.7071069999999
  0
LINE
  8
_0-6_
  6
CONTINUOUS
 62
    5
 10
2235.3843106180665
 20
1031.7071069999999
 11
2231.8843106180661
 21
1034.2071069999999
  0
LINE
  8
_0-6_
  6
CONTINUOUS
 62
    5
 10
2231.8843106180661
 20
1034.2071069999999
 11
2235.3843106180665
 21
1036.7071069999999
  0
LINE
  8
_0-6_
  6
CONTINUOUS
 62
    5
 10
2235.3843106180665
 20
1036.7071069999999
 11
2231.8843106180661
 21
1039.2071069999999
  0
LINE
  8
_0-6_
  6
CONTINUOUS
 62
    5
 10
2203.8843106180665
 20
1029.2071069999999
 11
2200.3843106180665
 21
1031.7071069999999
  0
LINE
  8
_0-6_
  6
CONTINUOUS
 62
    5
 10
2200.3843106180665
 20
1031.7071069999999
 11
2203.8843106180665
 21
1034.2071069999999
  0
LINE
  8
_0-6_
  6
CONTINUOUS
 62
    5
 10
2200.3843106180665
 20
1026.7071069999999
 11
2203.8843106180665
 21
1029.2071069999999
  0
LINE
  8
_0-6_
  6
CONTINUOUS
 62
    5
 10
2203.8843106180665
 20
1024.2071069999999
 11
2200.3843106180665
 21
1026.7071069999999
  0
LINE
  8
_0-6_
  6
CONTINUOUS
 62
    5
 10
2217.8843106180665
 20
1049.2071069999999
 11
2231.8843106180661
 21
1049.2071069999999
  0
LINE
  8
_0-6_
  6
CONTINUOUS
 62
    5
 10
2203.8843106180665
 20
1044.2071069999999
 11
2217.8843106180665
 21
1044.2071069999999
  0
LINE
  8
_0-6_
  6
CONTINUOUS
 62
    5
 10
2217.8843106180665
 20
1039.2071069999999
 11
2231.8843106180661
 21
1039.2071069999999
  0
LINE
  8
_0-6_
  6
CONTINUOUS
 62
    5
 10
2231.8843106180661
 20
1039.2071069999999
 11
2235.3843106180665
 21
1041.7071069999999
  0
LINE
  8
_0-6_
  6
CONTINUOUS
 62
    5
 10
2235.3843106180665
 20
1041.7071069999999
 11
2231.8843106180661
 21
1044.2071069999999
  0
LINE
  8
_0-6_
  6
CONTINUOUS
 62
    5
 10
2231.8843106180661
 20
1044.2071069999999
 11
2235.3843106180665
 21
1046.7071069999999
  0
LINE
  8
_0-6_
  6
CONTINUOUS
 62
    5
 10
2235.3843106180665
 20
1046.7071069999999
 11
2231.8843106180661
 21
1049.2071069999999
  0
LINE
  8
_0-6_
  6
CONTINUOUS
 62
    5
 10
2203.8843106180665
 20
1039.2071069999999
 11
2200.3843106180665
 21
1041.7071069999999
  0
LINE
  8
_0-6_
  6
CONTINUOUS
 62
    5
 10
2200.3843106180665
 20
1041.7071069999999
 11
2203.8843106180665
 21
1044.2071069999999
  0
LINE
  8
_0-6_
  6
CONTINUOUS
 62
    5
 10
2200.3843106180665
 20
1036.7071069999999
 11
2203.8843106180665
 21
1039.2071069999999
  0
LINE
  8
_0-6_
  6
CONTINUOUS
 62
    5
 10
2203.8843106180665
 20
1034.2071069999999
 11
2200.3843106180665
 21
1036.7071069999999
  0
LINE
  8
_0-2_天板
  6
CONTINUOUS
 62
    4
 10
427.76252603542218
 20
1455
 11
1001.762526035422
 21
1455
  0
LINE
  8
_0-2_天板
  6
CONTINUOUS
 62
    4
 10
1001.2949260354221
 20
1438
 11
961.76252603542206
 21
1438
  0
LINE
  8
_0-2_天板
  6
CONTINUOUS
 62
    4
 10
1006.922926035422
 20
1268.8351999999999
 11
1011.7585260354221
 21
1444.7252
  0
LINE
  8
_0-2_天板
  6
CONTINUOUS
 62
    4
 10
1000.9249260354222
 20
1263
 11
714.76252603542206
 21
1263
  0
ARC
  8
_0-2_天板
  6
CONTINUOUS
 62
    4
 10
1001.762526035422
 20
1445
 40
10
 50
358.87599999999997
 51
90.000000000000014
  0
ARC
  8
_0-2_天板
  6
CONTINUOUS
 62
    4
 10
714.76252603542206
 20
4205.6364000000003
 40
2778.6363999999998
 50
270
 51
275.10000000000002
  0
ARC
  8
_0-2_天板
  6
CONTINUOUS
 62
    4
 10
714.76252603542206
 20
2318.8168
 40
1031.8168
 50
269.99999999999988
 51
273.68999999999988
  0
ARC
  8
_0-2_天板
  6
CONTINUOUS
 62
    4
 10
768.301726035422
 20
1488.7247999999999
 40
200
 50
273.68999999999994
 51
345.30800000000016
  0
ARC
  8
_0-2_天板
  6
CONTINUOUS
 62
    4
 10
1000.9249260354222
 20
1269
 40
6.0000000000000008
 50
269.99999999999994
 51
358.42499999999995
  0
ARC
  8
_0-2_天板
  6
CONTINUOUS
 62
    4
 10
1001.2949260354221
 20
1428
 40
10
 50
358.42499999999995
 51
90.000000000000014
  0
LINE
  8
_0-2_天板
  6
CONTINUOUS
 62
    4
 10
428.23012603542196
 20
1438
 11
467.76252603542218
 21
1438
  0
LINE
  8
_0-2_天板
  6
CONTINUOUS
 62
    4
 10
422.60212603542214
 20
1268.8351999999999
 11
417.76652603542203
 21
1444.7252
  0
LINE
  8
_0-2_天板
  6
CONTINUOUS
 62
    4
 10
428.60012603542202
 20
1263
 11
714.76252603542206
 21
1263
  0
ARC
  8
_0-2_天板
  6
CONTINUOUS
 62
    4
 10
427.76252603542218
 20
1445
 40
10
 50
90.000000000000028
 51
181.12400000000008
  0
ARC
  8
_0-2_天板
  6
CONTINUOUS
 62
    4
 10
714.76252603542206
 20
4205.6364000000003
 40
2778.6363999999998
 50
264.89999999999997
 51
270.00000000000005
  0
ARC
  8
_0-2_天板
  6
CONTINUOUS
 62
    4
 10
714.76252603542206
 20
2318.8168
 40
1031.8168
 50
266.31000000000005
 51
269.99999999999988
  0
ARC
  8
_0-2_天板
  6
CONTINUOUS
 62
    4
 10
661.22332603542213
 20
1488.7247999999999
 40
200
 50
194.69200000000003
 51
266.31
  0
ARC
  8
_0-2_天板
  6
CONTINUOUS
 62
    4
 10
428.60012603542202
 20
1269
 40
6.0000000000000008
 50
181.57500000000001
 51
270.00000000000005
  0
ARC
  8
_0-2_天板
  6
CONTINUOUS
 62
    4
 10
428.23012603542196
 20
1428
 40
10
 50
90.000000000000028
 51
181.57500000000001
  0
LINE
  8
_0-2_天板
  6
CONTINUOUS
 62
    4
 10
504.06332603542182
 20
1435
 11
925.46179608635952
 21
1435
  0
LINE
  8
_0-2_天板
  6
DASHED2
 62
    4
 10
714.76252603542206
 20
1401.2352
 11
732.26252603542206
 21
1401.2352
  0
LINE
  8
_0-2_天板
  6
DASHED2
 62
    4
 10
714.76252603542206
 20
1386.2352
 11
732.26252603542206
 21
1386.2352
  0
LINE
  8
_0-2_天板
  6
DASHED2
 62
    4
 10
697.26252603542206
 20
1401.2352
 11
714.76252603542206
 21
1401.2352
  0
LINE
  8
_0-2_天板
  6
DASHED2
 62
    4
 10
697.26252603542206
 20
1386.2352
 11
714.76252603542206
 21
1386.2352
  0
ARC
  8
_0-2_天板
  6
DASHED2
 62
    4
 10
732.26252603542206
 20
1393.7352
 40
7.5
 50
270.00000000000005
 51
90.000000000000099
  0
ARC
  8
_0-2_天板
  6
DASHED2
 62
    4
 10
697.26252603542206
 20
1393.7352
 40
7.5
 50
90.000000000000028
 51
270.00000000000011
  0
LINE
  8
_0-2_天板
  6
CONTINUOUS
 62
  250
 10
1912.8843106180665
 20
1284
 11
1912.8843106180665
 21
1269
  0
LINE
  8
_0-2_天板
  6
CONTINUOUS
 62
    4
 10
2337.8843106180665
 20
1455
 11
2319.9111106180666
 21
1455
  0
LINE
  8
_0-2_天板
  6
CONTINUOUS
 62
    4
 10
2063.1391106180667
 20
1223.7883999999999
 11
2066.8343106180664
 21
1194.3768
  0
LINE
  8
_0-2_天板
  6
CONTINUOUS
 62
    4
 10
2337.8843106180665
 20
1455
 11
2337.8843106180665
 21
1260
  0
LINE
  8
_0-2_天板
  6
CONTINUOUS
 62
    4
 10
2319.5767106180664
 20
1454.9936
 11
1862.3987106180663
 21
1437.9931999999998
  0
LINE
  8
_0-2_天板
  6
CONTINUOUS
 62
    4
 10
2327.8843106180665
 20
1250
 11
2097.2239106180668
 21
1250
  0
LINE
  8
_0-2_天板
  6
DASHED1
 62
    4
 10
2321.9339106180668
 20
1375
 11
1922.8843106180665
 21
1375
  0
LINE
  8
_0-2_天板
  6
DASHED1
 62
    4
 10
2335.2479106180667
 20
1414.2723999999998
 11
2331.8727106180667
 21
1383.8955999999998
  0
LINE
  8
_0-2_天板
  6
DASHED1
 62
    4
 10
1912.8863106180665
 20
1375.1412
 11
1910.3571106180663
 21
1285.6479999999999
  0
LINE
  8
_0-2_天板
  6
CONTINUOUS
 62
    4
 10
1910.3571106180663
 20
1285.6479999999999
 11
1909.8819106180665
 21
1268.8303999999998
  0
LINE
  8
_0-2_天板
  6
CONTINUOUS
 62
    4
 10
1852.9591106180664
 20
1426.0655999999999
 11
1884.1535106180663
 21
1267.8396
  0
LINE
  8
_0-2_天板
  6
CONTINUOUS
 62
    4
 10
2331.0355106180663
 20
1369
 11
1921.8843106180665
 21
1369
  0
LINE
  8
_0-2_天板
  6
CONTINUOUS
 62
    4
 10
1919.5771106180666
 20
1294.3907999999998
 11
1943.5443106180664
 21
1294.3907999999998
  0
LINE
  8
_0-2_天板
  6
CONTINUOUS
 62
    4
 10
1952.3439106180667
 20
1293.0711999999998
 11
2088.4243106180665
 21
1251.3195999999998
  0
LINE
  8
_0-2_天板
  6
CONTINUOUS
 62
    4
 10
1903.8843106180665
 20
1263
 11
1890.0399106180666
 21
1263
  0
ARC
  8
_0-2_天板
  6
CONTINUOUS
 62
    4
 10
2152.5907106180666
 20
1191.096
 40
5
 50
108.70300000000003
 51
157.02100000000001
  0
ARC
  8
_0-2_天板
  6
CONTINUOUS
 62
    4
 10
2053.2171106180662
 20
1222.5419999999999
 40
10
 50
7.1610000000000022
 51
69.394000000000005
  0
ARC
  8
_0-2_天板
  6
CONTINUOUS
 62
    4
 10
1982.1815106180665
 20
1463.2011999999999
 40
200
 50
194.073
 51
234.76200000000005
  0
ARC
  8
_0-2_天板
  6
CONTINUOUS
 62
    4
 10
2327.8843106180665
 20
1260
 40
10
 50
270.00000000000005
 51
0.0000000000000508
  0
ARC
  8
_0-2_天板
  6
CONTINUOUS
 62
    4
 10
1795.6607106180667
 20
1626.9883999999999
 40
200
 50
270.60700000000008
 51
288.63700000000005
  0
ARC
  8
_0-2_天板
  6
CONTINUOUS
 62
    4
 10
1797.8843106180665
 20
1417
 40
10
 50
90.607000000000013
 51
194.07300000000003
  0
ARC
  8
_0-2_天板
  6
CONTINUOUS
 62
    4
 10
2125.3347106180667
 20
1271.6076
 40
80
 50
288.70300000000008
 51
344.33000000000009
  0
ARC
  8
_0-2_天板
  6
CONTINUOUS
 62
    4
 10
2097.2239106180668
 20
1280
 40
30
 50
253.537
 51
270
  0
ARC
  8
_0-2_天板
  6
CONTINUOUS
 62
    4
 10
1862.7703106180665
 20
1427.9999999999997
 40
10
 50
90.000000000000028
 51
108.63699999999998
  0
ARC
  8
_0-2_天板
  6
CONTINUOUS
 62
    4
 10
1862.7703106180665
 20
1427.9999999999997
 40
10
 50
108.63699999999998
 51
192.20600000000001
  0
ARC
  8
_0-2_天板
  6
CONTINUOUS
 62
    4
 10
2331.8843106180665
 20
1374.9395999999999
 40
6.0000000000000008
 50
261.87000000000006
 51
0.0000000000000508
  0
ARC
  8
_0-2_天板
  6
DASHED1
 62
    4
 10
1917.8843106180665
 20
1375
 40
5
 50
0
 51
180.00000000000005
  0
ARC
  8
_0-2_天板
  6
DASHED1
 62
    4
 10
2321.9339106180668
 20
1385
 40
10
 50
270.00000000000005
 51
353.66000000000008
  0
ARC
  8
_0-2_天板
  6
DASHED1
 62
    4
 10
2345.1867106180666
 20
1413.1680000000001
 40
10
 50
136.90700000000006
 51
173.66000000000002
  0
ARC
  8
_0-2_天板
  6
DASHED1
 62
    4
 10
1917.8843106180665
 20
1375
 40
5
 50
0
 51
178.07500000000001
  0
ARC
  8
_0-2_天板
  6
CONTINUOUS
 62
    4
 10
1919.3535106180665
 20
1285.3935999999998
 40
9
 50
61.076000000000014
 51
178.38100000000002
  0
ARC
  8
_0-2_天板
  6
CONTINUOUS
 62
    4
 10
1903.8843106180665
 20
1269
 40
6.0000000000000008
 50
270.00000000000005
 51
0.0000000000000508
  0
ARC
  8
_0-2_天板
  6
CONTINUOUS
 62
    4
 10
1890.0399106180666
 20
1269
 40
6.0000000000000008
 50
187.75400000000004
 51
270.00000000000005
  0
ARC
  8
_0-2_天板
  6
CONTINUOUS
 62
    4
 10
1834.5519106180665
 20
1261.4447999999997
 40
50
 50
7.7540000000000004
 51
53.806000000000018
  0
ARC
  8
_0-2_天板
  6
CONTINUOUS
 62
    4
 10
1921.8843106180665
 20
1360
 40
9
 50
90.000000000000028
 51
173.78600000000002
  0
ARC
  8
_0-2_天板
  6
CONTINUOUS
 62
    4
 10
1943.5443106180664
 20
1264.3907999999998
 40
30
 50
73.53700000000002
 51
90.000000000000056
  0
ARC
  8
_0-2_天板
  6
CONTINUOUS
 62
    4
 10
2412.1879106180667
 20
2177.2879999999995
 40
1010
 50
241.07600000000002
 51
249.39400000000003
  0
ARC
  8
_0-2_天板
  6
CONTINUOUS
 62
    4
 10
2143.3843106180665
 20
1195
 40
5
 50
270.00000000000005
 51
337.02100000000007
  0
LINE
  8
_0-2_天板
  6
CONTINUOUS
 62
    4
 10
2071.7955106180666
 20
1190
 11
2143.3843106180665
 21
1190
  0
ARC
  8
_0-2_天板
  6
CONTINUOUS
 62
    4
 10
2071.7955106180666
 20
1195
 40
5
 50
187.16100000000008
 51
270.00000000000005
  0
LINE
  8
_0-6_
  6
CONTINUOUS
 62
    5
 10
2217.8843106180665
 20
1039.2071069999999
 11
2231.8843106180661
 21
1039.2071069999999
  0
LINE
  8
_0-6_
  6
CONTINUOUS
 62
    5
 10
2232.4453420002087
 20
1023.8063702984695
 11
2231.8843106180661
 21
1024.2071069999999
  0
LINE
  8
_0-6_
  6
CONTINUOUS
 62
    5
 10
2231.8843106180661
 20
949.20710699999983
 11
2235.3843106180665
 21
951.70710699999972
  0
LINE
  8
_0-6_
  6
CONTINUOUS
 62
    5
 10
2235.3843106180665
 20
951.70710699999972
 11
2231.8843106180661
 21
954.20710699999972
  0
LINE
  8
_0-6_
  6
CONTINUOUS
 62
    5
 10
2231.8843106180661
 20
954.20710699999972
 11
2235.3843106180665
 21
956.70710699999972
  0
LINE
  8
_0-6_
  6
CONTINUOUS
 62
    5
 10
2235.3843106180665
 20
956.70710699999972
 11
2231.8843106180661
 21
959.20710699999972
  0
LINE
  8
_0-6_
  6
CONTINUOUS
 62
    5
 10
2231.8843106180661
 20
959.20710699999972
 11
2235.3843106180665
 21
961.70710699999972
  0
LINE
  8
_0-6_
  6
CONTINUOUS
 62
    5
 10
2235.3843106180665
 20
961.70710699999972
 11
2231.8843106180661
 21
964.20710699999972
  0
LINE
  8
_0-6_
  6
CONTINUOUS
 62
    5
 10
2231.8843106180661
 20
964.20710699999972
 11
2235.3843106180665
 21
966.70710699999972
  0
LINE
  8
_0-6_
  6
CONTINUOUS
 62
    5
 10
2235.3843106180665
 20
966.70710699999972
 11
2231.8843106180661
 21
969.20710699999972
  0
LINE
  8
_0-6_
  6
CONTINUOUS
 62
    5
 10
2231.8843106180661
 20
969.20710699999972
 11
2235.3843106180665
 21
971.70710699999972
  0
LINE
  8
_0-6_
  6
CONTINUOUS
 62
    5
 10
2235.3843106180665
 20
971.70710699999972
 11
2231.8843106180661
 21
974.20710699999972
  0
LINE
  8
_0-6_
  6
CONTINUOUS
 62
    5
 10
2231.8843106180661
 20
974.20710699999972
 11
2234.0800994993055
 21
975.77552762945629
  0
LINE
  8
_0-6_
  6
CONTINUOUS
 62
    5
 10
2217.8843106180665
 20
969.20710699999983
 11
2231.8843106180665
 21
969.20710699999983
  0
LINE
  8
_0-6_
  6
CONTINUOUS
 62
    5
 10
2217.8843106180665
 20
949.20710699999983
 11
2231.8843106180661
 21
949.20710699999983
  0
LINE
  8
_0-6_
  6
CONTINUOUS
 62
    5
 10
2231.8843106180661
 20
944.20710699999983
 11
2235.3843106180665
 21
946.70710699999972
  0
LINE
  8
_0-6_
  6
CONTINUOUS
 62
    5
 10
2235.3843106180665
 20
946.70710699999972
 11
2231.8843106180661
 21
949.20710699999972
  0
LINE
  8
_0-6_
  6
CONTINUOUS
 62
    5
 10
2203.8843106180665
 20
684.20710699999972
 11
2200.3843106180665
 21
686.70710699999972
  0
LINE
  8
_0-6_
  6
CONTINUOUS
 62
    5
 10
2200.3843106180665
 20
686.70710699999972
 11
2203.8843106180665
 21
689.20710699999972
  0
LINE
  8
_0-6_
  6
CONTINUOUS
 62
    5
 10
2203.8843106180665
 20
689.20710699999972
 11
2200.3843106180665
 21
691.70710699999972
  0
LINE
  8
_0-6_
  6
CONTINUOUS
 62
    5
 10
2200.3843106180665
 20
691.70710699999972
 11
2203.8843106180665
 21
694.20710699999972
  0
LINE
  8
_0-6_
  6
CONTINUOUS
 62
    5
 10
2203.8843106180665
 20
694.20710699999972
 11
2217.8843106180665
 21
694.20710699999972
  0
LINE
  8
_0-6_
  6
CONTINUOUS
 62
    5
 10
2203.8843106180665
 20
674.20710699999972
 11
2200.3843106180665
 21
676.70710699999972
  0
LINE
  8
_0-6_
  6
CONTINUOUS
 62
    5
 10
2200.3843106180665
 20
676.70710699999972
 11
2203.8843106180665
 21
679.20710699999972
  0
LINE
  8
_0-6_
  6
CONTINUOUS
 62
    5
 10
2203.8843106180665
 20
679.20710699999972
 11
2200.3843106180665
 21
681.70710699999972
  0
LINE
  8
_0-6_
  6
CONTINUOUS
 62
    5
 10
2200.3843106180665
 20
681.70710699999972
 11
2203.8843106180665
 21
684.20710699999972
  0
LINE
  8
_0-6_
  6
CONTINUOUS
 62
    5
 10
2203.8843106180665
 20
684.20710699999972
 11
2217.8843106180665
 21
684.20710699999972
  0
LINE
  8
_0-6_
  6
CONTINUOUS
 62
    5
 10
2203.8843106180665
 20
664.20710699999972
 11
2200.3843106180665
 21
666.70710699999972
  0
LINE
  8
_0-6_
  6
CONTINUOUS
 62
    5
 10
2200.3843106180665
 20
666.70710699999972
 11
2203.8843106180665
 21
669.20710699999972
  0
LINE
  8
_0-6_
  6
CONTINUOUS
 62
    5
 10
2203.8843106180665
 20
669.20710699999972
 11
2200.3843106180665
 21
671.70710699999972
  0
LINE
  8
_0-6_
  6
CONTINUOUS
 62
    5
 10
2200.3843106180665
 20
671.70710699999972
 11
2203.8843106180665
 21
674.20710699999972
  0
LINE
  8
_0-6_
  6
CONTINUOUS
 62
    5
 10
2203.8843106180665
 20
674.20710699999972
 11
2217.8843106180665
 21
674.20710699999972
  0
LINE
  8
_0-6_
  6
CONTINUOUS
 62
    5
 10
2203.8843106180665
 20
654.20710699999972
 11
2200.3843106180665
 21
656.70710699999972
  0
LINE
  8
_0-6_
  6
CONTINUOUS
 62
    5
 10
2200.3843106180665
 20
656.70710699999972
 11
2203.8843106180665
 21
659.20710699999972
  0
LINE
  8
_0-6_
  6
CONTINUOUS
 62
    5
 10
2203.8843106180665
 20
659.20710699999972
 11
2200.3843106180665
 21
661.70710699999972
  0
LINE
  8
_0-6_
  6
CONTINUOUS
 62
    5
 10
2200.3843106180665
 20
661.70710699999972
 11
2203.8843106180665
 21
664.20710699999972
  0
LINE
  8
_0-6_
  6
CONTINUOUS
 62
    5
 10
2203.8843106180665
 20
664.20710699999972
 11
2217.8843106180665
 21
664.20710699999972
  0
LINE
  8
_0-6_
  6
CONTINUOUS
 62
    5
 10
2203.8843106180665
 20
644.20710699999972
 11
2200.3843106180665
 21
646.70710699999972
  0
LINE
  8
_0-6_
  6
CONTINUOUS
 62
    5
 10
2200.3843106180665
 20
646.70710699999972
 11
2203.8843106180665
 21
649.20710699999972
  0
LINE
  8
_0-6_
  6
CONTINUOUS
 62
    5
 10
2203.8843106180665
 20
649.20710699999972
 11
2200.3843106180665
 21
651.70710699999972
  0
LINE
  8
_0-6_
  6
CONTINUOUS
 62
    5
 10
2200.3843106180665
 20
651.70710699999972
 11
2203.8843106180665
 21
654.20710699999972
  0
LINE
  8
_0-6_
  6
CONTINUOUS
 62
    5
 10
2203.8843106180665
 20
654.20710699999972
 11
2217.8843106180665
 21
654.20710699999972
  0
LINE
  8
_0-6_
  6
CONTINUOUS
 62
    5
 10
2217.8843106180665
 20
689.20710699999972
 11
2231.8843106180661
 21
689.20710699999972
  0
LINE
  8
_0-6_
  6
CONTINUOUS
 62
    5
 10
2235.3843106180665
 20
681.70710699999972
 11
2231.8843106180661
 21
684.20710699999972
  0
LINE
  8
_0-6_
  6
CONTINUOUS
 62
    5
 10
2231.8843106180661
 20
684.20710699999972
 11
2235.3843106180665
 21
686.70710699999972
  0
LINE
  8
_0-6_
  6
CONTINUOUS
 62
    5
 10
2235.3843106180665
 20
686.70710699999972
 11
2231.8843106180661
 21
689.20710699999972
  0
LINE
  8
_0-6_
  6
CONTINUOUS
 62
    5
 10
2231.8843106180661
 20
689.20710699999972
 11
2235.3843106180665
 21
691.70710699999972
  0
LINE
  8
_0-6_
  6
CONTINUOUS
 62
    5
 10
2235.3843106180665
 20
691.70710699999972
 11
2231.8843106180661
 21
694.20710699999972
  0
LINE
  8
_0-6_
  6
CONTINUOUS
 62
    5
 10
2217.8843106180665
 20
679.20710699999972
 11
2231.8843106180661
 21
679.20710699999972
  0
LINE
  8
_0-6_
  6
CONTINUOUS
 62
    5
 10
2235.3843106180665
 20
671.70710699999972
 11
2231.8843106180661
 21
674.20710699999972
  0
LINE
  8
_0-6_
  6
CONTINUOUS
 62
    5
 10
2231.8843106180661
 20
674.20710699999972
 11
2235.3843106180665
 21
676.70710699999972
  0
LINE
  8
_0-6_
  6
CONTINUOUS
 62
    5
 10
2235.3843106180665
 20
676.70710699999972
 11
2231.8843106180661
 21
679.20710699999972
  0
LINE
  8
_0-6_
  6
CONTINUOUS
 62
    5
 10
2231.8843106180661
 20
679.20710699999972
 11
2235.3843106180665
 21
681.70710699999972
  0
LINE
  8
_0-6_
  6
CONTINUOUS
 62
    5
 10
2235.3843106180665
 20
681.70710699999972
 11
2231.8843106180661
 21
684.20710699999972
  0
LINE
  8
_0-6_
  6
CONTINUOUS
 62
    5
 10
2217.8843106180665
 20
669.20710699999972
 11
2231.8843106180661
 21
669.20710699999972
  0
LINE
  8
_0-6_
  6
CONTINUOUS
 62
    5
 10
2235.3843106180665
 20
661.70710699999972
 11
2231.8843106180661
 21
664.20710699999972
  0
LINE
  8
_0-6_
  6
CONTINUOUS
 62
    5
 10
2231.8843106180661
 20
664.20710699999972
 11
2235.3843106180665
 21
666.70710699999972
  0
LINE
  8
_0-6_
  6
CONTINUOUS
 62
    5
 10
2235.3843106180665
 20
666.70710699999972
 11
2231.8843106180661
 21
669.20710699999972
  0
LINE
  8
_0-6_
  6
CONTINUOUS
 62
    5
 10
2231.8843106180661
 20
669.20710699999972
 11
2235.3843106180665
 21
671.70710699999972
  0
LINE
  8
_0-6_
  6
CONTINUOUS
 62
    5
 10
2235.3843106180665
 20
671.70710699999972
 11
2231.8843106180661
 21
674.20710699999972
  0
LINE
  8
_0-6_
  6
CONTINUOUS
 62
    5
 10
2217.8843106180665
 20
659.20710699999972
 11
2231.8843106180661
 21
659.20710699999972
  0
LINE
  8
_0-6_
  6
CONTINUOUS
 62
    5
 10
2235.3843106180665
 20
651.70710699999972
 11
2231.8843106180661
 21
654.20710699999972
  0
LINE
  8
_0-6_
  6
CONTINUOUS
 62
    5
 10
2231.8843106180661
 20
654.20710699999972
 11
2235.3843106180665
 21
656.70710699999972
  0
LINE
  8
_0-6_
  6
CONTINUOUS
 62
    5
 10
2235.3843106180665
 20
656.70710699999972
 11
2231.8843106180661
 21
659.20710699999972
  0
LINE
  8
_0-6_
  6
CONTINUOUS
 62
    5
 10
2231.8843106180661
 20
659.20710699999972
 11
2235.3843106180665
 21
661.70710699999972
  0
LINE
  8
_0-6_
  6
CONTINUOUS
 62
    5
 10
2235.3843106180665
 20
661.70710699999972
 11
2231.8843106180661
 21
664.20710699999972
  0
LINE
  8
_0-6_
  6
CONTINUOUS
 62
    5
 10
2217.8843106180665
 20
649.20710699999972
 11
2231.8843106180661
 21
649.20710699999972
  0
LINE
  8
_0-6_
  6
CONTINUOUS
 62
    5
 10
2231.8843106180661
 20
644.20710699999972
 11
2235.3843106180665
 21
646.70710699999972
  0
LINE
  8
_0-6_
  6
CONTINUOUS
 62
    5
 10
2235.3843106180665
 20
646.70710699999972
 11
2231.8843106180661
 21
649.20710699999972
  0
LINE
  8
_0-6_
  6
CONTINUOUS
 62
    5
 10
2231.8843106180661
 20
649.20710699999972
 11
2235.3843106180665
 21
651.70710699999972
  0
LINE
  8
_0-6_
  6
CONTINUOUS
 62
    5
 10
2235.3843106180665
 20
651.70710699999972
 11
2231.8843106180661
 21
654.20710699999972
  0
LINE
  8
_0-6_
  6
CONTINUOUS
 62
    5
 10
2244.8843106180665
 20
634.29990152221739
 11
2244.8843106180665
 21
630.49990152221744
  0
LINE
  8
_0-6_
  6
CONTINUOUS
 62
    5
 10
2250.8843106180665
 20
616.49990152221766
 11
2250.8843106180665
 21
609.99990152221721
  0
LINE
  8
_0-6_
  6
CONTINUOUS
 62
    5
 10
2193.3843106180665
 20
639.99990152221721
 11
2242.3843106180665
 21
639.99990152221721
  0
ARC
  8
_0-6_
  6
CONTINUOUS
 62
    5
 10
2247.3843106180665
 20
630.49990152221744
 40
2.5
 50
180
 51
270
  0
ARC
  8
_0-6_
  6
CONTINUOUS
 62
    5
 10
2248.3843106180665
 20
625.49990152221744
 40
2.5
 50
0
 51
90
  0
ARC
  8
_0-6_
  6
CONTINUOUS
 62
    5
 10
2242.3843106180665
 20
637.49990152221721
 40
2.5
 50
0
 51
90
  0
LINE
  8
_0-6_
  6
CONTINUOUS
 62
    5
 10
2235.3843106180665
 20
641.70710699999972
 11
2231.8843106180661
 21
644.20710699999972
  0
LINE
  8
_0-6_
  6
CONTINUOUS
 62
    5
 10
2200.3843106180665
 20
641.70710699999972
 11
2203.8843106180665
 21
644.20710699999972
  0
LINE
  8
_0-6_
  6
CONTINUOUS
 62
    5
 10
2203.8843106180665
 20
644.20710699999972
 11
2217.8843106180665
 21
644.20710699999972
  0
LINE
  8
_0-6_
  6
CONTINUOUS
 62
    5
 10
2231.8843106180661
 20
604.20710699999995
 11
2235.3843106180665
 21
606.70710699999972
  0
LINE
  8
_0-6_
  6
CONTINUOUS
 62
    5
 10
2235.3843106180665
 20
606.70710699999972
 11
2231.8843106180661
 21
609.20710699999972
  0
LINE
  8
_0-6_
  6
CONTINUOUS
 62
    5
 10
2231.8843106180661
 20
609.20710699999972
 11
2235.3843106180665
 21
611.70710699999972
  0
LINE
  8
_0-6_
  6
CONTINUOUS
 62
    5
 10
2235.3843106180665
 20
611.70710699999972
 11
2231.8843106180661
 21
614.20710699999972
  0
LINE
  8
_0-6_
  6
CONTINUOUS
 62
    5
 10
2231.8843106180661
 20
614.20710699999972
 11
2235.3843106180665
 21
616.70710699999972
  0
LINE
  8
_0-6_
  6
CONTINUOUS
 62
    5
 10
2235.3843106180665
 20
616.70710699999972
 11
2231.8843106180661
 21
619.20710699999972
  0
LINE
  8
_0-6_
  6
CONTINUOUS
 62
    5
 10
2231.8843106180661
 20
619.20710699999972
 11
2235.3843106180665
 21
621.70710699999972
  0
LINE
  8
_0-6_
  6
CONTINUOUS
 62
    5
 10
2235.3843106180665
 20
621.70710699999972
 11
2231.8843106180661
 21
624.20710699999972
  0
LINE
  8
_0-6_
  6
CONTINUOUS
 62
    5
 10
2231.8843106180661
 20
624.20710699999972
 11
2235.3843106180665
 21
626.70710699999972
  0
LINE
  8
_0-6_
  6
CONTINUOUS
 62
    5
 10
2235.3843106180665
 20
626.70710699999972
 11
2231.8843106180661
 21
629.20710699999972
  0
LINE
  8
_0-6_
  6
CONTINUOUS
 62
    5
 10
2231.8843106180661
 20
629.20710699999972
 11
2235.3843106180665
 21
631.70710699999972
  0
LINE
  8
_0-6_
  6
CONTINUOUS
 62
    5
 10
2235.3843106180665
 20
631.70710699999972
 11
2231.8843106180661
 21
634.20710699999972
  0
LINE
  8
_0-6_
  6
CONTINUOUS
 62
    5
 10
2231.8843106180661
 20
634.20710699999972
 11
2235.3843106180665
 21
636.70710699999972
  0
LINE
  8
_0-6_
  6
CONTINUOUS
 62
    5
 10
2235.3843106180665
 20
636.70710699999972
 11
2231.8843106180661
 21
639.20710699999972
  0
LINE
  8
_0-6_
  6
CONTINUOUS
 62
    5
 10
2231.8843106180661
 20
639.20710699999972
 11
2235.3843106180665
 21
641.70710699999972
  0
LINE
  8
_0-6_
  6
CONTINUOUS
 62
    5
 10
2203.8843106180665
 20
604.20710699999995
 11
2200.3843106180665
 21
606.70710699999972
  0
LINE
  8
_0-6_
  6
CONTINUOUS
 62
    5
 10
2200.3843106180665
 20
606.70710699999972
 11
2203.8843106180665
 21
609.20710699999972
  0
LINE
  8
_0-6_
  6
CONTINUOUS
 62
    5
 10
2203.8843106180665
 20
609.20710699999972
 11
2200.3843106180665
 21
611.70710699999972
  0
LINE
  8
_0-6_
  6
CONTINUOUS
 62
    5
 10
2200.3843106180665
 20
611.70710699999972
 11
2203.8843106180665
 21
614.20710699999972
  0
LINE
  8
_0-6_
  6
CONTINUOUS
 62
    5
 10
2203.8843106180665
 20
614.20710699999972
 11
2200.3843106180665
 21
616.70710699999972
  0
LINE
  8
_0-6_
  6
CONTINUOUS
 62
    5
 10
2200.3843106180665
 20
616.70710699999972
 11
2203.8843106180665
 21
619.20710699999972
  0
LINE
  8
_0-6_
  6
CONTINUOUS
 62
    5
 10
2203.8843106180665
 20
619.20710699999972
 11
2200.3843106180665
 21
621.70710699999972
  0
LINE
  8
_0-6_
  6
CONTINUOUS
 62
    5
 10
2200.3843106180665
 20
621.70710699999972
 11
2203.8843106180665
 21
624.20710699999972
  0
LINE
  8
_0-6_
  6
CONTINUOUS
 62
    5
 10
2203.8843106180665
 20
624.20710699999972
 11
2200.3843106180665
 21
626.70710699999972
  0
LINE
  8
_0-6_
  6
CONTINUOUS
 62
    5
 10
2200.3843106180665
 20
626.70710699999972
 11
2203.8843106180665
 21
629.20710699999972
  0
LINE
  8
_0-6_
  6
CONTINUOUS
 62
    5
 10
2203.8843106180665
 20
629.20710699999972
 11
2200.3843106180665
 21
631.70710699999972
  0
LINE
  8
_0-6_
  6
CONTINUOUS
 62
    5
 10
2200.3843106180665
 20
631.70710699999972
 11
2203.8843106180665
 21
634.20710699999972
  0
LINE
  8
_0-6_
  6
CONTINUOUS
 62
    5
 10
2203.8843106180665
 20
634.20710699999972
 11
2200.3843106180665
 21
636.70710699999972
  0
LINE
  8
_0-6_
  6
CONTINUOUS
 62
    5
 10
2200.3843106180665
 20
636.70710699999972
 11
2203.8843106180665
 21
639.20710699999972
  0
LINE
  8
_0-6_
  6
CONTINUOUS
 62
    5
 10
2203.8843106180665
 20
639.20710699999972
 11
2200.3843106180665
 21
641.70710699999972
  0
LINE
  8
_0-6_
  6
CONTINUOUS
 62
    5
 10
2217.8843106180665
 20
639.20710699999972
 11
2231.8843106180661
 21
639.20710699999972
  0
LINE
  8
_0-6_
  6
CONTINUOUS
 62
    5
 10
2203.8843106180665
 20
634.20710699999972
 11
2217.8843106180665
 21
634.20710699999972
  0
LINE
  8
_0-6_
  6
CONTINUOUS
 62
    5
 10
2217.8843106180665
 20
629.20710699999972
 11
2231.8843106180661
 21
629.20710699999972
  0
LINE
  8
_0-6_
  6
CONTINUOUS
 62
    5
 10
2203.8843106180665
 20
624.20710699999972
 11
2217.8843106180665
 21
624.20710699999972
  0
LINE
  8
_0-6_
  6
CONTINUOUS
 62
    5
 10
2217.8843106180665
 20
619.20710699999972
 11
2231.8843106180661
 21
619.20710699999972
  0
LINE
  8
_0-6_
  6
CONTINUOUS
 62
    5
 10
2203.8843106180665
 20
614.20710699999972
 11
2217.8843106180665
 21
614.20710699999972
  0
LINE
  8
_0-6_
  6
CONTINUOUS
 62
    5
 10
2217.8843106180665
 20
609.20710699999972
 11
2231.8843106180661
 21
609.20710699999972
  0
LINE
  8
_0-6_
  6
CONTINUOUS
 62
    5
 10
2190.8843106180665
 20
637.49990152221721
 11
2190.8843106180665
 21
633.89990152221741
  0
LINE
  8
_0-6_
  6
CONTINUOUS
 62
    5
 10
2187.3843106180665
 20
627.99990152221744
 11
2248.3843106180665
 21
627.99990152221744
  0
ARC
  8
_0-6_
  6
CONTINUOUS
 62
    5
 10
2188.3843106180665
 20
630.49990152221744
 40
2.5
 50
270
 51
0
  0
ARC
  8
_0-6_
  6
CONTINUOUS
 62
    5
 10
2193.3843106180665
 20
637.49990152221721
 40
2.5
 50
90
 51
180
  0
LINE
  8
_0-6_
  6
CONTINUOUS
 62
    5
 10
2184.8843106180665
 20
609.99990152221721
 11
2250.8843106180665
 21
609.99990152221721
  0
ARC
  8
_0-6_
  6
CONTINUOUS
 62
    5
 10
2187.3843106180665
 20
625.49990152221744
 40
2.5
 50
90
 51
180
  0
LINE
  8
_0-6_
  6
CONTINUOUS
 62
    5
 10
2184.8843106180665
 20
625.49990152221744
 11
2184.8843106180665
 21
617.89990152221753
  0
LINE
  8
_0-3_キャビネット
  6
CONTINUOUS
 62
    5
 10
2337.8843106180665
 20
580
 11
2337.8843106180665
 21
1260
  0
LINE
  8
_0-3_キャビネット
  6
CONTINUOUS
 62
    4
 10
1937.8843106180665
 20
1267.5
 11
1922.8843106180665
 21
1267.5
  0
LINE
  8
_0-3_キャビネット
  6
CONTINUOUS
 62
    4
 10
1937.8843106180665
 20
1222.5
 11
1922.8843106180665
 21
1222.5
  0
LINE
  8
_0-3_キャビネット
  6
CONTINUOUS
 62
    4
 10
1937.8843106180665
 20
1222.5
 11
1937.8843106180665
 21
1267.5
  0
LINE
  8
_0-3_キャビネット
  6
CONTINUOUS
 62
    4
 10
1937.8843106180665
 20
1267.5
 11
1922.8843106180665
 21
1222.5
  0
LINE
  8
_0-3_キャビネット
  6
CONTINUOUS
 62
    5
 10
2322.8843106180665
 20
1242.5
 11
2319.8843106180665
 21
1242.5
  0
LINE
  8
_0-3_キャビネット
  6
CONTINUOUS
 62
    4
 10
2337.8843106180665
 20
1242.5
 11
2322.8843106180665
 21
1192.5
  0
LINE
  8
_0-3_キャビネット
  6
CONTINUOUS
 62
    4
 10
2322.8843106180665
 20
1242.5
 11
2337.8843106180665
 21
1242.5
  0
LINE
  8
_0-3_キャビネット
  6
CONTINUOUS
 62
    4
 10
2322.8843106180665
 20
1192.5
 11
2337.8843106180665
 21
1192.5
  0
ARC
  8
_0-5_把手
  6
CONTINUOUS
 62
    4
 10
990.26252603542206
 20
1257.9999999999997
 40
3
 50
270
 51
0
  0
LINE
  8
_0-5_把手
  6
CONTINUOUS
 62
    4
 10
715.26252603542184
 20
1226
 11
993.26252603542206
 21
1226
  0
LINE
  8
_0-5_把手
  6
CONTINUOUS
 62
    4
 10
715.26252603542184
 20
1233.6000000000026
 11
993.26252603542206
 21
1233.6000000000026
  0
ARC
  8
_0-5_把手
  6
CONTINUOUS
 62
    4
 10
718.26252603542206
 20
1257.9999999999997
 40
3
 50
180
 51
270
  0
LINE
  8
_0-5_把手
  6
CONTINUOUS
 62
    4
 10
990.26252603542206
 20
1254.9999999999997
 11
718.26252603542206
 21
1254.9999999999997
  0
ARC
  8
_0-5_把手
  6
CONTINUOUS
 62
    4
 10
439.2625260354228
 20
1257.9999999999997
 40
3
 50
180
 51
270
  0
ARC
  8
_0-5_把手
  6
CONTINUOUS
 62
    4
 10
711.26252603542206
 20
1257.9999999999997
 40
3
 50
270
 51
0
  0
LINE
  8
_0-5_把手
  6
CONTINUOUS
 62
    4
 10
711.26252603542206
 20
1254.9999999999997
 11
439.2625260354228
 21
1254.9999999999997
  0
LINE
  8
_0-5_把手
  6
CONTINUOUS
 62
    4
 10
436.26252603542212
 20
1233.6000000000026
 11
714.26252603542229
 21
1233.6000000000026
  0
LINE
  8
_0-5_把手
  6
CONTINUOUS
 62
    4
 10
436.26252603542212
 20
1226
 11
714.26252603542229
 21
1226
  0
LINE
  8
_0-5_把手
  6
CONTINUOUS
 62
    3
 10
1919.884310618067
 20
1228
 11
1907.8843106180665
 21
1228
  0
ARC
  8
_0-5_把手
  6
CONTINUOUS
 62
    4
 10
1919.484310618066
 20
1256
 40
2
 50
0.0000000000000127
 51
90.000000000000042
  0
ARC
  8
_0-5_把手
  6
CONTINUOUS
 62
    4
 10
1919.484310618066
 20
1256
 40
0.6999999999999997
 50
0
 51
90
  0
LINE
  8
_0-5_把手
  6
CONTINUOUS
 62
    4
 10
1921.4843106180665
 20
1213.9999999999997
 11
1921.4843106180665
 21
1256
  0
ARC
  8
_0-5_把手
  6
CONTINUOUS
 62
    4
 10
1920.984310618066
 20
1213.9999999999997
 40
0.5
 50
270
 51
0
  0
ARC
  8
_0-5_把手
  6
CONTINUOUS
 62
    4
 10
1920.6843106180663
 20
1214.3000000000001
 40
0.8000000000000001
 50
128.68218745349332
 51
270
  0
LINE
  8
_0-5_把手
  6
CONTINUOUS
 62
    4
 10
1920.984310618066
 20
1213.5
 11
1920.6843106180663
 21
1213.5
  0
LINE
  8
_0-5_把手
  6
CONTINUOUS
 62
    4
 10
1920.1843106180667
 20
1222.2755002001601
 11
1920.1843106180667
 21
1214.9244997998398
  0
ARC
  8
_0-5_把手
  6
CONTINUOUS
 62
    4
 10
1920.6843106180663
 20
1222.9
 40
0.8000000000000001
 50
128.68218745349335
 51
231.31781254650667
  0
LINE
  8
_0-5_把手
  6
CONTINUOUS
 62
    4
 10
1920.1843106180667
 20
1227.7
 11
1920.1843106180667
 21
1223.5244997998397
  0
ARC
  8
_0-5_把手
  6
CONTINUOUS
 62
    4
 10
1919.884310618067
 20
1227.7
 40
0.2999999999999998
 50
0.0000000000000127
 51
90.000000000000014
  0
LINE
  8
_0-5_把手
  6
CONTINUOUS
 62
    4
 10
1920.1843106180667
 20
1231.4496126617748
 11
1920.1843106180667
 21
1256
  0
ARC
  8
_0-5_把手
  6
CONTINUOUS
 62
    4
 10
1919.1843106180663
 20
1231.4496126617748
 40
1
 50
272.96093613416371
 51
0
  0
ARC
  8
_0-5_把手
  6
CONTINUOUS
 62
    4
 10
1906.3843106180665
 20
1222.8000000000001
 40
0.8000000000000001
 50
180
 51
359.99999999999994
  0
LINE
  8
_0-5_把手
  6
CONTINUOUS
 62
    4
 10
1908.7128820466382
 20
1258
 11
1919.484310618066
 21
1258
  0
ARC
  8
_0-5_把手
  6
CONTINUOUS
 62
    4
 10
1908.7128820466382
 20
1256
 40
2
 50
90.000000000000028
 51
161.07535558394951
  0
ARC
  8
_0-5_把手
  6
CONTINUOUS
 62
    4
 10
1908.7128820466382
 20
1256
 40
0.6999999999999997
 50
90
 51
161.07535558395002
  0
LINE
  8
_0-5_把手
  6
CONTINUOUS
 62
    4
 10
1919.484310618066
 20
1256.7
 11
1908.7128820466382
 21
1256.7
  0
LINE
  8
_0-5_把手
  6
CONTINUOUS
 62
    4
 10
1908.0507198844752
 20
1256.2270270270271
 11
1906.921890470433
 21
1252.9346079027357
  0
ARC
  8
_0-5_把手
  6
CONTINUOUS
 62
    4
 10
1907.1110796596217
 20
1252.8697430378711
 40
0.2
 50
161.07535558394698
 51
226.45103723177706
  0
ARC
  8
_0-5_把手
  6
CONTINUOUS
 62
    4
 10
1906.2843106180666
 20
1252.0000000000002
 40
1
 50
161.07535558395028
 51
46.451037231780105
  0
LINE
  8
_0-5_把手
  6
CONTINUOUS
 62
    4
 10
1906.8209901547465
 20
1256.6486486486485
 11
1905.3383646721208
 21
1252.3243243243243
  0
LINE
  8
_0-5_把手
  6
CONTINUOUS
 62
    4
 10
1907.1843106180658
 20
1227.7
 11
1907.1843106180658
 21
1222.8000000000001
  0
ARC
  8
_0-5_把手
  6
CONTINUOUS
 62
    4
 10
1907.4843106180669
 20
1227.7
 40
0.2999999999999998
 50
90
 51
180
  0
LINE
  8
_0-5_把手
  6
CONTINUOUS
 62
    4
 10
1919.884310618067
 20
1228
 11
1907.4843106180669
 21
1228
  0
LINE
  8
_0-5_把手
  6
CONTINUOUS
 62
    4
 10
1905.5843106180664
 20
1228.6503873382255
 11
1905.5843106180664
 21
1222.8000000000001
  0
ARC
  8
_0-5_把手
  6
CONTINUOUS
 62
    4
 10
1906.5843106180664
 20
1228.6503873382255
 40
1
 50
92.960936134163759
 51
180
  0
LINE
  8
_0-5_把手
  6
CONTINUOUS
 62
    4
 10
1919.235965703494
 20
1230.4509476768325
 11
1906.5326555326378
 21
1229.6490523231677
  0
LINE
  8
_0-4_扉
  6
CONTINUOUS
 62
    3
 10
1907.8843106180665
 20
1228
 11
1907.8843106180665
 21
673
  0
LINE
  8
_0-4_扉
  6
CONTINUOUS
 62
    3
 10
1919.8843106180663
 20
1228
 11
1919.8843106180663
 21
673
  0
LINE
  8
_0-4_扉
  6
CONTINUOUS
 62
    3
 10
436.26252603542212
 20
1257.9999999999997
 11
436.26252603542212
 21
673
  0
LINE
  8
_0-4_扉
  6
CONTINUOUS
 62
    3
 10
714.26252603542229
 20
1257.9999999999997
 11
714.26252603542229
 21
673
  0
LINE
  8
_0-4_扉
  6
CONTINUOUS
 62
    3
 10
436.26252603542212
 20
1257.9999999999997
 11
714.26252603542229
 21
1257.9999999999997
  0
LINE
  8
_0-4_扉
  6
CONTINUOUS
 62
    3
 10
715.26252603542184
 20
1257.9999999999997
 11
715.26252603542184
 21
673
  0
LINE
  8
_0-4_扉
  6
CONTINUOUS
 62
    3
 10
715.26252603542184
 20
1257.9999999999997
 11
993.26252603542206
 21
1257.9999999999997
  0
LINE
  8
_0-4_扉
  6
CONTINUOUS
 62
    3
 10
993.26252603542206
 20
1257.9999999999997
 11
993.26252603542206
 21
673
  0
LINE
  8
_0-4_扉
  6
CENTER1
 62
    4
 10
714.26252603542229
 20
1257.9999999999997
 11
436.26252603542212
 21
965.49999999999977
  0
LINE
  8
_0-4_扉
  6
CENTER1
 62
    4
 10
436.26252603542212
 20
965.49999999999977
 11
714.26252603542229
 21
673
  0
LINE
  8
_0-4_扉
  6
CENTER1
 62
    4
 10
715.26252603542184
 20
673
 11
993.26252603542206
 21
965.49999999999977
  0
LINE
  8
_0-4_扉
  6
CENTER1
 62
    4
 10
993.26252603542206
 20
965.49999999999977
 11
715.26252603542184
 21
1257.9999999999997
  0
LINE
  8
_0-3_キャビネット
  6
CONTINUOUS
 62
    5
 10
2322.8843106180665
 20
580
 11
2322.8843106180665
 21
1250
  0
LINE
  8
_0-3_キャビネット
  6
CONTINUOUS
 62
    5
 10
2319.8843106180665
 20
580
 11
2319.8843106180665
 21
1250
  0
LINE
  8
_0-3_キャビネット
  6
CONTINUOUS
 62
    5
 10
2319.8843106180665
 20
670
 11
1922.8843106180665
 21
670
  0
LINE
  8
_0-3_キャビネット
  6
CONTINUOUS
 62
    5
 10
1954.8843106180663
 20
580
 11
1954.8843106180663
 21
670
  0
LINE
  8
_0-3_キャビネット
  6
CONTINUOUS
 62
    5
 10
1922.8843106180665
 20
670
 11
1922.8843106180665
 21
1293.6720933025278
  0
LINE
  8
_0-3_キャビネット
  6
CONTINUOUS
 62
    7
 10
1942.8843106180665
 20
580
 11
1942.8843106180665
 21
670
  0
LINE
  8
_0-3_キャビネット
  6
CONTINUOUS
 62
    5
 10
2337.8843106180665
 20
580
 11
1942.8843106180665
 21
580
  0
LINE
  8
_0-3_キャビネット
  6
DASHED1
 62
    5
 10
444.76252603542263
 20
1375
 11
432.26252603542206
 21
1375
  0
LINE
  8
_0-3_キャビネット
  6
DASHED1
 62
    5
 10
997.26252603542206
 20
1375
 11
985.26252603542275
 21
1375
  0
LINE
  8
_0-3_キャビネット
  6
DASHED1
 62
    5
 10
432.26252603542206
 20
1188.0000984777827
 11
432.26252603542206
 21
1375
  0
LINE
  8
_0-3_キャビネット
  6
DASHED1
 62
    5
 10
997.26252603542206
 20
1188.0000984777827
 11
997.26252603542206
 21
1375
  0
LINE
  8
_0-3_キャビネット
  6
DASHED1
 62
    2
 10
985.26252603542275
 20
1375
 11
985.26252603542275
 21
580
  0
LINE
  8
_0-3_キャビネット
  6
DASHED1
 62
    2
 10
444.76252603542263
 20
1375
 11
444.76252603542263
 21
580
  0
LINE
  8
_0-3_キャビネット
  6
DASHED1
 62
    9
 10
985.26252603542275
 20
1267.5
 11
444.76252603542263
 21
1267.5
  0
LINE
  8
_0-3_キャビネット
  6
DASHED1
 62
    9
 10
985.26252603542275
 20
1222.5
 11
444.76252603542263
 21
1222.5
  0
TEXT
  8
_0-9_寸法線
 62
    7
 10
747.80163426750675
 20
1590.5352951855511
 40
15
 41
0.6666666666666666
 50
0
  1
－
  0
POINT
  8
_0-9_寸法線
 62
    3
 10
414.76252603542206
 20
1571.7112291025696
  0
LINE
  8
_0-9_寸法線
  6
CONTINUOUS
 62
    4
 10
414.76252603542206
 20
1581.7112291025696
 11
414.76252603542206
 21
1485
  0
POINT
  8
_0-9_寸法線
 62
    3
 10
414.76252603542206
 20
1571.7112291025696
  0
POINT
  8
_0-9_寸法線
 62
    3
 10
1014.762526035422
 20
1571.7112291025696
  0
LINE
  8
_0-9_寸法線
  6
CONTINUOUS
 62
    4
 10
1014.762526035422
 20
1581.7112291025696
 11
1014.762526035422
 21
1485
  0
LINE
  8
_0-9_寸法線
  6
CONTINUOUS
 62
    4
 10
1014.762526035422
 20
1571.7112291025696
 11
414.76252603542206
 21
1571.7112291025696
  0
TEXT
  8
_0-9_寸法線
 62
    7
 10
681.66252603542204
 20
1571.7112291025696
 40
35
 41
0.6285714285714286
 50
0
  1
６００
  0
TEXT
  8
_0-9_寸法線
 62
    7
 10
760.22266845873014
 20
1595.7216856338623
 40
20
 41
0.75
 50
0
  1
５
  0
TEXT
  8
_0-9_寸法線
 62
    7
 10
748.00095464452488
 20
1601.8513280555457
 40
15
 41
0.6666666666666666
 50
0
  1
＋
  0
LINE
  8
_0-9_寸法線
  6
CONTINUOUS
 62
    4
 10
1269.762526035422
 20
580
 11
1044.762526035422
 21
580
  0
LINE
  8
_0-9_寸法線
  6
CONTINUOUS
 62
    4
 10
1189.762526035422
 20
670
 11
1044.762526035422
 21
670
  0
POINT
  8
_0-9_寸法線
 62
    3
 10
1259.762526035422
 20
1455
  0
LINE
  8
_0-9_寸法線
  6
CONTINUOUS
 62
    4
 10
1269.762526035422
 20
1455
 11
1044.762526035422
 21
1455
  0
POINT
  8
_0-9_寸法線
 62
    3
 10
1259.762526035422
 20
580
  0
POINT
  8
_0-9_寸法線
 62
    3
 10
1259.762526035422
 20
1455
  0
LINE
  8
_0-9_寸法線
  6
CONTINUOUS
 62
    4
 10
1269.762526035422
 20
580
 11
1044.762526035422
 21
580
  0
LINE
  8
_0-9_寸法線
  6
CONTINUOUS
 62
    4
 10
1269.762526035422
 20
1455
 11
1044.762526035422
 21
1455
  0
LINE
  8
_0-9_寸法線
  6
CONTINUOUS
 62
    4
 10
1259.762526035422
 20
580
 11
1259.762526035422
 21
1455
  0
TEXT
  8
_0-9_寸法線
 62
    7
 10
1254.762526035422
 20
984.39999999999997
 40
35
 41
0.6285714285714286
 50
90
  1
８７５
  0
LINE
  8
_0-9_寸法線
  6
CENTER2
 62
    4
 10
2217.8843106180665
 20
732.85785334045567
 11
2217.8843106180665
 21
466.56598056817801
  0
LINE
  8
_0-9_寸法線
  6
CONTINUOUS
 62
    4
 10
1922.8843106180665
 20
382.08277206296656
 11
1922.8843106180665
 21
624.5922746781116
  0
TEXT
  8
_f-8_
 62
    7
 10
3040
 20
187.5
 40
25
 41
0.64
 50
0
  1
ＤＡＴＡ
  0
TEXT
  8
_f-8_
 62
    7
 10
3043
 20
142.5
 40
35
 41
0.5714285714285711
 50
0
  1
２０２３．０５．０１
  0
TEXT
  8
_f-8_
 62
    7
 10
3582
 20
145
 40
30
 41
0.7333333333333329
 50
0
  1
Ｔ．Ｋ
  0
TEXT
  8
_f-8_
 62
    7
 10
1631.5557939914162
 20
137.5
 40
45
 41
0.8
 50
0
  1
ＷＳＲ－６０ＴＷ
  0
LINE
  8
_0-2_天板
  6
CENTER2
 62
    4
 10
1111.3995929193761
 20
2465
 11
635.26252603542218
 21
2465
  0
POINT
  8
_0-9_寸法線
 62
    3
 10
2520.3843106180665
 20
580
  0
TEXT
  8
_0-9_寸法線
 62
    7
 10
2388.1247631678666
 20
1021.1083913764539
 40
35
 41
0.8571428571428568
 50
0
  1
Ｒ１／２
  0
TEXT
  8
_0-9_寸法線
 62
    7
 10
2376.7037703675632
 20
1068.9337987277233
 40
35
 41
0.8571428571428568
 50
0
  1
給水給湯推奨位置
  0
LINE
  8
_0-9_寸法線
  6
CONTINUOUS
 62
    4
 10
2375.3949392374938
 20
1061.1140909903201
 11
2632.7426791667121
 21
1061.1140909903201
  0
LINE
  8
_0-9_寸法線
  6
CONTINUOUS
 62
    3
 10
2345.8842050437424
 20
1009.999999998083
 11
2363.5618745734063
 21
1027.6776695277467
  0
LINE
  8
_0-9_寸法線
  6
CONTINUOUS
 62
    3
 10
2345.8842050437424
 20
1009.999999998083
 11
2352.3546811713054
 21
1034.1481456553096
  0
LINE
  8
_0-9_寸法線
  6
CONTINUOUS
 62
    4
 10
2345.8842050437424
 20
1009.999999998083
 11
2375.3949392374938
 21
1061.1140909903201
  0
LINE
  8
_0-9_寸法線
  6
CENTER2
 62
    4
 10
2256.5965096310546
 20
1010
 11
2530.3843106180665
 21
1010
  0
POINT
  8
_0-9_寸法線
 62
    3
 10
2520.3843106180665
 20
1010
  0
POINT
  8
_0-9_寸法線
 62
    3
 10
2520.3843106180665
 20
1010
  0
POINT
  8
_0-9_寸法線
 62
    3
 10
2520.3843106180665
 20
580
  0
POINT
  8
_0-9_寸法線
 62
    3
 10
2520.3843106180665
 20
1010
  0
LINE
  8
_0-9_寸法線
  6
CONTINUOUS
 62
    4
 10
2520.3843106180665
 20
580
 11
2520.3843106180665
 21
1010
  0
TEXT
  8
_0-9_寸法線
 62
    7
 10
2515.3843106180665
 20
761.89999999999997
 40
35
 41
0.6285714285714286
 50
90
  1
４３０
  0
POINT
  8
_0-9_寸法線
 62
    3
 10
1179.762526035422
 20
673
  0
LINE
  8
_0-9_寸法線
  6
CONTINUOUS
 62
    4
 10
1189.762526035422
 20
673
 11
1124.762526035422
 21
673
  0
POINT
  8
_0-9_寸法線
 62
    3
 10
1179.762526035422
 20
1257.9999015222169
  0
LINE
  8
_0-9_寸法線
  6
CONTINUOUS
 62
    4
 10
1189.762526035422
 20
1257.9999015222169
 11
1124.762526035422
 21
1257.9999015222169
  0
POINT
  8
_0-9_寸法線
 62
    3
 10
1179.762526035422
 20
673
  0
POINT
  8
_0-9_寸法線
 62
    3
 10
1179.762526035422
 20
1257.9999015222169
  0
LINE
  8
_0-9_寸法線
  6
CONTINUOUS
 62
    4
 10
1179.762526035422
 20
673
 11
1179.762526035422
 21
1257.9999015222169
  0
TEXT
  8
_0-9_寸法線
 62
    7
 10
1174.762526035422
 20
932.39995076110858
 40
35
 41
0.6285714285714286
 50
90
  1
５８５
  0
LINE
  8
_0-9_寸法線
  6
CONTINUOUS
 62
    4
 10
1189.762526035422
 20
673
 11
1044.762526035422
 21
673
  0
LINE
  8
_0-9_寸法線
  6
CONTINUOUS
 62
    4
 10
1189.762526035422
 20
1257.9999015222169
 11
1044.762526035422
 21
1257.9999015222169
  0
ENDSEC
  0
EOF
