  0
SECTION
  2
HEADER
  9
$ACADVER
  1
AC1009
  9
$INSBASE
 10
0
 20
0
 30
0
  9
$EXTMIN
 10
0
 20
0
  9
$EXTMAX
 10
420
 20
297
  9
$LIMMIN
 10
0
 20
0
  9
$LIMMAX
 10
420
 20
297
  9
$LTSCALE
 40
1
  0
ENDSEC
  0
SECTION
  2
TABLES
  0
TABLE
  2
LTYPE
 70
     9
  0
LTYPE
  2
CONTINUOUS
 70
    64
  3
実線
 72
    65
 73
     0
 40
0.0
  0
LTYPE
  2
DASHED1
 70
    64
  3
--  --  --  --  --  --  --  --  
 72
    65
 73
     2
 40
2.5
 49
1.25
 49
-1.25
  0
LTYPE
  2
DASHED2
 70
    64
  3
----    ----    ----    ----    
 72
    65
 73
     2
 40
5.0
 49
2.5
 49
-2.5
  0
LTYPE
  2
DASHED3
 70
    64
  3
------  ------  ------  ------  
 72
    65
 73
     2
 40
5.0
 49
3.75
 49
-1.25
  0
LTYPE
  2
CENTER1
 70
    64
  3
----- - ----- - ----- - ----- - 
 72
    65
 73
     4
 40
10.0
 49
6.25
 49
-1.25
 49
1.25
 49
-1.25
  0
LTYPE
  2
CENTER2
 70
    64
  3
----------  --  ----------  --  
 72
    65
 73
     4
 40
20.0
 49
12.5
 49
-2.5
 49
2.5
 49
-2.5
  0
LTYPE
  2
PHANTOM1
 70
    64
  3
--- - - --- - - --- - - --- - - 
 72
    65
 73
     6
 40
10.0
 49
3.25
 49
-1.25
 49
1.25
 49
-1.25
 49
1.25
 49
-1.25
  0
LTYPE
  2
PHANTOM2
 70
    64
  3
--------  -  -  --------  -  -  
 72
    65
 73
     6
 40
20.0
 49
10.0
 49
-2.5
 49
1.25
 49
-2.5
 49
1.25
 49
-2.5
  0
LTYPE
  2
DOT
 70
    64
  3
-   -   -   -   -   -   -   -   
 72
    65
 73
     2
 40
2.5
 49
0.625
 49
-1.875
  0
LTYPE
  2
DUMMY
 70
    64
  3
ダミー
 72
    65
 73
     0
 40
0.0
  0
LTYPE
  2
RAND1
 70
    64
  3
ランダム線1
 72
    65
 73
     4
 40
10.0
 49
1.0
 49
-2.0
 49
3.0
 49
-4.0
  0
LTYPE
  2
RAND2
 70
    64
  3
ランダム線2
 72
    65
 73
     4
 40
14.0
 49
2.0
 49
-3.0
 49
4.0
 49
-5.0
  0
LTYPE
  2
RAND3
 70
    64
  3
ランダム線3
 72
    65
 73
     4
 40
18.0
 49
3.0
 49
-4.0
 49
5.0
 49
-6.0
  0
LTYPE
  2
RAND4
 70
    64
  3
ランダム線4
 72
    65
 73
     4
 40
22.0
 49
4.0
 49
-5.0
 49
6.0
 49
-7.0
  0
LTYPE
  2
RAND5
 70
    64
  3
ランダム線5
 72
    65
 73
     4
 40
26.0
 49
5.0
 49
-6.0
 49
7.0
 49
-8.0
  0
LTYPE
  2
LONG1
 70
    64
  3
----------  --  ----------  --  
 72
    65
 73
     4
 40
40.0
 49
32.5
 49
-2.5
 49
2.5
 49
-2.5
  0
LTYPE
  2
LONG2
 70
    64
  3
--------  -  -  --------  -  -  
 72
    65
 73
     6
 40
40.0
 49
30.0
 49
-2.5
 49
1.25
 49
-2.5
 49
1.25
 49
-2.5
  0
LTYPE
  2
LONG3
 70
    64
  3
+++++++++++++++..+++++++++++++++
 72
    65
 73
     2
 40
40.0
 49
37.5
 49
-2.5
  0
LTYPE
  2
LONG4
 70
    64
  3
+++++++++++++++..+++++++++++++++
 72
    65
 73
     2
 40
80.0
 49
75.0
 49
-5.0
  0
LTYPE
  2
LONG5
 70
    64
  3
----------  --  ----------  --  
 72
    65
 73
     4
 40
60.0
 49
37.5
 49
-7.5
 49
7.5
 49
-7.5
  0
LTYPE
  2
dashed
 70
   64
  3
-------   -------------   ------
 72
   65
 73
    2
 40
7.5
 49
6
 49
-1.5
  0
LTYPE
  2
dashed_spaced
 70
   64
  3
----        --------        ----
 72
   65
 73
    2
 40
12
 49
6
 49
-6
  0
LTYPE
  2
long_dashed_dotted
 70
   64
  3
------------- --- --------------
 72
   65
 73
    4
 40
15.25
 49
12
 49
-1.5
 49
0.25
 49
-1.5
  0
LTYPE
  2
long_dashed_double-dotted
 70
   64
  3
----------- --- --- ------------
 72
   65
 73
    6
 40
17
 49
12
 49
-1.5
 49
0.25
 49
-1.5
 49
0.25
 49
-1.5
  0
LTYPE
  2
long_dashed_triplicate-dotted
 70
   64
  3
--------- --- --- --- ----------
 72
   65
 73
    8
 40
18.75
 49
12
 49
-1.5
 49
0.25
 49
-1.5
 49
0.25
 49
-1.5
 49
0.25
 49
-1.5
  0
LTYPE
  2
dotted
 70
   64
  3
   -       -       -       -    
 72
   65
 73
    2
 40
1.75
 49
0.25
 49
-1.5
  0
LTYPE
  2
chain
 70
   64
  3
-------------- -- --------------
 72
   65
 73
    4
 40
18.5
 49
12
 49
-1.5
 49
3.5
 49
-1.5
  0
LTYPE
  2
chain_double_dash
 70
   64
  3
------------ -- -- -------------
 72
   65
 73
    6
 40
23.5
 49
12
 49
-1.5
 49
3.5
 49
-1.5
 49
3.5
 49
-1.5
  0
LTYPE
  2
dashed_dotted
 70
   64
  3
-----------     -     ----------
 72
   65
 73
    4
 40
9.25
 49
6
 49
-1.5
 49
0.25
 49
-1.5
  0
LTYPE
  2
double-dashed_dotted
 70
   64
  3
------   -----------   -   -----
 72
   65
 73
    6
 40
16.75
 49
6
 49
-1.5
 49
6
 49
-1.5
 49
0.25
 49
-1.5
  0
LTYPE
  2
dashed_double-dotted
 70
   64
  3
---------    -    -    ---------
 72
   65
 73
    6
 40
11
 49
6
 49
-1.5
 49
0.25
 49
-1.5
 49
0.25
 49
-1.5
  0
LTYPE
  2
double-dashed_double-dotted
 70
   64
  3
-----   ---------   -   -   ----
 72
   65
 73
    8
 40
18.5
 49
6
 49
-1.5
 49
6
 49
-1.5
 49
0.25
 49
-1.5
 49
0.25
 49
-1.5
  0
LTYPE
  2
dashed_triplicate-dotted
 70
   64
  3
-------    -    -    -    ------
 72
   65
 73
    8
 40
12.75
 49
6
 49
-1.5
 49
0.25
 49
-1.5
 49
0.25
 49
-1.5
 49
0.25
 49
-1.5
  0
LTYPE
  2
double-dashed_triplicate-dotted
 70
   64
  3
-----  ---------  -  -  -  -----
 72
   65
 73
   10
 40
20.25
 49
6
 49
-1.5
 49
6
 49
-1.5
 49
0.25
 49
-1.5
 49
0.25
 49
-1.5
 49
0.25
 49
-1.5
  0
LTYPE
  2
undefined
 70
   64
  3
--------------------------------
 72
   65
 73
    0
 40
0
  0
LTYPE
  2
_
 70
   64
  3
                                
 72
   65
 73
    0
 40
0
  0
LTYPE
  2
__18
 70
   64
  3
                                
 72
   65
 73
    0
 40
0
  0
LTYPE
  2
__19
 70
   64
  3
                                
 72
   65
 73
    0
 40
0
  0
LTYPE
  2
__20
 70
   64
  3
                                
 72
   65
 73
    0
 40
0
  0
LTYPE
  2
__21
 70
   64
  3
                                
 72
   65
 73
    0
 40
0
  0
LTYPE
  2
__22
 70
   64
  3
                                
 72
   65
 73
    0
 40
0
  0
LTYPE
  2
__23
 70
   64
  3
                                
 72
   65
 73
    0
 40
0
  0
LTYPE
  2
__24
 70
   64
  3
                                
 72
   65
 73
    0
 40
0
  0
LTYPE
  2
__25
 70
   64
  3
                                
 72
   65
 73
    0
 40
0
  0
LTYPE
  2
__26
 70
   64
  3
                                
 72
   65
 73
    0
 40
0
  0
LTYPE
  2
__27
 70
   64
  3
                                
 72
   65
 73
    0
 40
0
  0
LTYPE
  2
__28
 70
   64
  3
                                
 72
   65
 73
    0
 40
0
  0
LTYPE
  2
__29
 70
   64
  3
                                
 72
   65
 73
    0
 40
0
  0
LTYPE
  2
__30
 70
   64
  3
                                
 72
   65
 73
    0
 40
0
  0
LTYPE
  2
__31
 70
   64
  3
                                
 72
   65
 73
    0
 40
0
  0
LTYPE
  2
__32
 70
   64
  3
                                
 72
   65
 73
    0
 40
0
  0
ENDTAB
  0
TABLE
  2
STYLE
  5
3
100
AcDbSymbolTable
 70
     1
  0
STYLE
  5
10
100
AcDbSymbolTableRecord
100
AcDbTextStyleTableRecord
  2
STANDARD
 70
     0
 40
0.0
 41
1.0
 50
0.0
 71
     0
 42
0.2
  3
txt
  4
bigfont.shx
  0
STYLE
  5
26
100
AcDbSymbolTableRecord
100
AcDbTextStyleTableRecord
  2
TATEGAKI
 70
    68
 40
0.0
 41
1.0
 50
0.0
 71
     0
 42
1.0
  3
txt
  4
bigfont.shx
  0
ENDTAB
  0
TABLE
  2
LAYER
 70
   10
  0
LAYER
  2
_0-0_
 70
   64
 62
    7
  6
CONTINUOUS
  0
LAYER
  2
_0-9_
 70
   64
 62
    7
  6
CONTINUOUS
  0
LAYER
  2
_0-d_
 70
   64
 62
    7
  6
CONTINUOUS
  0
LAYER
  2
_1-2_
 70
   64
 62
    7
  6
CONTINUOUS
  0
LAYER
  2
_e-0_
 70
   64
 62
    7
  6
CONTINUOUS
  0
LAYER
  2
_f-7_
 70
   64
 62
    7
  6
CONTINUOUS
  0
LAYER
  2
_f-8_
 70
   64
 62
    7
  6
CONTINUOUS
  0
LAYER
  2
_f-9_
 70
   64
 62
    7
  6
CONTINUOUS
  0
LAYER
  2
_f-d_固定文字
 70
   64
 62
    7
  6
CONTINUOUS
  0
LAYER
  2
ADD_LINE
 70
   64
 62
    7
  6
CONTINUOUS
  0
ENDTAB
  0
ENDSEC
  0
SECTION
  2
BLOCKS
  0
ENDSEC
  0
SECTION
  2
ENTITIES
  0
LINE
  8
_f-9_
  6
CONTINUOUS
 62
    7
 10
63
 20
12
 11
63
 21
22
  0
LINE
  8
_f-9_
  6
CONTINUOUS
 62
    7
 10
17
 20
12
 11
61
 21
12
  0
LINE
  8
_f-9_
  6
CONTINUOUS
 62
    7
 10
17
 20
22
 11
61
 21
22
  0
LINE
  8
_f-9_
  6
CONTINUOUS
 62
    7
 10
142
 20
12
 11
142
 21
22
  0
LINE
  8
_f-9_
  6
CONTINUOUS
 62
    7
 10
221
 20
12
 11
221
 21
22
  0
LINE
  8
_f-9_
  6
CONTINUOUS
 62
    7
 10
222
 20
12
 11
222
 21
22
  0
LINE
  8
_f-9_
  6
CONTINUOUS
 62
    7
 10
63
 20
12
 11
221
 21
12
  0
LINE
  8
_f-9_
  6
CONTINUOUS
 62
    7
 10
63
 20
22
 11
221
 21
22
  0
LINE
  8
_f-9_
  6
CONTINUOUS
 62
    7
 10
271
 20
12
 11
271
 21
22
  0
LINE
  8
_f-9_
  6
CONTINUOUS
 62
    7
 10
272
 20
12
 11
272
 21
22
  0
LINE
  8
_f-9_
  6
CONTINUOUS
 62
    7
 10
222
 20
12
 11
271
 21
12
  0
LINE
  8
_f-9_
  6
CONTINUOUS
 62
    7
 10
222
 20
22
 11
271
 21
22
  0
LINE
  8
_f-9_
  6
CONTINUOUS
 62
    7
 10
302
 20
12
 11
302
 21
22
  0
LINE
  8
_f-9_
  6
CONTINUOUS
 62
    7
 10
332
 20
12
 11
332
 21
22
  0
LINE
  8
_f-9_
  6
CONTINUOUS
 62
    7
 10
370
 20
12
 11
370
 21
22
  0
LINE
  8
_f-9_
  6
CONTINUOUS
 62
    7
 10
272
 20
12
 11
411
 21
12
  0
LINE
  8
_f-9_
  6
CONTINUOUS
 62
    7
 10
411
 20
12
 11
411
 21
22
  0
LINE
  8
_f-9_
  6
CONTINUOUS
 62
    7
 10
272
 20
22
 11
411
 21
22
  0
LINE
  8
_0-0_
  6
CONTINUOUS
 62
    7
 10
413
 20
286
 11
413
 21
10
  0
LINE
  8
_0-0_
  6
CONTINUOUS
 62
    7
 10
15
 20
286
 11
413
 21
286
  0
LINE
  8
_0-0_
  6
CONTINUOUS
 62
    7
 10
15
 20
10
 11
413
 21
10
  0
LINE
  8
_0-0_
  6
CONTINUOUS
 62
    7
 10
15
 20
10
 11
15
 21
286
  0
TEXT
  8
_f-8_
 62
    7
 10
304
 20
18.75
 40
2.5
 41
0.64
 50
0
  1
ＤＡＴＡ
  0
TEXT
  8
_f-8_
 62
    7
 10
334
 20
18.75
 40
2.5
 41
0.64
 50
0
  1
ＣＨＥＣＫＥＤ
  0
TEXT
  8
_f-8_
 62
    7
 10
372
 20
18.75
 40
2.5
 41
0.64
 50
0
  1
ＳＨＥＥＴ　ＮＯ．
  0
TEXT
  8
_f-8_
 62
    7
 10
354.19999999999998
 20
18.75
 40
2.5
 41
0.64
 50
0
  1
ＤＲＡＷＩＮＧ
  0
LINE
  8
_f-9_
  6
CONTINUOUS
 62
    7
 10
17
 20
17
 11
61
 21
17
  0
TEXT
  8
_f-8_
 62
    7
 10
274.03739840854211
 20
18.746937299484983
 40
2.5
 41
0.64
 50
0
  1
ＳＣＡＬＥ
  0
TEXT
  8
_f-8_
 62
    7
 10
144.5
 20
18.75
 40
2.5
 41
0.8
 50
0
  1
図面名称
  0
TEXT
  8
_f-8_
 62
    7
 10
65.5
 20
18.75
 40
2.5
 41
0.8
 50
0
  1
名　称
  0
LINE
  8
_f-8_
  6
CONTINUOUS
 62
    7
 10
216.5
 20
287.19999999999998
 11
216.615
 21
287.40000000000003
  0
LINE
  8
_f-8_
  6
CONTINUOUS
 62
    7
 10
215.864
 20
287.69999999999998
 11
216.5
 21
286.60000000000002
  0
LINE
  8
_f-8_
  6
CONTINUOUS
 62
    7
 10
216.5
 20
286.60000000000002
 11
217.13499999999999
 21
287.69999999999998
  0
LINE
  8
_f-8_
  6
CONTINUOUS
 62
    7
 10
216.5
 20
286
 11
217.65399999999999
 21
288
  0
LINE
  8
_f-8_
  6
CONTINUOUS
 62
    7
 10
215.34499999999999
 20
288
 11
216.5
 21
286
  0
LINE
  8
_f-8_
  6
CONTINUOUS
 62
    7
 10
217.65399999999999
 20
288
 11
215.34499999999999
 21
288
  0
LINE
  8
_f-8_
  6
CONTINUOUS
 62
    7
 10
216.38400000000001
 20
287.40000000000003
 11
216.5
 21
287.19999999999998
  0
LINE
  8
_f-8_
  6
CONTINUOUS
 62
    7
 10
216.615
 20
287.40000000000003
 11
216.38400000000001
 21
287.40000000000003
  0
LINE
  8
_f-8_
  6
CONTINUOUS
 62
    7
 10
217.13499999999999
 20
287.69999999999998
 11
215.864
 21
287.69999999999998
  0
LINE
  8
_f-7_
  6
CONTINUOUS
 62
    7
 10
12
 20
146.26794919243113
 11
12
 21
149.73205080756886
  0
LINE
  8
_f-7_
  6
CONTINUOUS
 62
    7
 10
12
 20
149.73205080756886
 11
15
 21
148
  0
LINE
  8
_f-7_
  6
CONTINUOUS
 62
    7
 10
15
 20
148
 11
12
 21
146.26794919243113
  0
LINE
  8
_f-7_
  6
CONTINUOUS
 62
    7
 10
12.5
 20
147.13397459621555
 11
12.5
 21
148.86602540378444
  0
LINE
  8
_f-7_
  6
CONTINUOUS
 62
    7
 10
12.5
 20
148.86602540378444
 11
14
 21
148
  0
LINE
  8
_f-7_
  6
CONTINUOUS
 62
    7
 10
14
 20
148
 11
12.5
 21
147.13397459621555
  0
LINE
  8
_f-7_
  6
CONTINUOUS
 62
    7
 10
12.899999999999977
 20
147.82679491924309
 11
12.899999999999977
 21
148.1732050807569
  0
LINE
  8
_f-7_
  6
CONTINUOUS
 62
    7
 10
12.899999999999977
 20
148.1732050807569
 11
13.200000000000045
 21
148
  0
LINE
  8
_f-7_
  6
CONTINUOUS
 62
    7
 10
13.200000000000045
 20
148
 11
12.899999999999977
 21
147.82679491924309
  0
LINE
  8
_f-7_
  6
CONTINUOUS
 62
    7
 10
416
 20
146.26794919243113
 11
416
 21
149.73205080756886
  0
LINE
  8
_f-7_
  6
CONTINUOUS
 62
    7
 10
416
 20
149.73205080756886
 11
413
 21
148
  0
LINE
  8
_f-7_
  6
CONTINUOUS
 62
    7
 10
413
 20
148
 11
416
 21
146.26794919243113
  0
LINE
  8
_f-7_
  6
CONTINUOUS
 62
    7
 10
415.5
 20
147.13397459621555
 11
415.5
 21
148.86602540378444
  0
LINE
  8
_f-7_
  6
CONTINUOUS
 62
    7
 10
415.5
 20
148.86602540378444
 11
414
 21
148
  0
LINE
  8
_f-7_
  6
CONTINUOUS
 62
    7
 10
414
 20
148
 11
415.5
 21
147.13397459621555
  0
LINE
  8
_f-7_
  6
CONTINUOUS
 62
    7
 10
415.10000000000002
 20
147.82679491924309
 11
415.10000000000002
 21
148.1732050807569
  0
LINE
  8
_f-7_
  6
CONTINUOUS
 62
    7
 10
415.10000000000002
 20
148.1732050807569
 11
414.79999999999995
 21
148
  0
LINE
  8
_f-7_
  6
CONTINUOUS
 62
    7
 10
414.79999999999995
 20
148
 11
415.10000000000002
 21
147.82679491924309
  0
TEXT
  8
_f-d_固定文字
 62
    7
 10
14.998500000000007
 20
6.5
 40
2
 41
1
 50
0
  1
%f
  0
TEXT
  8
_f-d_固定文字
 62
    7
 10
398
 20
6.5
 40
2
 41
1
 50
0
  1
%y
  0
TEXT
  8
_f-d_固定文字
 62
    7
 10
401
 20
6.500000323002979
 40
2
 41
1
 50
0
  1
．
  0
TEXT
  8
_f-d_固定文字
 62
    7
 10
404
 20
6.500000323002979
 40
2
 41
1
 50
0
  1
%m
  0
TEXT
  8
_f-d_固定文字
 62
    7
 10
407
 20
6.500000323002979
 40
2
 41
1
 50
0
  1
．
  0
TEXT
  8
_f-d_固定文字
 62
    7
 10
410
 20
6.500000323002979
 40
2
 41
1
 50
0
  1
%d
  0
LINE
  8
_e-0_
  6
CONTINUOUS
 62
    7
 10
224.37859302690861
 20
19.951965480360598
 11
227.29339284698528
 21
21.01286585371298
  0
LINE
  8
_e-0_
  6
CONTINUOUS
 62
    7
 10
223.76336615052866
 20
19.195952323799758
 11
228.75529504706665
 21
21.012865853712895
  0
LINE
  8
_e-0_
  6
CONTINUOUS
 62
    7
 10
223.42067375789872
 20
18.539133607135255
 11
226.38643430051365
 21
19.618582166608263
  0
LINE
  8
_e-0_
  6
CONTINUOUS
 62
    7
 10
223.22119570371697
 20
17.934440646785787
 11
225.39586582709301
 21
18.725955841042662
  0
LINE
  8
_e-0_
  6
CONTINUOUS
 62
    7
 10
223.12024514117433
 20
17.365608760649877
 11
224.94574587956464
 21
18.03003669205492
  0
LINE
  8
_e-0_
  6
CONTINUOUS
 62
    7
 10
223.09649088875534
 20
16.8248740335938
 11
224.93748102388386
 21
17.494939644358311
  0
LINE
  8
_e-0_
  6
CONTINUOUS
 62
    7
 10
223.13837497438626
 20
16.308029707814966
 11
224.98286640768282
 21
16.979369686893903
  0
LINE
  8
_e-0_
  6
CONTINUOUS
 62
    7
 10
223.23950068941755
 20
15.812747571767488
 11
225.12695688182671
 21
16.499725444285843
  0
LINE
  8
_e-0_
  6
CONTINUOUS
 62
    7
 10
223.39675550564962
 20
15.337894757832998
 11
225.36625167678698
 21
16.054732740628253
  0
LINE
  8
_e-0_
  6
CONTINUOUS
 62
    7
 10
223.60955302019183
 20
14.883257832814223
 11
225.70999104881019
 21
15.647754754152117
  0
LINE
  8
_e-0_
  6
CONTINUOUS
 62
    7
 10
223.87970089264297
 20
14.449494730998821
 11
226.18801160027362
 21
15.289651120014326
  0
LINE
  8
_e-0_
  6
CONTINUOUS
 62
    7
 10
224.21181877425701
 20
14.038286867935909
 11
226.89468388985253
 21
15.014769912563821
  0
LINE
  8
_e-0_
  6
CONTINUOUS
 62
    7
 10
224.61455691824355
 20
13.652782678312661
 11
228.45651405528204
 21
15.051140717521263
  0
LINE
  8
_e-0_
  6
CONTINUOUS
 62
    7
 10
225.10351047702795
 20
13.298658333410969
 11
227.91844822576493
 21
14.32321188526356
  0
LINE
  8
_e-0_
  6
CONTINUOUS
 62
    7
 10
227.95849322183673
 20
20.190764820482513
 11
230.21719724714802
 21
21.012865853713066
  0
LINE
  8
_e-0_
  6
CONTINUOUS
 62
    7
 10
226.05624543087296
 20
18.9663143601351
 11
231.30511299164635
 21
20.876745915862045
  0
LINE
  8
_e-0_
  6
CONTINUOUS
 62
    7
 10
227.30696188494735
 20
18.889449034687174
 11
231.30511299164635
 21
20.344657029624102
  0
LINE
  8
_e-0_
  6
CONTINUOUS
 62
    7
 10
228.76886408502889
 20
18.889449034687174
 11
231.30511299164635
 21
19.812568143386158
  0
LINE
  8
_e-0_
  6
CONTINUOUS
 62
    7
 10
229.18751463425485
 20
18.509736486926669
 11
231.30511299164635
 21
19.280479257148215
  0
LINE
  8
_e-0_
  6
CONTINUOUS
 62
    7
 10
229.18751463425485
 20
17.977647600688726
 11
231.30511299164635
 21
18.748390370910215
  0
LINE
  8
_e-0_
  6
CONTINUOUS
 62
    7
 10
229.18751463425485
 20
17.445558714450783
 11
231.30511299164635
 21
18.216301484672271
  0
LINE
  8
_e-0_
  6
CONTINUOUS
 62
    7
 10
229.18751463425485
 20
16.913469828212839
 11
231.30511299164635
 21
17.684212598434328
  0
LINE
  8
_e-0_
  6
CONTINUOUS
 62
    7
 10
229.1800847569645
 20
16.378676687796939
 11
231.30511299164635
 21
17.152123712196384
  0
LINE
  8
_e-0_
  6
CONTINUOUS
 62
    7
 10
229.06539909363365
 20
15.804845633809463
 11
231.30511299164635
 21
16.620034825958413
  0
LINE
  8
_e-0_
  6
CONTINUOUS
 62
    7
 10
228.8394996285782
 20
15.190536066354695
 11
231.30511299164635
 21
16.087945939720469
  0
LINE
  8
_e-0_
  6
CONTINUOUS
 62
    7
 10
228.4400386182763
 20
14.513055262616916
 11
231.18608666367177
 21
15.512535013005759
  0
LINE
  8
_e-0_
  6
CONTINUOUS
 62
    7
 10
227.57463468865151
 20
13.665985105378524
 11
230.9038771291365
 21
14.877730256370853
  0
LINE
  8
_e-0_
  6
CONTINUOUS
 62
    7
 10
226.69791201478207
 20
12.814795262145821
 11
230.41703780821814
 21
14.168446348448242
  0
LINE
  8
_e-0_
  6
CONTINUOUS
 62
    7
 10
228.21376414569664
 20
12.834431431109749
 11
229.27244583873175
 21
13.219760054937069
  0
LINE
  8
_e-0_
  6
CONTINUOUS
 62
    3
 10
226.64464672734899
 20
19.756612819678252
 11
226.23244734593251
 21
19.475680664380121
  0
LINE
  8
_e-0_
  6
CONTINUOUS
 62
    3
 10
228.23868421919431
 20
12.814795262145651
 11
226.69204010401702
 21
12.814795262145651
  0
ARC
  8
_e-0_
  6
CONTINUOUS
 62
    3
 10
228.23868421919431
 20
13.314795262145651
 40
0.5
 50
270
 51
286.20399351045659
  0
LINE
  8
_e-0_
  6
CONTINUOUS
 62
    3
 10
231.32288608412613
 20
21.012865853712895
 11
231.32288608412613
 21
15.977346730566921
  0
ARC
  8
_e-0_
  6
CONTINUOUS
 62
    3
 10
227.19221657766448
 20
16.915823653484835
 40
4.25
 50
286.20399351045648
 51
345.50707147989851
  0
ARC
  8
_e-0_
  6
CONTINUOUS
 62
    3
 10
230.82288608412613
 20
15.977346730566921
 40
0.5
 50
345.50707147989879
 51
0.0000000000000159
  0
ARC
  8
_e-0_
  6
CONTINUOUS
 62
    3
 10
225.00927387377203
 20
17.04956084628958
 40
4
 50
279.71265316664215
 51
332.69093929010892
  0
ARC
  8
_e-0_
  6
CONTINUOUS
 62
    3
 10
225.59974857549715
 20
13.599729020443191
 40
0.5
 50
241.9452628118
 51
279.71265316664221
  0
ARC
  8
_e-0_
  6
CONTINUOUS
 62
    3
 10
226.32643122966177
 20
20.512865853712895
 40
0.5
 50
90
 51
106.05338143786268
  0
LINE
  8
_e-0_
  6
CONTINUOUS
 62
    3
 10
228.84334989152219
 20
21.012865853712881
 11
227.82181989551909
 21
20.524067691222057
  0
LINE
  8
_e-0_
  6
CONTINUOUS
 62
    3
 10
227.82181989551909
 20
20.524067691222057
 11
227.22994583375816
 21
20.14444897898403
  0
LINE
  8
_e-0_
  6
CONTINUOUS
 62
    3
 10
226.64464672734899
 20
19.756612819678252
 11
227.22994583375816
 21
20.14444897898403
  0
ARC
  8
_e-0_
  6
CONTINUOUS
 62
    3
 10
226.32643122966177
 20
20.512865853712895
 40
0.5
 50
90
 51
106.05338143786268
  0
ARC
  8
_e-0_
  6
CONTINUOUS
 62
    3
 10
226.32643122966177
 20
20.512865853712895
 40
0.5
 50
90
 51
106.05338143786268
  0
LINE
  8
_e-0_
  6
CONTINUOUS
 62
    3
 10
228.84334989152219
 20
21.012865853712895
 11
226.32643122966177
 21
21.012865853712895
  0
ARC
  8
_e-0_
  6
CONTINUOUS
 62
    3
 10
227.3634293276564
 20
16.909099082020304
 40
4.25
 50
106.05338143786268
 51
241.94526281180051
  0
ARC
  8
_e-0_
  6
CONTINUOUS
 62
    3
 10
226.32643122966177
 20
20.512865853712895
 40
0.5
 50
90
 51
106.05338143786268
  0
LINE
  8
_e-0_
  6
CONTINUOUS
 62
    3
 10
229.91719829458554
 20
21.012865853712895
 11
231.32288608412613
 21
21.012865853712895
  0
ARC
  8
_e-0_
  6
CONTINUOUS
 62
    3
 10
229.91719829458554
 20
20.512865853712895
 40
0.5
 50
90
 51
112.84552721528326
  0
LINE
  8
_e-0_
  6
CONTINUOUS
 62
    3
 10
229.20528772673463
 20
18.889449034687004
 11
226.90173546029672
 21
18.889449034687004
  0
ARC
  8
_e-0_
  6
CONTINUOUS
 62
    3
 10
226.90173546029672
 20
18.389449034687004
 40
0.5
 50
90
 51
110.93110431809542
  0
ARC
  8
_e-0_
  6
CONTINUOUS
 62
    3
 10
225.42292662802572
 20
17.770386452217394
 40
0.05
 50
165.368776721252
 51
224.67319701305797
  0
LINE
  8
_e-0_
  6
CONTINUOUS
 62
    3
 10
225.38737020580626
 20
17.73523334653737
 11
225.36837582739269
 21
17.754445650133447
  0
ARC
  8
_e-0_
  6
CONTINUOUS
 62
    3
 10
227.61622566207876
 20
16.52142768803236
 40
2.5
 50
110.93110431809527
 51
150.17701829297229
  0
ARC
  8
_e-0_
  6
CONTINUOUS
 62
    3
 10
225.40393224961218
 20
17.789598755813472
 40
0.05
 50
224.67319701305652
 51
330.17701829297561
  0
LINE
  8
_e-0_
  6
CONTINUOUS
 62
    3
 10
229.72307430642558
 20
20.973643324104926
 11
228.35233941157548
 21
20.396157353985984
  0
LINE
  8
_e-0_
  6
CONTINUOUS
 62
    3
 10
228.35233941157548
 20
20.396157353985984
 11
227.71145283854431
 21
20.04613679180602
  0
ARC
  8
_e-0_
  6
CONTINUOUS
 62
    3
 10
227.79347719955745
 20
17.151524603489747
 40
2.5
 50
126.05682261028302
 51
165.36877672125814
  0
ARC
  8
_e-0_
  6
CONTINUOUS
 62
    3
 10
232.20287923520788
 20
11.111536133502738
 40
10
 50
116.68868989749238
 51
126.03335467187628
  0
LINE
  8
_e-0_
  6
CONTINUOUS
 62
    3
 10
226.23244734593248
 20
19.475680664380121
 11
225.43560414411385
 21
18.750185893935451
  0
LINE
  8
_e-0_
  6
CONTINUOUS
 62
    3
 10
225.43560414411385
 20
18.750185893935451
 11
225.25108960046537
 21
18.536863764275494
  0
ARC
  8
_e-0_
  6
CONTINUOUS
 62
    3
 10
227.45493829743443
 20
17.45520307550089
 40
2.5
 50
169.07329675873063
 51
296.32138326661799
  0
LINE
  8
_e-0_
  6
CONTINUOUS
 62
    3
 10
225.2510896004654
 20
18.536863764275494
 11
225.0002621066113
 21
17.929085759512361
  0
LINE
  8
_e-0_
  6
CONTINUOUS
 62
    3
 10
229.20528772673463
 20
18.889449034687004
 11
229.20528772673463
 21
16.442425885831653
  0
ARC
  8
_e-0_
  6
CONTINUOUS
 62
    3
 10
227.72840925230508
 20
14.413090983307199
 40
0.5
 50
311.4163090429962
 51
326.13300916724881
  0
ARC
  8
_e-0_
  6
CONTINUOUS
 62
    3
 10
225.22859410885328
 20
16.873596234419835
 40
4
 50
316.78132524618342
 51
353.81191653224226
  0
ARC
  8
_e-0_
  6
CONTINUOUS
 62
    3
 10
224.09001979970051
 20
18.5376663785662
 40
6
 50
294.69555798319504
 51
311.41630904299643
  0
ARC
  8
_e-0_
  6
CONTINUOUS
 62
    3
 10
227.19268153318699
 20
20.298067150791609
 40
7.5
 50
264.68313230529076
 51
266.17253517307824
  0
ARC
  8
_e-0_
  6
CONTINUOUS
 62
    3
 10
226.50233680716155
 20
12.880121063143832
 40
0.05
 50
174.02086603460466
 51
264.68313230528985
  0
ARC
  8
_e-0_
  6
CONTINUOUS
 62
    3
 10
226.70124878650105
 20
12.859287809071872
 40
0.25
 50
114.69555798319522
 51
174.02086603461154
  0
LINE
  8
_e-0_
  6
CONTINUOUS
 62
    7
 10
237.68899919095943
 20
16.943032024062034
 11
238.82618909747961
 21
17.356935300743344
  0
LINE
  8
_e-0_
  6
CONTINUOUS
 62
    3
 10
243.62585234464268
 20
16.263312492519389
 11
243.62585234464268
 21
13.649018622829544
  0
CIRCLE
  8
_e-0_
  6
CONTINUOUS
 62
    3
 10
236.55167430510385
 20
16.246293449130519
 40
1.333773795583065
  0
CIRCLE
  8
_e-0_
  6
CONTINUOUS
 62
    3
 10
236.52330256036634
 20
16.217921704393006
 40
2.5691707563897665
  0
LINE
  8
_e-0_
  6
CONTINUOUS
 62
    3
 10
239.94939617252578
 20
18.826250382114977
 11
239.94939617252578
 21
13.649018622829544
  0
LINE
  8
_e-0_
  6
CONTINUOUS
 62
    3
 10
239.94939617252578
 20
13.649018622829544
 11
241.48569307536689
 21
13.649018622829544
  0
LINE
  8
_e-0_
  6
CONTINUOUS
 62
    3
 10
241.48569307536689
 20
13.649018622829544
 11
241.48569307536689
 21
17.263312492519389
  0
LINE
  8
_e-0_
  6
CONTINUOUS
 62
    3
 10
245.11774760289304
 20
13.649018622829544
 11
243.62585234464268
 21
13.649018622829544
  0
LINE
  8
_e-0_
  6
CONTINUOUS
 62
    3
 10
242.62585234464268
 20
17.263312492519389
 11
241.48569307536689
 21
17.263312492519389
  0
ARC
  8
_e-0_
  6
CONTINUOUS
 62
    3
 10
242.62585234464268
 20
16.263312492519389
 40
1
 50
0
 51
90
  0
LINE
  8
_e-0_
  6
CONTINUOUS
 62
    3
 10
242.61774760289301
 20
18.826250382114977
 11
239.94939617252578
 21
18.826250382114977
  0
LINE
  8
_e-0_
  6
CONTINUOUS
 62
    3
 10
245.11774760289304
 20
16.326250382114977
 11
245.11774760289304
 21
13.649018622829544
  0
ARC
  8
_e-0_
  6
CONTINUOUS
 62
    3
 10
242.61774760289301
 20
16.326250382114977
 40
2.5
 50
0
 51
90
  0
ARC
  8
_e-0_
  6
CONTINUOUS
 62
    3
 10
248.62452606175233
 20
16.217653762406428
 40
1.333773795583065
 50
23.422555400004949
 51
97.191484740792631
  0
LINE
  8
_e-0_
  6
CONTINUOUS
 62
    3
 10
247.40065761310629
 20
16.747841048365671
 11
249.84839451039835
 21
16.747841048365671
  0
ARC
  8
_e-0_
  6
CONTINUOUS
 62
    3
 10
248.62452606175233
 20
16.217653762406428
 40
1.333773795583065
 50
92.530763017635251
 51
156.57744459999506
  0
ARC
  8
_e-0_
  6
CONTINUOUS
 62
    3
 10
248.62452606175233
 20
16.217653762406428
 40
1.333773795583065
 50
204.21097500392608
 51
316.0067678116265
  0
LINE
  8
_e-0_
  6
CONTINUOUS
 62
    3
 10
247.40806890359868
 20
15.670676139316753
 11
251.15200753562385
 21
15.670676139316753
  0
LINE
  8
_e-0_
  6
CONTINUOUS
 62
    3
 10
249.58407207162625
 20
15.291249966689292
 11
250.87092412098888
 21
14.978943472664496
  0
ARC
  8
_e-0_
  6
CONTINUOUS
 62
    3
 10
248.65655867677853
 20
16.28171899245882
 40
2.5691707563897665
 50
346.24110979921471
 51
329.53046432565099
  0
ARC
  8
_e-0_
  6
CONTINUOUS
 62
    3
 10
254.65135590423403
 20
16.214309845353909
 40
1.1089756641867942
 50
94.502189492040685
 51
357.22978420280037
  0
LINE
  8
_e-0_
  6
CONTINUOUS
 62
    3
 10
255.6590356151147
 20
17.319863581905565
 11
254.56430442891502
 21
17.319863581905565
  0
LINE
  8
_e-0_
  6
CONTINUOUS
 62
    3
 10
255.75903561511469
 20
17.219863581905599
 11
255.75903561511469
 21
16.160712439988742
  0
ARC
  8
_e-0_
  6
CONTINUOUS
 62
    3
 10
255.6590356151147
 20
17.219863581905599
 40
0.1
 50
0
 51
90
  0
LINE
  8
_e-0_
  6
CONTINUOUS
 62
    3
 10
254.89703457355517
 20
18.829058742736094
 11
255.73930775458174
 21
18.829058742736094
  0
ARC
  8
_e-0_
  6
CONTINUOUS
 62
    3
 10
254.6966285661204
 20
16.267716163604518
 40
2.5691707563897665
 50
85.526146014136969
 51
347.40557840019874
  0
LINE
  8
_e-0_
  6
CONTINUOUS
 62
    3
 10
255.73930775458174
 20
20.912865853712901
 11
255.73930775458174
 21
18.829058742736094
  0
ARC
  8
_e-0_
  6
CONTINUOUS
 62
    3
 10
255.83930775458173
 20
20.912865853712901
 40
0.1
 50
90
 51
180
  0
LINE
  8
_e-0_
  6
CONTINUOUS
 62
    3
 10
257.20397992563613
 20
20.912865853712901
 11
257.20397992563613
 21
15.707513043814088
  0
LINE
  8
_e-0_
  6
CONTINUOUS
 62
    3
 10
257.10397992563616
 20
21.012865853712895
 11
255.83930775458173
 21
21.012865853712895
  0
ARC
  8
_e-0_
  6
CONTINUOUS
 62
    3
 10
257.10397992563616
 20
20.912865853712901
 40
0.1
 50
0
 51
90
  0
CIRCLE
  8
_e-0_
  6
CONTINUOUS
 62
    3
 10
260.74932845795831
 20
16.261858771142584
 40
1.333773795583065
  0
CIRCLE
  8
_e-0_
  6
CONTINUOUS
 62
    3
 10
260.72095671322085
 20
16.2334870264051
 40
2.5691707563897665
  0
ARC
  8
_e-0_
  6
CONTINUOUS
 62
    3
 10
236.13056445788686
 20
18.356108960512415
 40
0.5
 50
90
 51
106.05338143786268
  0
ARC
  8
_e-0_
  6
CONTINUOUS
 62
    3
 10
236.13056445788686
 20
18.356108960512415
 40
0.5
 50
90
 51
106.05338143786268
  0
ARC
  8
_e-0_
  6
CONTINUOUS
 62
    3
 10
236.13056445788686
 20
18.356108960512415
 40
0.5
 50
90
 51
106.05338143786268
  0
ARC
  8
_e-0_
  6
CONTINUOUS
 62
    3
 10
236.13056445788686
 20
18.356108960512415
 40
0.5
 50
90
 51
106.05338143786268
  0
LINE
  8
_e-0_
  6
CONTINUOUS
 62
    7
 10
234.63470804331015
 20
17.959716504486777
 11
236.85044577934553
 21
18.766179087344028
  0
LINE
  8
_e-0_
  6
CONTINUOUS
 62
    7
 10
236.12415063076144
 20
17.969740385729494
 11
237.65205845613303
 21
18.525853354867166
  0
LINE
  8
_e-0_
  6
CONTINUOUS
 62
    7
 10
234.17511550984832
 20
17.260349616177705
 11
236.12415063076144
 21
17.969740385729494
  0
LINE
  8
_e-0_
  6
CONTINUOUS
 62
    7
 10
233.99278406436087
 20
16.661897511011602
 11
235.72356669233164
 21
17.291850869577984
  0
LINE
  8
_e-0_
  6
CONTINUOUS
 62
    7
 10
233.9561356655227
 20
16.116469698463049
 11
235.26357267551816
 21
16.592337853279389
  0
LINE
  8
_e-0_
  6
CONTINUOUS
 62
    7
 10
234.02704529847875
 20
15.610189807943811
 11
235.2325779731166
 21
16.0489678179473
  0
LINE
  8
_e-0_
  6
CONTINUOUS
 62
    7
 10
234.19204823498941
 20
15.138157079162255
 11
235.39794571535693
 21
15.577067867592631
  0
LINE
  8
_e-0_
  6
CONTINUOUS
 62
    7
 10
234.4504128974107
 20
14.700105239631881
 11
235.75649436711711
 21
15.175480018131679
  0
LINE
  8
_e-0_
  6
CONTINUOUS
 62
    7
 10
234.81361647674009
 20
14.300211645248765
 11
236.49879954656799
 21
14.913568121955449
  0
LINE
  8
_e-0_
  6
CONTINUOUS
 62
    7
 10
235.31501292054062
 20
13.950616140121155
 11
237.52534753949123
 21
14.755112149187283
  0
LINE
  8
_e-0_
  6
CONTINUOUS
 62
    7
 10
236.06217579801264
 20
13.690472301431668
 11
237.53071030149837
 21
14.224975148693374
  0
LINE
  8
_e-0_
  6
CONTINUOUS
 62
    7
 10
237.53071030149837
 20
14.224975148693374
 11
238.50115931457403
 21
14.578189703325932
  0
LINE
  8
_e-0_
  6
CONTINUOUS
 62
    7
 10
237.44001538198344
 20
14.724053783828736
 11
238.90630204872039
 21
15.257738485422379
  0
LINE
  8
_e-0_
  6
CONTINUOUS
 62
    7
 10
237.44883804748508
 20
15.259353857696169
 11
239.06567834919525
 21
15.847835601080646
  0
LINE
  8
_e-0_
  6
CONTINUOUS
 62
    7
 10
237.84912308361026
 20
15.937134582305873
 11
239.08686178519897
 21
16.387634627483464
  0
LINE
  8
_e-0_
  6
CONTINUOUS
 62
    7
 10
237.86565159204477
 20
16.475239353630797
 11
239.00320630429459
 21
16.889275408738967
  0
LINE
  8
_e-0_
  6
CONTINUOUS
 62
    7
 10
236.51397018509305
 20
17.57953421400316
 11
238.17641004494612
 21
18.184612839247364
  0
LINE
  8
_e-0_
  6
CONTINUOUS
 62
    7
 10
237.3159843452322
 20
17.339354609515908
 11
238.55507858710996
 21
17.790348031010012
  0
LINE
  8
_e-0_
  6
CONTINUOUS
 62
    7
 10
239.94939617252578
 20
18.297838129215278
 11
241.40119690553086
 21
18.826250382114977
  0
LINE
  8
_e-0_
  6
CONTINUOUS
 62
    7
 10
239.94939617252578
 20
17.765749242977335
 11
242.83670442872124
 21
18.816643505383524
  0
LINE
  8
_e-0_
  6
CONTINUOUS
 62
    7
 10
239.94939617252578
 20
17.233660356739392
 11
243.67743097980667
 21
18.590554058897964
  0
LINE
  8
_e-0_
  6
CONTINUOUS
 62
    7
 10
239.94939617252578
 20
16.701571470501448
 11
244.21110032081054
 21
18.252704927725858
  0
LINE
  8
_e-0_
  6
CONTINUOUS
 62
    7
 10
239.94939617252578
 20
16.169482584263505
 11
241.48569307536689
 21
16.728648927893004
  0
LINE
  8
_e-0_
  6
CONTINUOUS
 62
    7
 10
242.87090082786238
 20
17.232823318076128
 11
244.59244086202585
 21
17.85941264760919
  0
LINE
  8
_e-0_
  6
CONTINUOUS
 62
    7
 10
239.94939617252578
 20
15.637393698025562
 11
241.48569307536689
 21
16.196560041655061
  0
LINE
  8
_e-0_
  6
CONTINUOUS
 62
    7
 10
240.33398935234458
 20
13.649018622829544
 11
241.48569307536689
 21
14.068204496703231
  0
LINE
  8
_e-0_
  6
CONTINUOUS
 62
    7
 10
239.94939617252578
 20
14.041127039311675
 11
241.48569307536689
 21
14.600293382941202
  0
LINE
  8
_e-0_
  6
CONTINUOUS
 62
    7
 10
239.94939617252578
 20
14.573215925549646
 11
241.48569307536689
 21
15.132382269179146
  0
LINE
  8
_e-0_
  6
CONTINUOUS
 62
    7
 10
239.94939617252578
 20
15.10530481178759
 11
241.48569307536689
 21
15.664471155417118
  0
LINE
  8
_e-0_
  6
CONTINUOUS
 62
    7
 10
243.62585234464268
 20
15.9113365397844
 11
245.11774760289304
 21
16.45434200643038
  0
LINE
  8
_e-0_
  6
CONTINUOUS
 62
    7
 10
243.62585234464268
 20
15.379247653546485
 11
245.11774760289304
 21
15.922253120192465
  0
LINE
  8
_e-0_
  6
CONTINUOUS
 62
    7
 10
243.61050475653911
 20
16.437839360784892
 11
245.03687179376248
 21
16.956994505472636
  0
LINE
  8
_e-0_
  6
CONTINUOUS
 62
    7
 10
243.62585234464268
 20
14.847158767308542
 11
245.11774760289304
 21
15.390164233954521
  0
LINE
  8
_e-0_
  6
CONTINUOUS
 62
    7
 10
243.62585234464268
 20
14.31506988107057
 11
245.11774760289304
 21
14.85807534771655
  0
LINE
  8
_e-0_
  6
CONTINUOUS
 62
    7
 10
243.62585234464268
 20
13.782980994832598
 11
245.11774760289304
 21
14.325986461478606
  0
LINE
  8
_e-0_
  6
CONTINUOUS
 62
    7
 10
244.71969595258929
 20
13.649018622829544
 11
245.11774760289304
 21
13.793897575240634
  0
LINE
  8
_e-0_
  6
CONTINUOUS
 62
    7
 10
243.40189024056155
 20
16.893998772771169
 11
244.86296862431447
 21
17.425787814386978
  0
LINE
  8
_e-0_
  6
CONTINUOUS
 62
    7
 10
246.91883842563339
 20
18.174063227593791
 11
248.77135419125713
 21
18.848323824789645
  0
LINE
  8
_e-0_
  6
CONTINUOUS
 62
    7
 10
246.36316388937825
 20
17.439725350219305
 11
249.66904887083791
 21
18.642969081378254
  0
LINE
  8
_e-0_
  6
CONTINUOUS
 62
    7
 10
246.14628990865918
 20
16.828700790412767
 11
250.22794299488265
 21
18.314301020398858
  0
LINE
  8
_e-0_
  6
CONTINUOUS
 62
    7
 10
246.14992419870631
 20
16.297934677574687
 11
247.39894671720023
 21
16.752541696234658
  0
LINE
  8
_e-0_
  6
CONTINUOUS
 62
    7
 10
249.21508316310541
 20
17.413561303910114
 11
250.62885679576882
 21
17.928132824190015
  0
LINE
  8
_e-0_
  6
CONTINUOUS
 62
    7
 10
249.6692727859525
 20
17.046783921101109
 11
250.91784918759253
 21
17.501228566505261
  0
LINE
  8
_e-0_
  6
CONTINUOUS
 62
    7
 10
246.32093427036915
 20
15.828088367181749
 11
248.84793399340492
 21
16.747841048365671
  0
LINE
  8
_e-0_
  6
CONTINUOUS
 62
    7
 10
246.28888794596255
 20
15.284335572742151
 11
251.11140538755623
 21
17.039588375711787
  0
LINE
  8
_e-0_
  6
CONTINUOUS
 62
    7
 10
246.53002917314321
 20
14.8400149154524
 11
247.69283430630943
 21
15.263241372176821
  0
LINE
  8
_e-0_
  6
CONTINUOUS
 62
    7
 10
248.81225212892721
 20
15.670676139316753
 11
251.21228430370121
 21
16.544216412215632
  0
LINE
  8
_e-0_
  6
CONTINUOUS
 62
    7
 10
250.27415432900878
 20
15.670676139316753
 11
251.21151621126958
 21
16.011847963195407
  0
LINE
  8
_e-0_
  6
CONTINUOUS
 62
    7
 10
246.87281740890051
 20
14.432690743686691
 11
248.25550140975403
 21
14.935946563393486
  0
LINE
  8
_e-0_
  6
CONTINUOUS
 62
    7
 10
247.34508580764293
 20
14.072493497175571
 11
250.24973614552445
 21
15.129699761115659
  0
LINE
  8
_e-0_
  6
CONTINUOUS
 62
    7
 10
248.03069495598271
 20
13.789945933273884
 11
250.73767895083869
 21
14.775207532036432
  0
LINE
  8
_e-0_
  6
CONTINUOUS
 62
    7
 10
255.26231690921716
 20
13.761596638527407
 11
255.87418873346697
 21
13.984299769740459
  0
LINE
  8
_e-0_
  6
CONTINUOUS
 62
    7
 10
253.94012676014827
 20
13.812447666464265
 11
256.85435873921022
 21
14.873141362589478
  0
LINE
  8
_e-0_
  6
CONTINUOUS
 62
    7
 10
253.29976800904731
 20
14.111465028049622
 11
257.15269734698551
 21
15.513816621790056
  0
LINE
  8
_e-0_
  6
CONTINUOUS
 62
    7
 10
252.2081864354775
 20
16.906695144424446
 11
257.20397992563613
 21
18.725015271383
  0
LINE
  8
_e-0_
  6
CONTINUOUS
 62
    7
 10
252.45896829795606
 20
17.530061163898437
 11
257.20397992563613
 21
19.257104157620943
  0
LINE
  8
_e-0_
  6
CONTINUOUS
 62
    7
 10
255.73930775458174
 20
20.85236262935092
 11
256.18028673926596
 21
21.012865853712895
  0
LINE
  8
_e-0_
  6
CONTINUOUS
 62
    7
 10
255.73930775458174
 20
20.320273743112977
 11
257.20397992563613
 21
20.853370816334802
  0
LINE
  8
_e-0_
  6
CONTINUOUS
 62
    7
 10
255.73930775458174
 20
19.788184856875005
 11
257.20397992563613
 21
20.321281930096859
  0
LINE
  8
_e-0_
  6
CONTINUOUS
 62
    7
 10
255.73930775458174
 20
19.256095970637034
 11
257.20397992563613
 21
19.789193043858915
  0
LINE
  8
_e-0_
  6
CONTINUOUS
 62
    7
 10
253.13600319802563
 20
18.308570601321093
 11
254.58030101140195
 21
18.834252014805827
  0
LINE
  8
_e-0_
  6
CONTINUOUS
 62
    7
 10
254.80525958796985
 20
17.319863581905565
 11
257.20397992563613
 21
18.192926385145057
  0
LINE
  8
_e-0_
  6
CONTINUOUS
 62
    7
 10
252.12864022906336
 20
16.345653806802943
 11
253.83752084417085
 21
16.967635484616607
  0
LINE
  8
_e-0_
  6
CONTINUOUS
 62
    7
 10
252.16554107736331
 20
15.826995730965364
 11
253.54846691325354
 21
16.330339571427089
  0
LINE
  8
_e-0_
  6
CONTINUOUS
 62
    7
 10
252.29940114609524
 20
15.343627925302655
 11
253.61404517985766
 21
15.822119222247806
  0
LINE
  8
_e-0_
  6
CONTINUOUS
 62
    7
 10
252.52563435788044
 20
14.893881194156961
 11
253.90354883761395
 21
15.395401050144357
  0
LINE
  8
_e-0_
  6
CONTINUOUS
 62
    7
 10
252.85117312327798
 20
14.480278728623488
 11
254.57561370732085
 21
15.107923771975691
  0
LINE
  8
_e-0_
  6
CONTINUOUS
 62
    7
 10
255.42054905278624
 20
15.415455087604527
 11
257.20397992563613
 21
16.064570840193255
  0
LINE
  8
_e-0_
  6
CONTINUOUS
 62
    7
 10
255.7505937791675
 20
16.067670430221767
 11
257.20397992563613
 21
16.596659726431198
  0
LINE
  8
_e-0_
  6
CONTINUOUS
 62
    7
 10
255.75903561511469
 20
16.602831893467055
 11
257.20397992563613
 21
17.128748612669141
  0
LINE
  8
_e-0_
  6
CONTINUOUS
 62
    7
 10
255.75903561511469
 20
17.134920779704998
 11
257.20397992563613
 21
17.660837498907085
  0
LINE
  8
_e-0_
  6
CONTINUOUS
 62
    7
 10
259.51467628188601
 20
18.501862193009401
 11
260.1869376832742
 21
18.746545332760774
  0
LINE
  8
_e-0_
  6
CONTINUOUS
 62
    7
 10
258.55936460434281
 20
17.622068291698809
 11
261.48426950414307
 21
18.686646613285404
  0
LINE
  8
_e-0_
  6
CONTINUOUS
 62
    7
 10
260.8518117497361
 20
13.667650840108905
 11
262.27000364868069
 21
14.183830477802189
  0
LINE
  8
_e-0_
  6
CONTINUOUS
 62
    7
 10
259.82444761483162
 20
13.825809761488983
 11
262.9553476402595
 21
14.965364177207987
  0
LINE
  8
_e-0_
  6
CONTINUOUS
 62
    7
 10
258.26330921261529
 20
16.982224055178022
 11
262.12234503919626
 21
18.386798229020314
  0
LINE
  8
_e-0_
  6
CONTINUOUS
 62
    7
 10
259.22968185805405
 20
14.141421615899105
 11
263.20809325371146
 21
15.589444943583799
  0
LINE
  8
_e-0_
  6
CONTINUOUS
 62
    7
 10
258.80695495912834
 20
14.519650493704432
 11
260.2246111940276
 21
15.035635165629656
  0
LINE
  8
_e-0_
  6
CONTINUOUS
 62
    7
 10
258.50094293819529
 20
14.940360112995108
 11
259.7390933511582
 21
15.391010008858017
  0
LINE
  8
_e-0_
  6
CONTINUOUS
 62
    7
 10
258.29198299836929
 20
15.396393800982366
 11
259.48695180063708
 21
15.831326875884542
  0
LINE
  8
_e-0_
  6
CONTINUOUS
 62
    7
 10
258.17538748691902
 20
15.886045391603374
 11
259.41774270088018
 21
16.338225709870641
  0
LINE
  8
_e-0_
  6
CONTINUOUS
 62
    7
 10
258.15798124660102
 20
16.411798924475078
 11
259.59853391150812
 21
16.936117215394091
  0
LINE
  8
_e-0_
  6
CONTINUOUS
 62
    7
 10
261.1974832517468
 20
17.518087181340547
 11
262.5696931485362
 21
18.017530738937352
  0
LINE
  8
_e-0_
  6
CONTINUOUS
 62
    7
 10
261.72029460570036
 20
17.176286066078091
 11
262.89430705154381
 21
17.603591651023151
  0
LINE
  8
_e-0_
  6
CONTINUOUS
 62
    7
 10
261.99310564926912
 20
16.743492279278257
 11
263.11973168341921
 21
17.153550620858254
  0
LINE
  8
_e-0_
  6
CONTINUOUS
 62
    7
 10
262.08298424207367
 20
16.244116525518904
 11
263.25279188691888
 21
16.669891688059578
  0
LINE
  8
_e-0_
  6
CONTINUOUS
 62
    7
 10
261.93948654252989
 20
15.65979874796136
 11
263.28880000931144
 21
16.150908686564349
  0
TEXT
  8
_e-0_
 62
    7
 10
264.28586825750176
 20
18.056247057449553
 40
3.5
 41
0.5714285714285712
 50
0
  1
ワンド
  0
TEXT
  8
_e-0_
 62
    7
 10
264.9704510014904
 20
14.70179161190498
 40
3
 41
0.6666666666666666
 50
0
  1
株式
  0
TEXT
  8
_e-0_
 62
    7
 10
264.90199272709156
 20
11.895002361551377
 40
3
 41
0.6666666666666666
 50
0
  1
会社
  0
TEXT
  8
_f-8_
 62
    7
 10
306.87553648068671
 20
13.702789699570814
 40
3.5
 41
0.5714285714285712
 50
0
  1
２０２３.０５.０１
  0
TEXT
  8
_f-8_
 62
    7
 10
358.19999999999998
 20
14.5
 40
3
 41
0.7333333333333332
 50
0
  1
Ｔ．Ｋ
  0
TEXT
  8
_0-d_
 62
    7
 10
-112.39999999999997
 20
-1178.125
 40
4.5
 41
0.8
 50
0
  1
上ブタ　大
  0
LINE
  8
_1-2_
  6
CONTINUOUS
 62
    7
 10
336.04289462056163
 20
51.847762262895201
 11
336.04289462056163
 21
29.847762262895201
  0
TEXT
  8
_1-2_
 62
    7
 10
320.21429462056164
 20
43.333362262895207
 40
6.1440002441406251
 41
0.6506851115847048
 50
0
  1
材　質
  0
TEXT
  8
_1-2_
 62
    7
 10
320.21429462056164
 20
32.333362262895207
 40
6.1440002441406251
 41
0.6506851115847048
 50
0
  1
色　調
  0
LINE
  8
_1-2_
  6
CONTINUOUS
 62
    7
 10
316.04289462056163
 20
51.847762262895201
 11
316.04289462056163
 21
29.847762262895201
  0
LINE
  8
_1-2_
  6
CONTINUOUS
 62
    7
 10
409.49259435265202
 20
29.847762262895201
 11
409.49259435265202
 21
51.847762262895201
  0
LINE
  8
_1-2_
  6
CONTINUOUS
 62
    7
 10
316.04289462056163
 20
40.847762262895201
 11
409.49259435265202
 21
40.847762262895201
  0
LINE
  8
_1-2_
  6
CONTINUOUS
 62
    7
 10
316.04289462056163
 20
51.847762262895201
 11
409.49259435265202
 21
51.847762262895201
  0
LINE
  8
_1-2_
  6
CONTINUOUS
 62
    7
 10
316.04289462056163
 20
29.847762262895201
 11
409.49259435265202
 21
29.847762262895201
  0
TEXT
  8
_1-2_
 62
    7
 10
344.375
 20
42.875000000000014
 40
6.1440002441406251
 41
0.6506851115847048
 50
0
  1
ＰＰ
  0
ARC
  8
_0-d_
  6
CONTINUOUS
 62
    4
 10
136.97240620388356
 20
167.54038094660194
 40
57
 50
104.26806399999998
 51
75.731936000000018
  0
LINE
  8
_0-d_
  6
CONTINUOUS
 62
    4
 10
284.47240620388356
 20
168.54038094660194
 11
284.47240620388356
 21
225.04015594660194
  0
LINE
  8
_0-d_
  6
CONTINUOUS
 62
    4
 10
316.67240620388355
 20
168.54038094660194
 11
316.67240620388355
 21
224.08448194660195
  0
LINE
  8
_0-d_
  6
CONTINUOUS
 62
    4
 10
322.91365520388353
 20
221.80881794660194
 11
318.73664620388353
 21
225.98582694660194
  0
LINE
  8
_0-d_
  6
CONTINUOUS
 62
    4
 10
322.97240620388356
 20
220.33585294660196
 11
317.23973420388358
 21
226.06852494660193
  0
LINE
  8
_0-d_
  6
CONTINUOUS
 62
    4
 10
322.97240620388356
 20
218.92163894660194
 11
320.97240620388356
 21
220.92163894660194
  0
LINE
  8
_0-d_
  6
CONTINUOUS
 62
    4
 10
317.84434620388356
 20
224.04969994660194
 11
315.78226420388352
 21
226.11178194660192
  0
LINE
  8
_0-d_
  6
CONTINUOUS
 62
    4
 10
315.09084220388353
 20
226.80320294660191
 11
314.40876020388355
 21
227.48528494660195
  0
LINE
  8
_0-d_
  6
CONTINUOUS
 62
    4
 10
322.97240620388356
 20
217.50742594660192
 11
320.97240620388356
 21
219.50742594660192
  0
LINE
  8
_0-d_
  6
CONTINUOUS
 62
    4
 10
316.38687520388356
 20
224.09295694660193
 11
313.96544820388356
 21
226.51438394660192
  0
LINE
  8
_0-d_
  6
CONTINUOUS
 62
    4
 10
322.97240620388356
 20
216.09321194660196
 11
320.97240620388356
 21
218.09321194660196
  0
LINE
  8
_0-d_
  6
CONTINUOUS
 62
    4
 10
314.92940520388356
 20
224.13621294660191
 11
312.86732320388352
 21
226.19829494660194
  0
LINE
  8
_0-d_
  6
CONTINUOUS
 62
    4
 10
312.33166520388357
 20
226.73395294660195
 11
311.47364520388356
 21
227.59197394660196
  0
LINE
  8
_0-d_
  6
CONTINUOUS
 62
    4
 10
322.97240620388356
 20
214.67899894660195
 11
320.97240620388356
 21
216.67899894660195
  0
LINE
  8
_0-d_
  6
CONTINUOUS
 62
    4
 10
313.47193520388356
 20
224.17946994660195
 11
311.14187920388354
 21
226.50952594660196
  0
LINE
  8
_0-d_
  6
CONTINUOUS
 62
    4
 10
322.97240620388356
 20
213.26478494660193
 11
320.97240620388356
 21
215.26478494660193
  0
LINE
  8
_0-d_
  6
CONTINUOUS
 62
    4
 10
312.01446420388356
 20
224.22272694660193
 11
309.95238320388352
 21
226.28480894660197
  0
LINE
  8
_0-d_
  6
CONTINUOUS
 62
    4
 10
322.97240620388356
 20
211.85057094660191
 11
320.97240620388356
 21
213.85057094660191
  0
LINE
  8
_0-d_
  6
CONTINUOUS
 62
    4
 10
310.55699420388356
 20
224.26598294660192
 11
308.49491220388358
 21
226.32806494660195
  0
LINE
  8
_0-d_
  6
CONTINUOUS
 62
    4
 10
322.97240620388356
 20
210.43635794660195
 11
320.97240620388356
 21
212.43635794660195
  0
LINE
  8
_0-d_
  6
CONTINUOUS
 62
    4
 10
309.09952420388356
 20
224.30923994660196
 11
307.03744220388352
 21
226.37132194660193
  0
LINE
  8
_0-d_
  6
CONTINUOUS
 62
    4
 10
322.97240620388356
 20
209.02214394660194
 11
320.97240620388356
 21
211.02214394660194
  0
LINE
  8
_0-d_
  6
CONTINUOUS
 62
    4
 10
307.64205420388356
 20
224.35249694660194
 11
305.57997220388358
 21
226.41457894660192
  0
LINE
  8
_0-d_
  6
CONTINUOUS
 62
    4
 10
322.97240620388356
 20
207.60793094660192
 11
320.97240620388356
 21
209.60793094660192
  0
LINE
  8
_0-d_
  6
CONTINUOUS
 62
    4
 10
306.18458320388356
 20
224.39575394660192
 11
304.12250220388352
 21
226.45783494660196
  0
LINE
  8
_0-d_
  6
CONTINUOUS
 62
    4
 10
322.97240620388356
 20
206.19371694660196
 11
320.97240620388356
 21
208.19371694660196
  0
LINE
  8
_0-d_
  6
CONTINUOUS
 62
    4
 10
304.72711320388356
 20
224.43900994660191
 11
302.66503120388358
 21
226.50109194660194
  0
LINE
  8
_0-d_
  6
CONTINUOUS
 62
    4
 10
322.97240620388356
 20
204.77950394660194
 11
320.97240620388356
 21
206.77950394660194
  0
LINE
  8
_0-d_
  6
CONTINUOUS
 62
    4
 10
303.26964320388356
 20
224.48226694660195
 11
301.20756120388352
 21
226.54434894660192
  0
LINE
  8
_0-d_
  6
CONTINUOUS
 62
    4
 10
322.97240620388356
 20
203.36528994660193
 11
320.97240620388356
 21
205.36528994660193
  0
LINE
  8
_0-d_
  6
CONTINUOUS
 62
    4
 10
301.81217320388356
 20
224.52552394660193
 11
299.75009120388358
 21
226.58760594660196
  0
LINE
  8
_0-d_
  6
CONTINUOUS
 62
    4
 10
322.97240620388356
 20
201.95107694660191
 11
320.97240620388356
 21
203.95107694660191
  0
LINE
  8
_0-d_
  6
CONTINUOUS
 62
    4
 10
300.35470220388356
 20
224.56877994660192
 11
298.29262020388352
 21
226.63086194660195
  0
LINE
  8
_0-d_
  6
CONTINUOUS
 62
    4
 10
322.97240620388356
 20
200.53686294660195
 11
320.97240620388356
 21
202.53686294660195
  0
LINE
  8
_0-d_
  6
CONTINUOUS
 62
    4
 10
298.89723220388356
 20
224.61203694660196
 11
296.83515020388358
 21
226.67411894660193
  0
LINE
  8
_0-d_
  6
CONTINUOUS
 62
    4
 10
322.97240620388356
 20
199.12264894660194
 11
320.97240620388356
 21
201.12264894660194
  0
LINE
  8
_0-d_
  6
CONTINUOUS
 62
    4
 10
297.43976220388356
 20
224.65529394660194
 11
295.37768020388352
 21
226.71737594660191
  0
LINE
  8
_0-d_
  6
CONTINUOUS
 62
    4
 10
322.97240620388356
 20
197.70843594660192
 11
320.97240620388356
 21
199.70843594660192
  0
LINE
  8
_0-d_
  6
CONTINUOUS
 62
    4
 10
295.98229120388356
 20
224.69855094660192
 11
293.92021020388358
 21
226.76063194660196
  0
LINE
  8
_0-d_
  6
CONTINUOUS
 62
    4
 10
322.97240620388356
 20
196.29422194660196
 11
320.97240620388356
 21
198.29422194660196
  0
LINE
  8
_0-d_
  6
CONTINUOUS
 62
    4
 10
294.52482120388356
 20
224.74180694660196
 11
291.67575520388356
 21
227.59087294660196
  0
LINE
  8
_0-d_
  6
CONTINUOUS
 62
    4
 10
322.97240620388356
 20
194.88000894660194
 11
320.97240620388356
 21
196.88000894660194
  0
LINE
  8
_0-d_
  6
CONTINUOUS
 62
    4
 10
293.06735120388356
 20
224.78506394660195
 11
291.00526920388358
 21
226.84714594660192
  0
LINE
  8
_0-d_
  6
CONTINUOUS
 62
    4
 10
289.74026320388355
 20
228.11215194660195
 11
289.47467920388356
 21
228.37773594660194
  0
LINE
  8
_0-d_
  6
CONTINUOUS
 62
    4
 10
322.97240620388356
 20
193.46579494660193
 11
320.97240620388356
 21
195.46579494660193
  0
LINE
  8
_0-d_
  6
CONTINUOUS
 62
    4
 10
291.60988120388356
 20
224.82832094660193
 11
288.85218620388354
 21
227.58601494660194
  0
LINE
  8
_0-d_
  6
CONTINUOUS
 62
    4
 10
322.97240620388356
 20
192.05158194660191
 11
320.97240620388356
 21
194.05158194660191
  0
LINE
  8
_0-d_
  6
CONTINUOUS
 62
    4
 10
290.15241020388356
 20
224.87157694660191
 11
288.09032920388358
 21
226.93365894660195
  0
LINE
  8
_0-d_
  6
CONTINUOUS
 62
    4
 10
286.98142920388352
 20
228.04255794660195
 11
286.55776420388355
 21
228.46622394660192
  0
LINE
  8
_0-d_
  6
CONTINUOUS
 62
    4
 10
322.97240620388356
 20
190.63736794660195
 11
320.97240620388356
 21
192.63736794660195
  0
LINE
  8
_0-d_
  6
CONTINUOUS
 62
    4
 10
288.69494020388356
 20
224.91483394660195
 11
286.02861720388352
 21
227.58115694660193
  0
LINE
  8
_0-d_
  6
CONTINUOUS
 62
    4
 10
322.97240620388356
 20
189.22315394660193
 11
320.97240620388356
 21
191.22315394660193
  0
LINE
  8
_0-d_
  6
CONTINUOUS
 62
    4
 10
287.23747020388356
 20
224.95809094660194
 11
285.17538820388358
 21
227.02017294660191
  0
LINE
  8
_0-d_
  6
CONTINUOUS
 62
    4
 10
284.47240620388356
 20
227.72315394660193
 11
282.8378912038836
 21
229.35766994660195
  0
LINE
  8
_0-d_
  6
CONTINUOUS
 62
    4
 10
322.97240620388356
 20
187.80894094660192
 11
320.97240620388356
 21
189.80894094660192
  0
LINE
  8
_0-d_
  6
CONTINUOUS
 62
    4
 10
285.78000020388356
 20
225.00134694660192
 11
280.00946420388356
 21
230.77188294660192
  0
LINE
  8
_0-d_
  6
CONTINUOUS
 62
    4
 10
279.97240620388356
 20
230.80894094660192
 11
278.24096620388354
 21
232.54038094660194
  0
LINE
  8
_0-d_
  6
CONTINUOUS
 62
    4
 10
275.94239020388351
 20
234.83895694660196
 11
274.77098220388359
 21
236.01036494660195
  0
LINE
  8
_0-d_
  6
CONTINUOUS
 62
    4
 10
322.97240620388356
 20
186.39472694660196
 11
320.97240620388356
 21
188.39472694660196
  0
LINE
  8
_0-d_
  6
CONTINUOUS
 62
    4
 10
284.32017320388354
 20
225.04696094660192
 11
276.82675320388352
 21
232.54038094660194
  0
LINE
  8
_0-d_
  6
CONTINUOUS
 62
    4
 10
275.97240620388356
 20
233.39472694660196
 11
273.60382120388356
 21
235.76331194660195
  0
LINE
  8
_0-d_
  6
CONTINUOUS
 62
    4
 10
322.97240620388356
 20
184.98051394660194
 11
320.97240620388356
 21
186.98051394660194
  0
LINE
  8
_0-d_
  6
CONTINUOUS
 62
    4
 10
282.83978720388358
 20
225.11313294660192
 11
281.47246820388352
 21
226.48045094660193
  0
LINE
  8
_0-d_
  6
CONTINUOUS
 62
    4
 10
280.85910720388358
 20
227.09381294660192
 11
273.02368520388358
 21
234.92923494660192
  0
LINE
  8
_0-d_
  6
CONTINUOUS
 62
    4
 10
322.97240620388356
 20
183.56629994660193
 11
320.97240620388356
 21
185.56629994660193
  0
LINE
  8
_0-d_
  6
CONTINUOUS
 62
    4
 10
281.47421920388353
 20
225.06448694660195
 11
281.47246820388352
 21
225.06623794660191
  0
LINE
  8
_0-d_
  6
CONTINUOUS
 62
    4
 10
279.17474520388356
 20
227.36396194660193
 11
277.76758220388353
 21
228.77112494660195
  0
LINE
  8
_0-d_
  6
CONTINUOUS
 62
    4
 10
276.49832520388355
 20
230.04038094660194
 11
272.90755320388359
 21
233.63115394660195
  0
LINE
  8
_0-d_
  6
CONTINUOUS
 62
    4
 10
322.97240620388356
 20
182.15208694660196
 11
320.97240620388356
 21
184.15208694660196
  0
LINE
  8
_0-d_
  6
CONTINUOUS
 62
    4
 10
281.47417520388353
 20
223.65031794660194
 11
281.47246820388352
 21
223.65202394660195
  0
LINE
  8
_0-d_
  6
CONTINUOUS
 62
    4
 10
275.08411220388359
 20
230.04038094660194
 11
272.81803120388354
 21
232.30646194660192
  0
LINE
  8
_0-d_
  6
CONTINUOUS
 62
    4
 10
322.97240620388356
 20
180.73787294660195
 11
320.97240620388356
 21
182.73787294660195
  0
LINE
  8
_0-d_
  6
CONTINUOUS
 62
    4
 10
281.47413120388353
 20
222.23614794660193
 11
281.47246820388352
 21
222.23781094660193
  0
LINE
  8
_0-d_
  6
CONTINUOUS
 62
    4
 10
274.62773420388356
 20
229.08254494660195
 11
273.15541620388353
 21
230.55486294660192
  0
LINE
  8
_0-d_
  6
CONTINUOUS
 62
    4
 10
322.97240620388356
 20
179.32365994660193
 11
320.97240620388356
 21
181.32365994660193
  0
LINE
  8
_0-d_
  6
CONTINUOUS
 62
    4
 10
281.47408820388352
 20
220.82197794660191
 11
281.47246820388352
 21
220.82359694660192
  0
LINE
  8
_0-d_
  6
CONTINUOUS
 62
    4
 10
274.55698620388352
 20
227.73907994660191
 11
273.02557220388359
 21
229.27049294660196
  0
LINE
  8
_0-d_
  6
CONTINUOUS
 62
    4
 10
322.97240620388356
 20
177.90944594660192
 11
320.97240620388356
 21
179.90944594660192
  0
LINE
  8
_0-d_
  6
CONTINUOUS
 62
    4
 10
281.47404420388352
 20
219.40780794660196
 11
281.47246820388352
 21
219.40938394660196
  0
LINE
  8
_0-d_
  6
CONTINUOUS
 62
    4
 10
274.49204920388353
 20
226.38980294660194
 11
272.58301120388352
 21
228.29884094660195
  0
LINE
  8
_0-d_
  6
CONTINUOUS
 62
    4
 10
322.97240620388356
 20
176.49523194660196
 11
320.97240620388356
 21
178.49523194660196
  0
LINE
  8
_0-d_
  6
CONTINUOUS
 62
    4
 10
281.47400020388352
 20
217.99363894660194
 11
281.47246820388352
 21
217.99516994660194
  0
LINE
  8
_0-d_
  6
CONTINUOUS
 62
    4
 10
274.43299520388359
 20
225.03464294660193
 11
272.51607720388358
 21
226.95156094660194
  0
LINE
  8
_0-d_
  6
CONTINUOUS
 62
    4
 10
322.97240620388356
 20
175.08101894660194
 11
320.97240620388356
 21
177.08101894660194
  0
LINE
  8
_0-d_
  6
CONTINUOUS
 62
    4
 10
281.47395620388357
 20
216.57946894660193
 11
281.47246820388352
 21
216.58095694660192
  0
LINE
  8
_0-d_
  6
CONTINUOUS
 62
    4
 10
274.37989920388355
 20
223.67352594660195
 11
272.88797120388358
 21
225.16545394660192
  0
LINE
  8
_0-d_
  6
CONTINUOUS
 62
    4
 10
322.97240620388356
 20
173.66680494660192
 11
320.97240620388356
 21
175.66680494660192
  0
LINE
  8
_0-d_
  6
CONTINUOUS
 62
    4
 10
281.47391220388357
 20
215.16529894660192
 11
281.47246820388352
 21
215.16674294660191
  0
LINE
  8
_0-d_
  6
CONTINUOUS
 62
    4
 10
274.33283620388357
 20
222.30637494660192
 11
272.39973920388354
 21
224.23947294660194
  0
LINE
  8
_0-d_
  6
CONTINUOUS
 62
    4
 10
322.97240620388356
 20
172.25259194660196
 11
320.97240620388356
 21
174.25259194660196
  0
LINE
  8
_0-d_
  6
CONTINUOUS
 62
    4
 10
281.47386920388356
 20
213.75112894660196
 11
281.47246820388352
 21
213.75252894660195
  0
LINE
  8
_0-d_
  6
CONTINUOUS
 62
    4
 10
274.29188520388356
 20
220.93311294660196
 11
272.35048120388353
 21
222.87451694660194
  0
LINE
  8
_0-d_
  6
CONTINUOUS
 62
    4
 10
322.97240620388356
 20
170.83837794660195
 11
320.97240620388356
 21
172.83837794660195
  0
LINE
  8
_0-d_
  6
CONTINUOUS
 62
    4
 10
281.47382520388356
 20
212.33695994660195
 11
281.47246820388352
 21
212.33831594660193
  0
LINE
  8
_0-d_
  6
CONTINUOUS
 62
    4
 10
274.25712520388356
 20
219.55365994660195
 11
272.30726520388355
 21
221.50351894660195
  0
LINE
  8
_0-d_
  6
CONTINUOUS
 62
    4
 10
322.97240620388356
 20
169.42416494660193
 11
320.97240620388356
 21
171.42416494660193
  0
LINE
  8
_0-d_
  6
CONTINUOUS
 62
    4
 10
281.47378120388356
 20
210.92278994660193
 11
281.47246820388352
 21
210.92410194660192
  0
LINE
  8
_0-d_
  6
CONTINUOUS
 62
    4
 10
274.22863920388357
 20
218.16793194660192
 11
272.27017020388359
 21
220.12640094660196
  0
LINE
  8
_0-d_
  6
CONTINUOUS
 62
    4
 10
322.44197620388354
 20
168.54038094660194
 11
320.97240620388356
 21
170.00995094660191
  0
LINE
  8
_0-d_
  6
CONTINUOUS
 62
    4
 10
281.47373720388355
 20
209.50861994660192
 11
281.47246820388352
 21
209.50988894660196
  0
LINE
  8
_0-d_
  6
CONTINUOUS
 62
    4
 10
274.20651120388356
 20
216.77584594660191
 11
272.23927620388354
 21
218.74308194660193
  0
LINE
  8
_0-d_
  6
CONTINUOUS
 62
    4
 10
321.02776320388352
 20
168.54038094660194
 11
320.97240620388356
 21
168.59573694660195
  0
LINE
  8
_0-d_
  6
CONTINUOUS
 62
    4
 10
281.47369320388355
 20
208.09444994660196
 11
281.47246820388352
 21
208.09567494660194
  0
LINE
  8
_0-d_
  6
CONTINUOUS
 62
    4
 10
274.19082820388359
 20
215.37731494660192
 11
272.21466520388355
 21
217.35347894660196
  0
LINE
  8
_0-d_
  6
CONTINUOUS
 62
    4
 10
281.47365020388355
 20
206.68027994660195
 11
281.47246820388352
 21
206.68146194660192
  0
LINE
  8
_0-d_
  6
CONTINUOUS
 62
    4
 10
273.85690120388358
 20
214.29702894660192
 11
272.19642220388357
 21
215.95750794660193
  0
LINE
  8
_0-d_
  6
CONTINUOUS
 62
    4
 10
281.47360620388354
 20
205.26611094660194
 11
281.47246820388352
 21
205.26724794660196
  0
LINE
  8
_0-d_
  6
CONTINUOUS
 62
    4
 10
272.69933620388354
 20
214.04038094660194
 11
272.18463420388354
 21
214.55508194660194
  0
LINE
  8
_0-d_
  6
CONTINUOUS
 62
    4
 10
281.4735622038836
 20
203.85194094660192
 11
281.47246820388352
 21
203.85303394660195
  0
LINE
  8
_0-d_
  6
CONTINUOUS
 62
    4
 10
281.4735182038836
 20
202.43777094660191
 11
281.47246820388352
 21
202.43882094660193
  0
LINE
  8
_0-d_
  6
CONTINUOUS
 62
    4
 10
281.47347420388359
 20
201.02360094660195
 11
281.47246820388352
 21
201.02460694660192
  0
LINE
  8
_0-d_
  6
CONTINUOUS
 62
    4
 10
281.47343120388359
 20
199.60943194660194
 11
281.47246820388352
 21
199.61039394660195
  0
LINE
  8
_0-d_
  6
CONTINUOUS
 62
    4
 10
281.47338720388358
 20
198.19526194660193
 11
281.47246820388352
 21
198.19617994660194
  0
LINE
  8
_0-d_
  6
CONTINUOUS
 62
    4
 10
281.47334320388358
 20
196.78109194660191
 11
281.47246820388352
 21
196.78196694660192
  0
LINE
  8
_0-d_
  6
CONTINUOUS
 62
    4
 10
281.47329920388358
 20
195.36692194660196
 11
281.47246820388352
 21
195.36775294660196
  0
LINE
  8
_0-d_
  6
CONTINUOUS
 62
    4
 10
281.47325520388358
 20
193.95275294660194
 11
281.47246820388352
 21
193.95353994660194
  0
LINE
  8
_0-d_
  6
CONTINUOUS
 62
    4
 10
281.47321220388357
 20
192.53858294660193
 11
281.47246820388352
 21
192.53932594660193
  0
LINE
  8
_0-d_
  6
CONTINUOUS
 62
    4
 10
281.47316820388357
 20
191.12441294660192
 11
281.47246820388352
 21
191.12511194660191
  0
LINE
  8
_0-d_
  6
CONTINUOUS
 62
    4
 10
281.47312420388357
 20
189.71024294660196
 11
281.47246820388352
 21
189.71089894660195
  0
LINE
  8
_0-d_
  6
CONTINUOUS
 62
    4
 10
281.47308020388356
 20
188.29607294660195
 11
281.47246820388352
 21
188.29668494660194
  0
LINE
  8
_0-d_
  6
CONTINUOUS
 62
    4
 10
281.47303620388356
 20
186.88190394660193
 11
281.47246820388352
 21
186.88247194660192
  0
LINE
  8
_0-d_
  6
CONTINUOUS
 62
    4
 10
281.47299320388356
 20
185.46773394660192
 11
281.47246820388352
 21
185.46825794660196
  0
LINE
  8
_0-d_
  6
CONTINUOUS
 62
    4
 10
281.47294920388355
 20
184.05356394660196
 11
281.47246820388352
 21
184.05404494660194
  0
LINE
  8
_0-d_
  6
CONTINUOUS
 62
    4
 10
281.47290520388355
 20
182.63939394660195
 11
281.47246820388352
 21
182.63983094660193
  0
LINE
  8
_0-d_
  6
CONTINUOUS
 62
    4
 10
281.47286120388355
 20
181.22522494660194
 11
281.47246820388352
 21
181.22561694660191
  0
LINE
  8
_0-d_
  6
CONTINUOUS
 62
    4
 10
281.47281820388354
 20
179.81105494660192
 11
281.47246820388352
 21
179.81140394660195
  0
LINE
  8
_0-d_
  6
CONTINUOUS
 62
    4
 10
281.47277420388354
 20
178.39688494660191
 11
281.47246820388352
 21
178.39718994660194
  0
LINE
  8
_0-d_
  6
CONTINUOUS
 62
    4
 10
281.47273020388354
 20
176.98271494660195
 11
281.47246820388352
 21
176.98297694660192
  0
LINE
  8
_0-d_
  6
CONTINUOUS
 62
    4
 10
281.47268620388354
 20
175.56854594660194
 11
281.47246820388352
 21
175.56876294660196
  0
LINE
  8
_0-d_
  6
CONTINUOUS
 62
    4
 10
281.47264220388353
 20
174.15437594660193
 11
281.47246820388352
 21
174.15454994660194
  0
LINE
  8
_0-d_
  6
CONTINUOUS
 62
    4
 10
281.47259920388353
 20
172.74020594660191
 11
281.47246820388352
 21
172.74033594660193
  0
LINE
  8
_0-d_
  6
CONTINUOUS
 62
    4
 10
281.47255520388353
 20
171.32603594660196
 11
281.47246820388352
 21
171.32612294660196
  0
LINE
  8
_0-d_
  6
CONTINUOUS
 62
    4
 10
281.47251120388352
 20
169.91186694660194
 11
281.47246820388352
 21
169.91190894660195
  0
ARC
  8
_0-d_
  6
CONTINUOUS
 62
    4
 10
136.97240620388356
 20
228.04038094660194
 40
13.5
 50
270
 51
357.87744900000001
  0
ARC
  8
_0-d_
  6
CONTINUOUS
 62
    4
 10
136.97240620388356
 20
228.04038094660194
 40
13.5
 50
182.12255099999998
 51
270
  0
LINE
  8
_0-d_
  6
CONTINUOUS
 62
    7
 10
278.97240620388356
 20
232.54038094660194
 11
275.97240620388356
 21
232.54038094660194
  0
LINE
  8
_0-d_
  6
CONTINUOUS
 62
    7
 10
284.47246820388352
 20
228.54038094660194
 11
279.97240620388356
 21
230.79041194660192
  0
LINE
  8
_0-d_
  6
CONTINUOUS
 62
    7
 10
279.97240620388356
 20
231.54038094660194
 11
279.97240620388356
 21
230.79041194660192
  0
ARC
  8
_0-d_
  6
CONTINUOUS
 62
    7
 10
278.97240620388356
 20
231.54038094660194
 40
1
 50
0
 51
90
  0
LINE
  8
_0-d_
  6
CONTINUOUS
 62
    7
 10
277.47240620388356
 20
168.54038094660194
 11
277.47240620388356
 21
230.04038094660194
  0
LINE
  8
_0-d_
  6
CONTINUOUS
 62
    7
 10
322.97240620388356
 20
116.03618394660196
 11
322.97240620388356
 21
221.04457794660191
  0
ARC
  8
_0-d_
  6
CONTINUOUS
 62
    7
 10
280.47240620388356
 20
230.06878594660196
 40
3
 50
180.542505
 51
289.47248300000001
  0
LINE
  8
_0-d_
  6
CONTINUOUS
 62
    7
 10
284.47240620388356
 20
227.04038094660194
 11
284.47240620388356
 21
228.54041194660192
  0
LINE
  8
_0-d_
  6
CONTINUOUS
 62
    7
 10
285.88037920388353
 20
196.49436694660192
 11
285.88037920388353
 21
197.89436694660196
  0
LINE
  8
_0-d_
  6
CONTINUOUS
 62
    7
 10
287.28835120388356
 20
196.49436694660192
 11
287.28835120388356
 21
197.89436694660196
  0
LINE
  8
_0-d_
  6
CONTINUOUS
 62
    7
 10
288.53913920388356
 20
196.49436694660192
 11
288.53913920388356
 21
197.89436694660196
  0
LINE
  8
_0-d_
  6
CONTINUOUS
 62
    7
 10
289.98910920388357
 20
196.49436694660192
 11
289.98910920388357
 21
197.89436694660196
  0
LINE
  8
_0-d_
  6
CONTINUOUS
 62
    7
 10
291.27491820388354
 20
196.49436694660192
 11
291.27491820388354
 21
197.89436694660196
  0
LINE
  8
_0-d_
  6
CONTINUOUS
 62
    7
 10
292.76291120388356
 20
196.49436694660192
 11
292.76291120388356
 21
197.89436694660196
  0
LINE
  8
_0-d_
  6
CONTINUOUS
 62
    7
 10
285.88037920388353
 20
193.69436694660191
 11
285.88037920388353
 21
195.09436694660195
  0
LINE
  8
_0-d_
  6
CONTINUOUS
 62
    7
 10
287.28835120388356
 20
193.69436694660191
 11
287.28835120388356
 21
195.09436694660195
  0
LINE
  8
_0-d_
  6
CONTINUOUS
 62
    7
 10
288.53913920388356
 20
193.69436694660191
 11
288.53913920388356
 21
195.09436694660195
  0
LINE
  8
_0-d_
  6
CONTINUOUS
 62
    7
 10
289.98910920388357
 20
193.69436694660191
 11
289.98910920388357
 21
195.09436694660195
  0
LINE
  8
_0-d_
  6
CONTINUOUS
 62
    7
 10
291.27491820388354
 20
193.69436694660191
 11
291.27491820388354
 21
195.09436694660195
  0
LINE
  8
_0-d_
  6
CONTINUOUS
 62
    7
 10
292.76291120388356
 20
193.69436694660191
 11
292.76291120388356
 21
195.09436694660195
  0
ARC
  8
_0-d_
  6
CONTINUOUS
 62
    7
 10
282.17246820388356
 20
198.59436694660195
 40
0.6999999999999998
 50
90
 51
270
  0
ARC
  8
_0-d_
  6
CONTINUOUS
 62
    7
 10
282.17246820388356
 20
195.79436694660194
 40
0.6999999999999998
 50
90
 51
270
  0
ARC
  8
_0-d_
  6
CONTINUOUS
 62
    7
 10
282.17246820388356
 20
192.99436694660192
 40
0.6999999999999998
 50
90
 51
270
  0
LINE
  8
_0-d_
  6
CONTINUOUS
 62
    7
 10
281.47246820388352
 20
227.24038094660193
 11
281.47246820388352
 21
168.54038094660194
  0
LINE
  8
_0-d_
  6
CONTINUOUS
 62
    7
 10
320.97240620388356
 20
221.04457794660191
 11
320.97240620388356
 21
168.54038094660194
  0
LINE
  8
_0-d_
  6
CONTINUOUS
 62
    7
 10
282.17246820388356
 20
199.29436694660194
 11
316.67240620388355
 21
199.29436694660194
  0
LINE
  8
_0-d_
  6
CONTINUOUS
 62
    7
 10
282.17246820388356
 20
197.89436694660196
 11
316.67240620388355
 21
197.89436694660196
  0
LINE
  8
_0-d_
  6
CONTINUOUS
 62
    7
 10
282.17246820388356
 20
196.49436694660192
 11
316.67240620388355
 21
196.49436694660192
  0
LINE
  8
_0-d_
  6
CONTINUOUS
 62
    7
 10
282.17246820388356
 20
195.09436694660195
 11
316.67240620388355
 21
195.09436694660195
  0
LINE
  8
_0-d_
  6
CONTINUOUS
 62
    7
 10
282.17246820388356
 20
193.69436694660191
 11
316.67240620388355
 21
193.69436694660191
  0
LINE
  8
_0-d_
  6
CONTINUOUS
 62
    7
 10
282.17246820388356
 20
192.29436694660194
 11
316.67240620388355
 21
192.29436694660194
  0
LINE
  8
_0-d_
  6
CONTINUOUS
 62
    7
 10
311.2778672038836
 20
193.69436694660191
 11
311.2778672038836
 21
195.09436694660195
  0
LINE
  8
_0-d_
  6
CONTINUOUS
 62
    7
 10
312.68584020388357
 20
193.69436694660191
 11
312.68584020388357
 21
195.09436694660195
  0
LINE
  8
_0-d_
  6
CONTINUOUS
 62
    7
 10
313.93662820388357
 20
193.69436694660191
 11
313.93662820388357
 21
195.09436694660195
  0
LINE
  8
_0-d_
  6
CONTINUOUS
 62
    7
 10
315.38659720388352
 20
193.69436694660191
 11
315.38659720388352
 21
195.09436694660195
  0
LINE
  8
_0-d_
  6
CONTINUOUS
 62
    7
 10
311.2778672038836
 20
196.49436694660192
 11
311.2778672038836
 21
197.89436694660196
  0
LINE
  8
_0-d_
  6
CONTINUOUS
 62
    7
 10
312.68584020388357
 20
196.49436694660192
 11
312.68584020388357
 21
197.89436694660196
  0
LINE
  8
_0-d_
  6
CONTINUOUS
 62
    7
 10
313.93662820388357
 20
196.49436694660192
 11
313.93662820388357
 21
197.89436694660196
  0
LINE
  8
_0-d_
  6
CONTINUOUS
 62
    7
 10
315.38659720388352
 20
196.49436694660192
 11
315.38659720388352
 21
197.89436694660196
  0
LINE
  8
_0-d_
  6
CONTINUOUS
 62
    7
 10
308.61910620388357
 20
196.49436694660192
 11
308.61910620388357
 21
197.89436694660196
  0
LINE
  8
_0-d_
  6
CONTINUOUS
 62
    7
 10
310.02707920388354
 20
196.49436694660192
 11
310.02707920388354
 21
197.89436694660196
  0
LINE
  8
_0-d_
  6
CONTINUOUS
 62
    7
 10
308.61910620388357
 20
193.69436694660191
 11
308.61910620388357
 21
195.09436694660195
  0
LINE
  8
_0-d_
  6
CONTINUOUS
 62
    7
 10
310.02707920388354
 20
193.69436694660191
 11
310.02707920388354
 21
195.09436694660195
  0
LINE
  8
_0-d_
  6
CONTINUOUS
 62
    7
 10
277.47240620388356
 20
230.04038094660194
 11
274.67910920388356
 21
230.04038094660194
  0
LINE
  8
_0-d_
  6
CONTINUOUS
 62
    7
 10
318.06140520388356
 20
224.04325794660195
 11
284.47240620388356
 21
225.04015594660194
  0
ARC
  8
_0-d_
  6
CONTINUOUS
 62
    7
 10
317.97240620388356
 20
221.04457794660191
 40
5
 50
0
 51
88.299999999999997
  0
ARC
  8
_0-d_
  6
CONTINUOUS
 62
    7
 10
317.97240620388356
 20
221.04457794660191
 40
3
 50
0
 51
88.299999999999997
  0
LINE
  8
_0-d_
  6
CONTINUOUS
 62
    7
 10
285.87207220388359
 20
226.99949594660193
 11
284.47240620388356
 21
227.04103694660193
  0
LINE
  8
_0-d_
  6
CONTINUOUS
 62
    7
 10
288.67138920388356
 20
226.91641394660194
 11
287.27124120388356
 21
226.95796894660196
  0
LINE
  8
_0-d_
  6
CONTINUOUS
 62
    7
 10
291.47070520388353
 20
226.83333194660195
 11
290.07006420388358
 21
226.87490194660193
  0
LINE
  8
_0-d_
  6
CONTINUOUS
 62
    7
 10
311.06591920388359
 20
226.25175994660196
 11
292.86888720388355
 21
226.79183494660196
  0
LINE
  8
_0-d_
  6
CONTINUOUS
 62
    7
 10
313.86523520388357
 20
226.16867794660191
 11
312.46064820388357
 21
226.21036494660194
  0
LINE
  8
_0-d_
  6
CONTINUOUS
 62
    7
 10
315.25947120388354
 20
226.12729794660191
 11
318.12073720388355
 21
226.04237694660196
  0
LINE
  8
_0-d_
  6
CONTINUOUS
 62
    7
 10
286.94410920388355
 20
228.18184094660193
 11
287.27240620388351
 21
226.95661794660196
  0
LINE
  8
_0-d_
  6
CONTINUOUS
 62
    7
 10
286.18942620388355
 20
228.18130494660192
 11
285.87240620388354
 21
226.99816894660193
  0
LINE
  8
_0-d_
  6
CONTINUOUS
 62
    7
 10
288.98942620388356
 20
228.09820294660192
 11
288.67240620388355
 21
226.91506694660193
  0
LINE
  8
_0-d_
  6
CONTINUOUS
 62
    7
 10
289.74410920388356
 20
228.09873894660194
 11
290.07240620388358
 21
226.87351594660196
  0
LINE
  8
_0-d_
  6
CONTINUOUS
 62
    7
 10
291.78942620388352
 20
228.01510094660193
 11
291.47240620388356
 21
226.83196494660194
  0
LINE
  8
_0-d_
  6
CONTINUOUS
 62
    7
 10
292.54410920388352
 20
228.01563694660194
 11
292.87240620388354
 21
226.79041394660191
  0
LINE
  8
_0-d_
  6
CONTINUOUS
 62
    7
 10
312.14410920388354
 20
227.43392294660196
 11
312.47240620388356
 21
226.20869994660193
  0
LINE
  8
_0-d_
  6
CONTINUOUS
 62
    7
 10
311.38942620388354
 20
227.43338694660195
 11
311.07240620388358
 21
226.25025094660196
  0
LINE
  8
_0-d_
  6
CONTINUOUS
 62
    7
 10
314.94410920388355
 20
227.35082094660191
 11
315.27240620388351
 21
226.12559794660194
  0
LINE
  8
_0-d_
  6
CONTINUOUS
 62
    7
 10
314.18942620388355
 20
227.35028494660195
 11
313.87240620388354
 21
226.16714894660196
  0
ARC
  8
_0-d_
  6
CONTINUOUS
 62
    7
 10
311.75773820388354
 20
227.33039494660192
 40
0.4
 50
14.999999999999998
 51
88.299999999999997
  0
ARC
  8
_0-d_
  6
CONTINUOUS
 62
    7
 10
311.77579720388359
 20
227.32985894660191
 40
0.4
 50
88.299999999999997
 51
165
  0
ARC
  8
_0-d_
  6
CONTINUOUS
 62
    7
 10
314.57579720388355
 20
227.24675694660191
 40
0.4
 50
88.299999999999997
 51
165
  0
ARC
  8
_0-d_
  6
CONTINUOUS
 62
    7
 10
314.55773820388355
 20
227.24729294660193
 40
0.4
 50
14.999999999999998
 51
88.299999999999997
  0
ARC
  8
_0-d_
  6
CONTINUOUS
 62
    7
 10
286.57579720388355
 20
228.07777794660194
 40
0.4
 50
88.299999999999997
 51
165
  0
ARC
  8
_0-d_
  6
CONTINUOUS
 62
    7
 10
286.55773820388355
 20
228.07831394660195
 40
0.4
 50
14.999999999999998
 51
88.299999999999997
  0
ARC
  8
_0-d_
  6
CONTINUOUS
 62
    7
 10
289.37579720388356
 20
227.99467594660194
 40
0.4
 50
88.299999999999997
 51
165
  0
ARC
  8
_0-d_
  6
CONTINUOUS
 62
    7
 10
289.35773820388357
 20
227.99521194660195
 40
0.4
 50
14.999999999999998
 51
88.299999999999997
  0
ARC
  8
_0-d_
  6
CONTINUOUS
 62
    7
 10
292.17579720388357
 20
227.91157394660194
 40
0.4
 50
88.299999999999997
 51
165
  0
ARC
  8
_0-d_
  6
CONTINUOUS
 62
    7
 10
292.15773820388358
 20
227.91210894660196
 40
0.4
 50
14.999999999999998
 51
88.299999999999997
  0
LINE
  8
_0-d_
  6
CONTINUOUS
 62
    7
 10
275.97240620388356
 20
234.53895294660196
 11
275.97240620388356
 21
232.54038094660194
  0
ARC
  8
_0-d_
  6
CONTINUOUS
 62
    7
 10
572.28659620388361
 20
212.73396794660192
 40
300.10748699999999
 50
175.83310099999999
 51
179.654547
  0
ARC
  8
_0-d_
  6
CONTINUOUS
 62
    7
 10
274.47240620388356
 20
234.54038094660194
 40
1.5
 50
90
 51
180
  0
ARC
  8
_0-d_
  6
CONTINUOUS
 62
    7
 10
274.47240620388356
 20
234.54038094660194
 40
1.5
 50
0
 51
90
  0
ARC
  8
_0-d_
  6
CONTINUOUS
 62
    7
 10
572.28659620388361
 20
212.73396794660192
 40
298.10748699999999
 50
176.67186399999999
 51
179.55818899999999
  0
LINE
  8
_0-d_
  6
CONTINUOUS
 62
    7
 10
273.18800120388357
 20
214.04038094660194
 11
272.68455420388352
 21
214.04038094660194
  0
ARC
  8
_0-d_
  6
CONTINUOUS
 62
    7
 10
272.68455420388352
 20
214.54038094660194
 40
0.5
 50
179.654547
 51
270
  0
ARC
  8
_0-d_
  6
CONTINUOUS
 62
    7
 10
273.18800120388357
 20
215.04038094660194
 40
1
 50
270
 51
359.55818900000002
  0
LINE
  8
_0-d_
  6
CONTINUOUS
 62
    7
 10
272.97240620388356
 20
102.54038094660194
 11
272.97240620388356
 21
214.04038094660194
  0
ARC
  8
_0-d_
  6
CONTINUOUS
 62
    7
 10
270.68750320388357
 20
230.15560894660194
 40
2.5
 50
319.75246299999997
 51
33.635590999999955
  0
ARC
  8
_0-d_
  6
CONTINUOUS
 62
    7
 10
271.7060462038836
 20
225.57233394660192
 40
1.25
 50
304.35446499999989
 51
50.754085999999944
  0
LINE
  8
_0-d_
  6
CONTINUOUS
 62
    7
 10
284.47240620388356
 20
225.04015594660194
 11
282.45925420388357
 21
225.13014194660195
  0
ARC
  8
_0-d_
  6
CONTINUOUS
 62
    7
 10
282.47425220388356
 20
226.13002994660195
 40
1
 50
180
 51
269.14062799999999
  0
LINE
  8
_0-d_
  6
CONTINUOUS
 62
    7
 10
285.87240620388354
 20
137.39990794660195
 11
284.47240620388356
 21
137.39990794660195
  0
LINE
  8
_0-d_
  6
CONTINUOUS
 62
    7
 10
285.87240620388354
 20
138.80788094660192
 11
284.47240620388356
 21
138.80788094660192
  0
LINE
  8
_0-d_
  6
CONTINUOUS
 62
    7
 10
285.87240620388354
 20
140.05866894660192
 11
284.47240620388356
 21
140.05866894660192
  0
LINE
  8
_0-d_
  6
CONTINUOUS
 62
    7
 10
285.87240620388354
 20
141.50863894660193
 11
284.47240620388356
 21
141.50863894660193
  0
LINE
  8
_0-d_
  6
CONTINUOUS
 62
    7
 10
285.87240620388354
 20
142.79444694660196
 11
284.47240620388356
 21
142.79444694660196
  0
LINE
  8
_0-d_
  6
CONTINUOUS
 62
    7
 10
285.87240620388354
 20
144.28243994660192
 11
284.47240620388356
 21
144.28243994660192
  0
LINE
  8
_0-d_
  6
CONTINUOUS
 62
    7
 10
313.87240620388354
 20
137.11790794660191
 11
312.47240620388356
 21
137.11790794660191
  0
LINE
  8
_0-d_
  6
CONTINUOUS
 62
    7
 10
313.87240620388354
 20
138.52588094660194
 11
312.47240620388356
 21
138.52588094660194
  0
LINE
  8
_0-d_
  6
CONTINUOUS
 62
    7
 10
313.87240620388354
 20
139.77666894660194
 11
312.47240620388356
 21
139.77666894660194
  0
LINE
  8
_0-d_
  6
CONTINUOUS
 62
    7
 10
313.87240620388354
 20
141.22663894660195
 11
312.47240620388356
 21
141.22663894660195
  0
LINE
  8
_0-d_
  6
CONTINUOUS
 62
    7
 10
313.87240620388354
 20
142.51244694660192
 11
312.47240620388356
 21
142.51244694660192
  0
LINE
  8
_0-d_
  6
CONTINUOUS
 62
    7
 10
313.87240620388354
 20
144.00043994660194
 11
312.47240620388356
 21
144.00043994660194
  0
LINE
  8
_0-d_
  6
CONTINUOUS
 62
    7
 10
316.67240620388355
 20
137.11790794660191
 11
315.27240620388351
 21
137.11790794660191
  0
LINE
  8
_0-d_
  6
CONTINUOUS
 62
    7
 10
316.67240620388355
 20
138.52588094660194
 11
315.27240620388351
 21
138.52588094660194
  0
LINE
  8
_0-d_
  6
CONTINUOUS
 62
    7
 10
316.67240620388355
 20
139.77666894660194
 11
315.27240620388351
 21
139.77666894660194
  0
LINE
  8
_0-d_
  6
CONTINUOUS
 62
    7
 10
316.67240620388355
 20
141.22663894660195
 11
315.27240620388351
 21
141.22663894660195
  0
LINE
  8
_0-d_
  6
CONTINUOUS
 62
    7
 10
316.67240620388355
 20
142.51244694660192
 11
315.27240620388351
 21
142.51244694660192
  0
LINE
  8
_0-d_
  6
CONTINUOUS
 62
    7
 10
316.67240620388355
 20
144.00043994660194
 11
315.27240620388351
 21
144.00043994660194
  0
LINE
  8
_0-d_
  6
CONTINUOUS
 62
    7
 10
288.67240620388355
 20
137.39990794660195
 11
287.27240620388351
 21
137.39990794660195
  0
LINE
  8
_0-d_
  6
CONTINUOUS
 62
    7
 10
288.67240620388355
 20
138.80788094660192
 11
287.27240620388351
 21
138.80788094660192
  0
LINE
  8
_0-d_
  6
CONTINUOUS
 62
    7
 10
288.67240620388355
 20
140.05866894660192
 11
287.27240620388351
 21
140.05866894660192
  0
LINE
  8
_0-d_
  6
CONTINUOUS
 62
    7
 10
288.67240620388355
 20
141.50863894660193
 11
287.27240620388351
 21
141.50863894660193
  0
LINE
  8
_0-d_
  6
CONTINUOUS
 62
    7
 10
288.67240620388355
 20
142.79444694660196
 11
287.27240620388351
 21
142.79444694660196
  0
LINE
  8
_0-d_
  6
CONTINUOUS
 62
    7
 10
288.67240620388355
 20
144.28243994660192
 11
287.27240620388351
 21
144.28243994660192
  0
LINE
  8
_0-d_
  6
CONTINUOUS
 62
    7
 10
291.47240620388356
 20
137.39990794660195
 11
290.07240620388358
 21
137.39990794660195
  0
LINE
  8
_0-d_
  6
CONTINUOUS
 62
    7
 10
291.47240620388356
 20
138.80788094660192
 11
290.07240620388358
 21
138.80788094660192
  0
LINE
  8
_0-d_
  6
CONTINUOUS
 62
    7
 10
291.47240620388356
 20
140.05866894660192
 11
290.07240620388358
 21
140.05866894660192
  0
LINE
  8
_0-d_
  6
CONTINUOUS
 62
    7
 10
291.47240620388356
 20
141.50863894660193
 11
290.07240620388358
 21
141.50863894660193
  0
LINE
  8
_0-d_
  6
CONTINUOUS
 62
    7
 10
291.47240620388356
 20
142.79444694660196
 11
290.07240620388358
 21
142.79444694660196
  0
LINE
  8
_0-d_
  6
CONTINUOUS
 62
    7
 10
291.47240620388356
 20
144.28243994660192
 11
290.07240620388358
 21
144.28243994660192
  0
LINE
  8
_0-d_
  6
CONTINUOUS
 62
    7
 10
279.47240620388356
 20
104.54038094660194
 11
279.47240620388356
 21
168.54038094660194
  0
LINE
  8
_0-d_
  6
CONTINUOUS
 62
    7
 10
275.97240620388356
 20
102.54038094660194
 11
275.97240620388356
 21
168.54038094660194
  0
LINE
  8
_0-d_
  6
CONTINUOUS
 62
    7
 10
275.97240620388356
 20
104.54038094660194
 11
279.47240620388356
 21
104.54038094660194
  0
LINE
  8
_0-d_
  6
CONTINUOUS
 62
    7
 10
284.47240620388356
 20
108.54038094660194
 11
279.47240620388356
 21
106.04038094660194
  0
LINE
  8
_0-d_
  6
CONTINUOUS
 62
    7
 10
288.67240620388355
 20
110.16569494660194
 11
288.67240620388355
 21
168.54038094660194
  0
LINE
  8
_0-d_
  6
CONTINUOUS
 62
    7
 10
284.47240620388356
 20
168.54038094660194
 11
284.47240620388356
 21
108.54038094660194
  0
LINE
  8
_0-d_
  6
CONTINUOUS
 62
    7
 10
316.67240620388355
 20
168.54038094660194
 11
316.67240620388355
 21
110.99539894660192
  0
LINE
  8
_0-d_
  6
CONTINUOUS
 62
    7
 10
290.07240620388358
 20
110.20724594660191
 11
290.07240620388358
 21
168.54038094660194
  0
LINE
  8
_0-d_
  6
CONTINUOUS
 62
    7
 10
291.47240620388356
 20
110.24879694660194
 11
291.47240620388356
 21
168.54038094660194
  0
LINE
  8
_0-d_
  6
CONTINUOUS
 62
    7
 10
292.87240620388354
 20
110.29034794660195
 11
292.87240620388354
 21
168.54038094660194
  0
LINE
  8
_0-d_
  6
CONTINUOUS
 62
    7
 10
311.07240620388358
 20
110.8305109466019
 11
311.07240620388358
 21
168.54038094660194
  0
LINE
  8
_0-d_
  6
CONTINUOUS
 62
    7
 10
312.47240620388356
 20
110.87206194660194
 11
312.47240620388356
 21
168.54038094660194
  0
LINE
  8
_0-d_
  6
CONTINUOUS
 62
    7
 10
313.87240620388354
 20
110.91361294660191
 11
313.87240620388354
 21
168.54038094660194
  0
LINE
  8
_0-d_
  6
CONTINUOUS
 62
    7
 10
315.27240620388351
 20
110.95516394660194
 11
315.27240620388351
 21
168.54038094660194
  0
LINE
  8
_0-d_
  6
CONTINUOUS
 62
    7
 10
286.94410920388355
 20
108.89892094660193
 11
287.27240620388351
 21
110.1241439466019
  0
LINE
  8
_0-d_
  6
CONTINUOUS
 62
    7
 10
287.27240620388351
 20
110.1241439466019
 11
287.27240620388351
 21
168.54038094660194
  0
LINE
  8
_0-d_
  6
CONTINUOUS
 62
    7
 10
286.18942620388355
 20
108.89945694660194
 11
285.87240620388354
 21
110.08259194660195
  0
LINE
  8
_0-d_
  6
CONTINUOUS
 62
    7
 10
285.87240620388354
 20
110.08259194660195
 11
285.87240620388354
 21
168.54038094660194
  0
ARC
  8
_0-d_
  6
CONTINUOUS
 62
    7
 10
286.57579720388355
 20
109.00298394660194
 40
0.4
 50
194.99999999999997
 51
271.69999999999998
  0
ARC
  8
_0-d_
  6
CONTINUOUS
 62
    7
 10
286.55773820388355
 20
109.00244794660193
 40
0.4
 50
271.69999999999998
 51
345
  0
LINE
  8
_0-d_
  6
CONTINUOUS
 62
    7
 10
288.98942620388356
 20
108.98255894660195
 11
288.67240620388355
 21
110.16569494660194
  0
ARC
  8
_0-d_
  6
CONTINUOUS
 62
    7
 10
289.37579720388356
 20
109.08608594660194
 40
0.4
 50
194.99999999999997
 51
271.69999999999998
  0
ARC
  8
_0-d_
  6
CONTINUOUS
 62
    7
 10
289.35773820388357
 20
109.08554994660191
 40
0.4
 50
271.69999999999998
 51
345
  0
LINE
  8
_0-d_
  6
CONTINUOUS
 62
    7
 10
289.74410920388356
 20
108.98202294660194
 11
290.07240620388358
 21
110.20724594660191
  0
LINE
  8
_0-d_
  6
CONTINUOUS
 62
    7
 10
291.78942620388352
 20
109.06566094660195
 11
291.47240620388356
 21
110.24879694660194
  0
ARC
  8
_0-d_
  6
CONTINUOUS
 62
    7
 10
292.17579720388357
 20
109.16918794660192
 40
0.4
 50
194.99999999999997
 51
271.69999999999998
  0
ARC
  8
_0-d_
  6
CONTINUOUS
 62
    7
 10
292.15773820388358
 20
109.16865194660192
 40
0.4
 50
271.69999999999998
 51
345
  0
LINE
  8
_0-d_
  6
CONTINUOUS
 62
    7
 10
292.54410920388352
 20
109.06512494660194
 11
292.87240620388354
 21
110.29034794660195
  0
LINE
  8
_0-d_
  6
CONTINUOUS
 62
    7
 10
312.14410920388354
 20
109.6468389466019
 11
312.47240620388356
 21
110.87206194660194
  0
ARC
  8
_0-d_
  6
CONTINUOUS
 62
    7
 10
311.75773820388354
 20
109.75036694660194
 40
0.4
 50
271.69999999999998
 51
345
  0
ARC
  8
_0-d_
  6
CONTINUOUS
 62
    7
 10
311.77579720388359
 20
109.75090294660195
 40
0.4
 50
194.99999999999997
 51
271.69999999999998
  0
LINE
  8
_0-d_
  6
CONTINUOUS
 62
    7
 10
311.38942620388354
 20
109.64737494660191
 11
311.07240620388358
 21
110.8305109466019
  0
LINE
  8
_0-d_
  6
CONTINUOUS
 62
    7
 10
314.94410920388355
 20
109.72994094660191
 11
315.27240620388351
 21
110.95516394660194
  0
ARC
  8
_0-d_
  6
CONTINUOUS
 62
    7
 10
314.55773820388355
 20
109.83346894660195
 40
0.4
 50
271.69999999999998
 51
345
  0
ARC
  8
_0-d_
  6
CONTINUOUS
 62
    7
 10
314.57579720388355
 20
109.83400494660196
 40
0.4
 50
194.99999999999997
 51
271.69999999999998
  0
LINE
  8
_0-d_
  6
CONTINUOUS
 62
    7
 10
314.18942620388355
 20
109.73047694660192
 11
313.87240620388354
 21
110.91361294660191
  0
LINE
  8
_0-d_
  6
CONTINUOUS
 62
    7
 10
311.06591920388359
 20
110.82900194660192
 11
292.86888720388355
 21
110.2889269466019
  0
LINE
  8
_0-d_
  6
CONTINUOUS
 62
    7
 10
291.47070520388353
 20
110.24742994660192
 11
290.07006420388358
 21
110.20585994660193
  0
LINE
  8
_0-d_
  6
CONTINUOUS
 62
    7
 10
288.67138920388356
 20
110.16434794660193
 11
287.27124120388356
 21
110.1227929466019
  0
LINE
  8
_0-d_
  6
CONTINUOUS
 62
    7
 10
285.87207220388359
 20
110.08126594660194
 11
284.47240620388356
 21
110.03972494660195
  0
LINE
  8
_0-d_
  6
CONTINUOUS
 62
    7
 10
315.25947120388354
 20
110.95346394660191
 11
318.12073720388355
 21
111.03838394660192
  0
ARC
  8
_0-d_
  6
CONTINUOUS
 62
    7
 10
317.97240620388356
 20
116.03618394660196
 40
5
 50
271.69999999999998
 51
0.0000000000000127
  0
LINE
  8
_0-d_
  6
CONTINUOUS
 62
    7
 10
313.86523520388357
 20
110.91208394660195
 11
312.46064820388357
 21
110.87039694660194
  0
CIRCLE
  8
_0-d_
  6
CONTINUOUS
 62
    7
 10
136.97240620388356
 20
167.54038094660194
 40
67.5
  0
ARC
  8
_0-d_
  6
CONTINUOUS
 62
    7
 10
136.97240620388356
 20
167.54038094660194
 40
60
 50
104.29374299999999
 51
75.706256999999993
  0
ARC
  8
_0-d_
  6
CONTINUOUS
 62
    7
 10
136.97240620388356
 20
167.54038094660194
 40
58.5
 50
186.81744
 51
75.645119000000008
  0
LINE
  8
_0-d_
  6
CONTINUOUS
 62
    7
 10
151.97240620388356
 20
228.04038094660194
 11
151.97240620388356
 21
233.35261394660193
  0
LINE
  8
_0-d_
  6
CONTINUOUS
 62
    7
 10
121.97240620388356
 20
228.04038094660194
 11
121.97240620388356
 21
233.35261394660193
  0
ARC
  8
_0-d_
  6
CONTINUOUS
 62
    7
 10
136.97240620388356
 20
228.04038094660194
 40
15
 50
270
 51
0
  0
ARC
  8
_0-d_
  6
CONTINUOUS
 62
    7
 10
136.97240620388356
 20
228.04038094660194
 40
15
 50
180
 51
270
  0
LINE
  8
_0-d_
  6
CONTINUOUS
 62
    7
 10
124.97240620388356
 20
230.54038094660194
 11
148.97240620388356
 21
230.54038094660194
  0
LINE
  8
_0-d_
  6
CONTINUOUS
 62
    7
 10
124.97240620388356
 20
227.54038094660194
 11
148.97240620388356
 21
227.54038094660194
  0
LINE
  8
_0-d_
  6
CONTINUOUS
 62
    7
 10
148.97240620388356
 20
225.54038094660194
 11
124.97240620388356
 21
225.54038094660194
  0
LINE
  8
_0-d_
  6
CONTINUOUS
 62
    7
 10
124.97240620388356
 20
223.54038094660194
 11
148.97240620388356
 21
223.54038094660194
  0
ARC
  8
_0-d_
  6
CONTINUOUS
 62
    7
 10
136.97240620388356
 20
167.54038094660194
 40
58.5
 50
104.35488099999999
 51
173.18255999999999
  0
ARC
  8
_0-d_
  6
CONTINUOUS
 62
    7
 10
124.97240620388356
 20
229.04038094660194
 40
1.5
 50
90
 51
270
  0
ARC
  8
_0-d_
  6
CONTINUOUS
 62
    7
 10
148.97240620388356
 20
229.04038094660194
 40
1.5
 50
270
 51
90
  0
ARC
  8
_0-d_
  6
CONTINUOUS
 62
    7
 10
148.97240620388356
 20
224.54038094660194
 40
1
 50
270
 51
90
  0
ARC
  8
_0-d_
  6
CONTINUOUS
 62
    7
 10
124.97240620388356
 20
224.54038094660194
 40
1
 50
90
 51
270
  0
ARC
  8
_0-d_
  6
CONTINUOUS
 62
    7
 10
79.887024203883584
 20
173.55600694660193
 40
0.4
 50
283.81987800000001
 51
64.180121999999997
  0
LINE
  8
_0-d_
  6
CONTINUOUS
 62
    7
 10
78.713071203883544
 20
172.85529994660191
 11
79.982572203883535
 21
173.16758694660194
  0
LINE
  8
_0-d_
  6
CONTINUOUS
 62
    7
 10
78.884410203883533
 20
174.48548094660196
 11
80.061241203883582
 21
173.91607394660195
  0
LINE
  8
_0-d_
  6
CONTINUOUS
 62
    7
 10
78.600539203883556
 20
171.42544594660193
 11
79.805558203883549
 21
170.91840994660196
  0
ARC
  8
_0-d_
  6
CONTINUOUS
 62
    7
 10
79.650424203883574
 20
170.54971894660195
 40
0.4
 50
286.81987800000001
 51
67.180121999999968
  0
LINE
  8
_0-d_
  6
CONTINUOUS
 62
    7
 10
78.514752203883574
 20
169.78853194660194
 11
79.766169203883578
 21
170.16683094660191
  0
LINE
  8
_0-d_
  6
CONTINUOUS
 62
    7
 10
78.477207203883551
 20
168.35474794660194
 11
79.707111203883584
 21
167.91147294660191
  0
ARC
  8
_0-d_
  6
CONTINUOUS
 62
    7
 10
79.571485203883582
 20
167.53516794660191
 40
0.4
 50
289.81987800000001
 51
70.180121999999983
  0
LINE
  8
_0-d_
  6
CONTINUOUS
 62
    7
 10
78.477207203883551
 20
166.71558794660194
 11
79.707111203883584
 21
167.15886294660191
  0
LINE
  8
_0-d_
  6
CONTINUOUS
 62
    7
 10
78.514752203883574
 20
165.28180294660194
 11
79.766169203883578
 21
164.90350394660191
  0
ARC
  8
_0-d_
  6
CONTINUOUS
 62
    7
 10
79.650424203883574
 20
164.52061694660193
 40
0.4
 50
292.81987800000001
 51
73.180121999999997
  0
LINE
  8
_0-d_
  6
CONTINUOUS
 62
    7
 10
78.600539203883556
 20
163.64488994660194
 11
79.805558203883549
 21
164.15192494660192
  0
ARC
  8
_0-d_
  6
CONTINUOUS
 62
    7
 10
137.17148520388354
 20
167.53516794660191
 40
58.700000000000002
 50
174.80000000000001
 51
176.20000000000004
  0
ARC
  8
_0-d_
  6
CONTINUOUS
 62
    7
 10
137.17148520388354
 20
167.53516794660191
 40
58.700000000000002
 50
177.80000000000001
 51
179.19999999999998
  0
ARC
  8
_0-d_
  6
CONTINUOUS
 62
    7
 10
137.17148520388354
 20
167.53516794660191
 40
58.700000000000002
 50
180.80000000000001
 51
182.19999999999998
  0
LINE
  8
_0-d_
  6
CONTINUOUS
 62
    7
 10
78.713071203883544
 20
162.22546194660196
 11
79.982572203883535
 21
161.91317494660194
  0
ARC
  8
_0-d_
  6
CONTINUOUS
 62
    7
 10
137.17148520388354
 20
167.54559394660196
 40
58.700000000000002
 50
183.79999999999998
 51
185.20000000000001
  0
ARC
  8
_0-d_
  6
CONTINUOUS
 62
    7
 10
79.887024203883584
 20
161.52475494660194
 40
0.4
 50
295.81987800000001
 51
76.180122000000039
  0
LINE
  8
_0-d_
  6
CONTINUOUS
 62
    7
 10
78.884410203883533
 20
160.59528094660191
 11
80.061241203883582
 21
161.16468694660193
  0
LINE
  8
_0-d_
  6
double-dashed_dotted
 62
    4
 10
136.97240620388356
 20
243.1875
 11
136.97240620388356
 21
88.1875
  0
LINE
  8
_0-d_
  6
double-dashed_dotted
 62
    4
 10
330.9375
 20
168.54038094660194
 11
265.3125
 21
168.54038094660194
  0
LINE
  8
_0-d_
  6
CONTINUOUS
 62
    7
 10
272.97240620388356
 20
102.54038094660194
 11
275.97240620388356
 21
102.54038094660194
  0
POINT
  8
_0-9_
 62
    3
 10
28.750000000000028
 20
100.04038094660194
  0
POINT
  8
_0-9_
 62
    3
 10
28.750000000000028
 20
235.04038094660194
  0
LINE
  8
_0-9_
  6
CONTINUOUS
 62
    4
 10
27.750000000000028
 20
100.04038094660194
 11
62.500000000000028
 21
100.04038094660194
  0
LINE
  8
_0-9_
  6
CONTINUOUS
 62
    4
 10
27.750000000000028
 20
235.04038094660194
 11
62.500000000000028
 21
235.04038094660194
  0
POINT
  8
_0-9_
 62
    3
 10
272.97240620388356
 20
61.9375
  0
POINT
  8
_0-9_
 62
    3
 10
322.97240620388356
 20
61.9375
  0
LINE
  8
_0-9_
  6
CONTINUOUS
 62
    4
 10
272.97240620388356
 20
60.9375
 11
272.97240620388356
 21
82.5625
  0
LINE
  8
_0-9_
  6
CONTINUOUS
 62
    4
 10
322.97240620388356
 20
60.9375
 11
322.97240620388356
 21
82.5625
  0
LINE
  8
_0-9_
  6
CONTINUOUS
 62
    4
 10
272.97240620388356
 20
61.9375
 11
322.97240620388356
 21
61.9375
  0
TEXT
  8
_0-9_
 62
    7
 10
295.76740620388358
 20
62.4375
 40
3.5
 41
0.6285714285714286
 50
0
  1
５０
  0
LINE
  8
_0-d_
  6
double-dashed_dotted
 62
    4
 10
212.5
 20
168.54038094660194
 11
60
 21
168.54038094660194
  0
LINE
  8
_0-9_
  6
CONTINUOUS
 62
    4
 10
28.750000000000028
 20
100.04038094660194
 11
28.750000000000028
 21
235.04038094660194
  0
TEXT
  8
_0-9_
 62
    7
 10
28.125
 20
161.3125
 40
3.5
 41
0.6285714285714286
 50
90
  1
φ１３５
  0
TEXT
  8
_1-2_
 62
    7
 10
344.6875
 20
32.250000000000014
 40
6.1440002441406251
 41
0.6506851115847048
 50
0
  1
グレー
  0
TEXT
  8
_f-8_
 62
    7
 10
170.9375
 20
13.5
 40
4.5
 41
0.6666666666666666
 50
0
  1
カゴ（大）
  0
TEXT
  8
_f-8_
 62
    7
 10
285.16448497854077
 20
14.094553410409474
 40
3.5
 41
0.5714285714285712
 50
0
  1
１／１
  0
ENDSEC
  0
EOF
