  0
SECTION
  2
HEADER
  9
$ACADVER
  1
AC1009
  9
$INSBASE
 10
0
 20
0
 30
0
  9
$EXTMIN
 10
0
 20
0
  9
$EXTMAX
 10
420
 20
297
  9
$LIMMIN
 10
0
 20
0
  9
$LIMMAX
 10
420
 20
297
  9
$LTSCALE
 40
1
  0
ENDSEC
  0
SECTION
  2
TABLES
  0
TABLE
  2
LTYPE
 70
     9
  0
LTYPE
  2
CONTINUOUS
 70
    64
  3
実線
 72
    65
 73
     0
 40
0.0
  0
LTYPE
  2
DASHED1
 70
    64
  3
--  --  --  --  --  --  --  --  
 72
    65
 73
     2
 40
2.5
 49
1.25
 49
-1.25
  0
LTYPE
  2
DASHED2
 70
    64
  3
----    ----    ----    ----    
 72
    65
 73
     2
 40
5.0
 49
2.5
 49
-2.5
  0
LTYPE
  2
DASHED3
 70
    64
  3
------  ------  ------  ------  
 72
    65
 73
     2
 40
5.0
 49
3.75
 49
-1.25
  0
LTYPE
  2
CENTER1
 70
    64
  3
----- - ----- - ----- - ----- - 
 72
    65
 73
     4
 40
10.0
 49
6.25
 49
-1.25
 49
1.25
 49
-1.25
  0
LTYPE
  2
CENTER2
 70
    64
  3
----------  --  ----------  --  
 72
    65
 73
     4
 40
20.0
 49
12.5
 49
-2.5
 49
2.5
 49
-2.5
  0
LTYPE
  2
PHANTOM1
 70
    64
  3
--- - - --- - - --- - - --- - - 
 72
    65
 73
     6
 40
10.0
 49
3.25
 49
-1.25
 49
1.25
 49
-1.25
 49
1.25
 49
-1.25
  0
LTYPE
  2
PHANTOM2
 70
    64
  3
--------  -  -  --------  -  -  
 72
    65
 73
     6
 40
20.0
 49
10.0
 49
-2.5
 49
1.25
 49
-2.5
 49
1.25
 49
-2.5
  0
LTYPE
  2
DOT
 70
    64
  3
-   -   -   -   -   -   -   -   
 72
    65
 73
     2
 40
2.5
 49
0.625
 49
-1.875
  0
LTYPE
  2
DUMMY
 70
    64
  3
ダミー
 72
    65
 73
     0
 40
0.0
  0
LTYPE
  2
RAND1
 70
    64
  3
ランダム線1
 72
    65
 73
     4
 40
10.0
 49
1.0
 49
-2.0
 49
3.0
 49
-4.0
  0
LTYPE
  2
RAND2
 70
    64
  3
ランダム線2
 72
    65
 73
     4
 40
14.0
 49
2.0
 49
-3.0
 49
4.0
 49
-5.0
  0
LTYPE
  2
RAND3
 70
    64
  3
ランダム線3
 72
    65
 73
     4
 40
18.0
 49
3.0
 49
-4.0
 49
5.0
 49
-6.0
  0
LTYPE
  2
RAND4
 70
    64
  3
ランダム線4
 72
    65
 73
     4
 40
22.0
 49
4.0
 49
-5.0
 49
6.0
 49
-7.0
  0
LTYPE
  2
RAND5
 70
    64
  3
ランダム線5
 72
    65
 73
     4
 40
26.0
 49
5.0
 49
-6.0
 49
7.0
 49
-8.0
  0
LTYPE
  2
LONG1
 70
    64
  3
----------  --  ----------  --  
 72
    65
 73
     4
 40
40.0
 49
32.5
 49
-2.5
 49
2.5
 49
-2.5
  0
LTYPE
  2
LONG2
 70
    64
  3
--------  -  -  --------  -  -  
 72
    65
 73
     6
 40
40.0
 49
30.0
 49
-2.5
 49
1.25
 49
-2.5
 49
1.25
 49
-2.5
  0
LTYPE
  2
LONG3
 70
    64
  3
+++++++++++++++..+++++++++++++++
 72
    65
 73
     2
 40
40.0
 49
37.5
 49
-2.5
  0
LTYPE
  2
LONG4
 70
    64
  3
+++++++++++++++..+++++++++++++++
 72
    65
 73
     2
 40
80.0
 49
75.0
 49
-5.0
  0
LTYPE
  2
LONG5
 70
    64
  3
----------  --  ----------  --  
 72
    65
 73
     4
 40
60.0
 49
37.5
 49
-7.5
 49
7.5
 49
-7.5
  0
LTYPE
  2
dashed
 70
   64
  3
-------   -------------   ------
 72
   65
 73
    2
 40
7.5
 49
6
 49
-1.5
  0
LTYPE
  2
dashed_spaced
 70
   64
  3
----        --------        ----
 72
   65
 73
    2
 40
12
 49
6
 49
-6
  0
LTYPE
  2
long_dashed_dotted
 70
   64
  3
------------- --- --------------
 72
   65
 73
    4
 40
15.25
 49
12
 49
-1.5
 49
0.25
 49
-1.5
  0
LTYPE
  2
long_dashed_double-dotted
 70
   64
  3
----------- --- --- ------------
 72
   65
 73
    6
 40
17
 49
12
 49
-1.5
 49
0.25
 49
-1.5
 49
0.25
 49
-1.5
  0
LTYPE
  2
long_dashed_triplicate-dotted
 70
   64
  3
--------- --- --- --- ----------
 72
   65
 73
    8
 40
18.75
 49
12
 49
-1.5
 49
0.25
 49
-1.5
 49
0.25
 49
-1.5
 49
0.25
 49
-1.5
  0
LTYPE
  2
dotted
 70
   64
  3
   -       -       -       -    
 72
   65
 73
    2
 40
1.75
 49
0.25
 49
-1.5
  0
LTYPE
  2
chain
 70
   64
  3
-------------- -- --------------
 72
   65
 73
    4
 40
18.5
 49
12
 49
-1.5
 49
3.5
 49
-1.5
  0
LTYPE
  2
chain_double_dash
 70
   64
  3
------------ -- -- -------------
 72
   65
 73
    6
 40
23.5
 49
12
 49
-1.5
 49
3.5
 49
-1.5
 49
3.5
 49
-1.5
  0
LTYPE
  2
dashed_dotted
 70
   64
  3
-----------     -     ----------
 72
   65
 73
    4
 40
9.25
 49
6
 49
-1.5
 49
0.25
 49
-1.5
  0
LTYPE
  2
double-dashed_dotted
 70
   64
  3
------   -----------   -   -----
 72
   65
 73
    6
 40
16.75
 49
6
 49
-1.5
 49
6
 49
-1.5
 49
0.25
 49
-1.5
  0
LTYPE
  2
dashed_double-dotted
 70
   64
  3
---------    -    -    ---------
 72
   65
 73
    6
 40
11
 49
6
 49
-1.5
 49
0.25
 49
-1.5
 49
0.25
 49
-1.5
  0
LTYPE
  2
double-dashed_double-dotted
 70
   64
  3
-----   ---------   -   -   ----
 72
   65
 73
    8
 40
18.5
 49
6
 49
-1.5
 49
6
 49
-1.5
 49
0.25
 49
-1.5
 49
0.25
 49
-1.5
  0
LTYPE
  2
dashed_triplicate-dotted
 70
   64
  3
-------    -    -    -    ------
 72
   65
 73
    8
 40
12.75
 49
6
 49
-1.5
 49
0.25
 49
-1.5
 49
0.25
 49
-1.5
 49
0.25
 49
-1.5
  0
LTYPE
  2
double-dashed_triplicate-dotted
 70
   64
  3
-----  ---------  -  -  -  -----
 72
   65
 73
   10
 40
20.25
 49
6
 49
-1.5
 49
6
 49
-1.5
 49
0.25
 49
-1.5
 49
0.25
 49
-1.5
 49
0.25
 49
-1.5
  0
LTYPE
  2
undefined
 70
   64
  3
--------------------------------
 72
   65
 73
    0
 40
0
  0
LTYPE
  2
_
 70
   64
  3
                                
 72
   65
 73
    0
 40
0
  0
LTYPE
  2
__18
 70
   64
  3
                                
 72
   65
 73
    0
 40
0
  0
LTYPE
  2
__19
 70
   64
  3
                                
 72
   65
 73
    0
 40
0
  0
LTYPE
  2
__20
 70
   64
  3
                                
 72
   65
 73
    0
 40
0
  0
LTYPE
  2
__21
 70
   64
  3
                                
 72
   65
 73
    0
 40
0
  0
LTYPE
  2
__22
 70
   64
  3
                                
 72
   65
 73
    0
 40
0
  0
LTYPE
  2
__23
 70
   64
  3
                                
 72
   65
 73
    0
 40
0
  0
LTYPE
  2
__24
 70
   64
  3
                                
 72
   65
 73
    0
 40
0
  0
LTYPE
  2
__25
 70
   64
  3
                                
 72
   65
 73
    0
 40
0
  0
LTYPE
  2
__26
 70
   64
  3
                                
 72
   65
 73
    0
 40
0
  0
LTYPE
  2
__27
 70
   64
  3
                                
 72
   65
 73
    0
 40
0
  0
LTYPE
  2
__28
 70
   64
  3
                                
 72
   65
 73
    0
 40
0
  0
LTYPE
  2
__29
 70
   64
  3
                                
 72
   65
 73
    0
 40
0
  0
LTYPE
  2
__30
 70
   64
  3
                                
 72
   65
 73
    0
 40
0
  0
LTYPE
  2
__31
 70
   64
  3
                                
 72
   65
 73
    0
 40
0
  0
LTYPE
  2
__32
 70
   64
  3
                                
 72
   65
 73
    0
 40
0
  0
ENDTAB
  0
TABLE
  2
STYLE
  5
3
100
AcDbSymbolTable
 70
     1
  0
STYLE
  5
10
100
AcDbSymbolTableRecord
100
AcDbTextStyleTableRecord
  2
STANDARD
 70
     0
 40
0.0
 41
1.0
 50
0.0
 71
     0
 42
0.2
  3
txt
  4
bigfont.shx
  0
STYLE
  5
26
100
AcDbSymbolTableRecord
100
AcDbTextStyleTableRecord
  2
TATEGAKI
 70
    68
 40
0.0
 41
1.0
 50
0.0
 71
     0
 42
1.0
  3
txt
  4
bigfont.shx
  0
ENDTAB
  0
TABLE
  2
LAYER
 70
    7
  0
LAYER
  2
_0-0_
 70
   64
 62
    7
  6
CONTINUOUS
  0
LAYER
  2
_0-1_
 70
   64
 62
    7
  6
CONTINUOUS
  0
LAYER
  2
_0-2_
 70
   64
 62
    7
  6
CONTINUOUS
  0
LAYER
  2
_0-3_
 70
   64
 62
    7
  6
CONTINUOUS
  0
LAYER
  2
_e-0_
 70
   64
 62
    7
  6
CONTINUOUS
  0
LAYER
  2
_f-0_
 70
   64
 62
    7
  6
CONTINUOUS
  0
LAYER
  2
ADD_LINE
 70
   64
 62
    7
  6
CONTINUOUS
  0
ENDTAB
  0
ENDSEC
  0
SECTION
  2
BLOCKS
  0
BLOCK
  2
-000-33-108X-2__35
 70
   64
 10
0
 20
0
 30
0
  0
ENDBLK
  0
BLOCK
  2
-001-33-108X-2__36
 70
   64
 10
0
 20
0
 30
0
  0
ENDBLK
  0
BLOCK
  2
-002-33-108X-2__37
 70
   64
 10
0
 20
0
 30
0
  0
ENDBLK
  0
BLOCK
  2
-003-33-108X-1__38
 70
   64
 10
0
 20
0
 30
0
  0
ENDBLK
  0
BLOCK
  2
-004-33-108AX__39
 70
   64
 10
0
 20
0
 30
0
  0
INSERT
  2
-000-33-108X-2__35
  8
_0-0_
 10
168.9160050914034
 20
31.783929234556683
 41
1
 42
1
 50
0
  0
INSERT
  2
-001-33-108X-2__36
  8
_0-0_
 10
132.4160050914034
 20
525.98791307951501
 41
1
 42
1
 50
0
  0
INSERT
  2
-002-33-108X-2__37
  8
_0-0_
 10
126.6548620515672
 20
31.783929234556683
 41
1
 42
1
 50
0
  0
INSERT
  2
-003-33-108X-1__38
  8
_0-0_
 10
143.78318357148535
 20
194.68089349478779
 41
1
 42
1
 50
0
  0
ENDBLK
  0
BLOCK
  2
-005-33-108X-1__40
 70
   64
 10
0
 20
0
 30
0
  0
ENDBLK
  0
BLOCK
  2
-006-33-108X-2__41
 70
   64
 10
0
 20
0
 30
0
  0
ENDBLK
  0
BLOCK
  2
-007-33-108AX__42
 70
   64
 10
0
 20
0
 30
0
  0
INSERT
  2
-005-33-108X-1__40
  8
_0-0_
 10
151.7876835714853
 20
194.68089349478779
 41
1
 42
1
 50
0
  0
INSERT
  2
-006-33-108X-2__41
  8
_0-0_
 10
168.9160050914034
 20
31.783929234556683
 41
1
 42
1
 50
0
  0
ENDBLK
  0
BLOCK
  2
-008-87-63
 70
   64
 10
0
 20
0
 30
0
  0
ENDBLK
  0
ENDSEC
  0
SECTION
  2
ENTITIES
  0
ARC
  8
_0-0_
  6
CONTINUOUS
 62
    7
 10
104.07564635329654
 20
216.83868935932886
 40
1
 50
30.000000000000003
 51
210.00000000000005
  0
LINE
  8
_f-0_
  6
CONTINUOUS
 62
    7
 10
63.516368914522615
 20
24.607477417767213
 11
221.51636891452261
 21
24.607477417767213
  0
LINE
  8
_f-0_
  6
CONTINUOUS
 62
    7
 10
63.516368914522615
 20
14.607477417767256
 11
63.516368914522615
 21
24.607477417767213
  0
LINE
  8
_f-0_
  6
CONTINUOUS
 62
    7
 10
17.516368914522615
 20
14.607477417767256
 11
61.516368914522615
 21
14.607477417767256
  0
LINE
  8
_f-0_
  6
CONTINUOUS
 62
    7
 10
17.516368914522615
 20
24.607477417767213
 11
61.516368914522615
 21
24.607477417767213
  0
LINE
  8
_f-0_
  6
CONTINUOUS
 62
    7
 10
142.51636891452261
 20
14.607477417767256
 11
142.51636891452261
 21
24.607477417767213
  0
LINE
  8
_f-0_
  6
CONTINUOUS
 62
    7
 10
221.51636891452261
 20
14.607477417767256
 11
221.51636891452261
 21
24.607477417767213
  0
LINE
  8
_f-0_
  6
CONTINUOUS
 62
    7
 10
222.51636891452261
 20
14.607477417767256
 11
222.51636891452261
 21
24.607477417767213
  0
LINE
  8
_f-0_
  6
CONTINUOUS
 62
    7
 10
63.516368914522615
 20
14.607477417767256
 11
221.51636891452261
 21
14.607477417767256
  0
LINE
  8
_f-0_
  6
CONTINUOUS
 62
    7
 10
271.51636891452261
 20
14.607477417767256
 11
271.51636891452261
 21
24.607477417767213
  0
LINE
  8
_f-0_
  6
CONTINUOUS
 62
    7
 10
272.51636891452261
 20
14.607477417767256
 11
272.51636891452261
 21
24.607477417767213
  0
LINE
  8
_f-0_
  6
CONTINUOUS
 62
    7
 10
222.51636891452261
 20
14.607477417767256
 11
271.51636891452261
 21
14.607477417767256
  0
LINE
  8
_f-0_
  6
CONTINUOUS
 62
    7
 10
222.51636891452261
 20
24.607477417767213
 11
271.51636891452261
 21
24.607477417767213
  0
LINE
  8
_f-0_
  6
CONTINUOUS
 62
    7
 10
302.51636891452261
 20
14.607477417767256
 11
302.51636891452261
 21
24.607477417767213
  0
LINE
  8
_f-0_
  6
CONTINUOUS
 62
    7
 10
332.51636891452267
 20
14.607477417767256
 11
332.51636891452267
 21
24.607477417767213
  0
LINE
  8
_f-0_
  6
CONTINUOUS
 62
    7
 10
370.51636891452261
 20
14.607477417767256
 11
370.51636891452261
 21
24.607477417767213
  0
LINE
  8
_f-0_
  6
CONTINUOUS
 62
    7
 10
272.51636891452261
 20
14.607477417767256
 11
411.51636891452261
 21
14.607477417767256
  0
LINE
  8
_f-0_
  6
CONTINUOUS
 62
    7
 10
411.51636891452261
 20
14.607477417767256
 11
411.51636891452261
 21
24.607477417767213
  0
LINE
  8
_f-0_
  6
CONTINUOUS
 62
    7
 10
272.51636891452261
 20
24.607477417767213
 11
411.51636891452261
 21
24.607477417767213
  0
LINE
  8
_f-0_
  6
CONTINUOUS
 62
    7
 10
413.51636891452261
 20
288.60747741776719
 11
413.51636891452261
 21
12.607477417767256
  0
LINE
  8
_f-0_
  6
CONTINUOUS
 62
    7
 10
15.516368914522615
 20
288.60747741776719
 11
413.51636891452261
 21
288.60747741776719
  0
LINE
  8
_f-0_
  6
CONTINUOUS
 62
    7
 10
15.516368914522615
 20
12.607477417767256
 11
413.51636891452261
 21
12.607477417767256
  0
LINE
  8
_f-0_
  6
CONTINUOUS
 62
    7
 10
15.516368914522615
 20
12.607477417767256
 11
15.516368914522615
 21
288.60747741776719
  0
TEXT
  8
_f-0_
 62
    7
 10
334.51636891452261
 20
21.357477417767242
 40
2.5
 41
0.64
 50
0
  1
ＣＨＥＣＫＥＤ
  0
TEXT
  8
_f-0_
 62
    7
 10
372.51636891452267
 20
21.357477417767242
 40
2.5
 41
0.64
 50
0
  1
ＳＨＥＥＴ　ＮＯ．
  0
TEXT
  8
_f-0_
 62
    7
 10
354.7163689145226
 20
21.357477417767242
 40
2.5
 41
0.64
 50
0
  1
ＤＲＡＷＩＮＧ
  0
LINE
  8
_f-0_
  6
CONTINUOUS
 62
    7
 10
17.516368914522615
 20
19.607477417767256
 11
61.516368914522615
 21
19.607477417767256
  0
TEXT
  8
_f-0_
 62
    7
 10
274.55376732306467
 20
21.354414717252211
 40
2.5
 41
0.64
 50
0
  1
ＳＣＡＬＥ
  0
TEXT
  8
_f-0_
 62
    7
 10
145.01636891452261
 20
21.357477417767242
 40
2.5
 41
0.8
 50
0
  1
図面名称
  0
TEXT
  8
_f-0_
 62
    7
 10
66.016368914522615
 20
21.357477417767242
 40
2.5
 41
0.8
 50
0
  1
名　称
  0
LINE
  8
_f-0_
  6
CONTINUOUS
 62
    7
 10
217.01636891452261
 20
289.80747741776724
 11
217.13136891452262
 21
290.00747741776729
  0
LINE
  8
_f-0_
  6
CONTINUOUS
 62
    7
 10
216.38036891452262
 20
290.30747741776724
 11
217.01636891452261
 21
289.20747741776722
  0
LINE
  8
_f-0_
  6
CONTINUOUS
 62
    7
 10
217.01636891452261
 20
289.20747741776722
 11
217.6513689145226
 21
290.30747741776724
  0
LINE
  8
_f-0_
  6
CONTINUOUS
 62
    7
 10
217.01636891452261
 20
288.60747741776719
 11
218.17036891452261
 21
290.60747741776719
  0
LINE
  8
_f-0_
  6
CONTINUOUS
 62
    7
 10
215.86136891452261
 20
290.60747741776719
 11
217.01636891452261
 21
288.60747741776719
  0
LINE
  8
_f-0_
  6
CONTINUOUS
 62
    7
 10
218.17036891452261
 20
290.60747741776719
 11
215.86136891452261
 21
290.60747741776719
  0
LINE
  8
_f-0_
  6
CONTINUOUS
 62
    7
 10
216.90036891452263
 20
290.00747741776729
 11
217.01636891452261
 21
289.80747741776724
  0
LINE
  8
_f-0_
  6
CONTINUOUS
 62
    7
 10
217.13136891452262
 20
290.00747741776729
 11
216.90036891452263
 21
290.00747741776729
  0
LINE
  8
_f-0_
  6
CONTINUOUS
 62
    7
 10
217.6513689145226
 20
290.30747741776724
 11
216.38036891452262
 21
290.30747741776724
  0
LINE
  8
_f-0_
  6
CONTINUOUS
 62
    7
 10
12.516368914522615
 20
148.87542661019836
 11
12.516368914522615
 21
152.33952822533612
  0
LINE
  8
_f-0_
  6
CONTINUOUS
 62
    7
 10
12.516368914522615
 20
152.33952822533612
 11
15.516368914522615
 21
150.60747741776725
  0
LINE
  8
_f-0_
  6
CONTINUOUS
 62
    7
 10
15.516368914522615
 20
150.60747741776725
 11
12.516368914522615
 21
148.87542661019836
  0
LINE
  8
_f-0_
  6
CONTINUOUS
 62
    7
 10
13.016368914522615
 20
149.74145201398278
 11
13.016368914522615
 21
151.47350282155167
  0
LINE
  8
_f-0_
  6
CONTINUOUS
 62
    7
 10
13.016368914522615
 20
151.47350282155167
 11
14.516368914522615
 21
150.60747741776725
  0
LINE
  8
_f-0_
  6
CONTINUOUS
 62
    7
 10
14.516368914522615
 20
150.60747741776725
 11
13.016368914522615
 21
149.74145201398278
  0
LINE
  8
_f-0_
  6
CONTINUOUS
 62
    7
 10
13.416368914522536
 20
150.43427233701032
 11
13.416368914522536
 21
150.78068249852412
  0
LINE
  8
_f-0_
  6
CONTINUOUS
 62
    7
 10
13.416368914522536
 20
150.78068249852412
 11
13.716368914522661
 21
150.60747741776725
  0
LINE
  8
_f-0_
  6
CONTINUOUS
 62
    7
 10
13.716368914522661
 20
150.60747741776725
 11
13.416368914522536
 21
150.43427233701032
  0
TEXT
  8
_f-0_
 62
    7
 10
15.514868914522594
 20
9.1074774177672566
 40
2
 41
1
 50
0
  1
%f
  0
TEXT
  8
_f-0_
 62
    7
 10
399.51636891452261
 20
9.1074777407702072
 40
2
 41
1
 50
0
  1
%y
  0
TEXT
  8
_f-0_
 62
    7
 10
402.51636891452267
 20
9.1074777407702072
 40
2
 41
1
 50
0
  1
．
  0
TEXT
  8
_f-0_
 62
    7
 10
405.51636891452261
 20
9.1074777407702072
 40
2
 41
1
 50
0
  1
%m
  0
TEXT
  8
_f-0_
 62
    7
 10
408.51636891452261
 20
9.1074777407702072
 40
2
 41
1
 50
0
  1
．
  0
TEXT
  8
_f-0_
 62
    7
 10
411.51636891452267
 20
9.1074777407702072
 40
2
 41
1
 50
0
  1
%d
  0
INSERT
  2
-004-33-108AX__39
  8
_f-0_
 10
1901.6599019556372
 20
2383.4099562044611
 41
2
 42
2
 50
0
  0
INSERT
  2
-007-33-108AX__42
  8
_f-0_
 10
1797.5235836179433
 20
2383.4099562044616
 41
2
 42
2
 50
0
  0
INSERT
  2
-008-87-63
  8
_f-0_
 10
1762.1673592743095
 20
2313.6243239605778
 41
2
 42
2
 50
0
  0
TEXT
  8
_f-0_
 62
    7
 10
304.51636891452261
 20
21.357477417767242
 40
2.5
 41
0.64
 50
0
  1
ＤＡＴＡ
  0
LINE
  8
_0-2_
  6
CONTINUOUS
 62
    7
 10
291.04854731184991
 20
83.546042447177626
 11
291.04854731184991
 21
61.546042447177626
  0
TEXT
  8
_0-2_
 62
    7
 10
275.21994731184986
 20
75.031642447177631
 40
6.1440002441406251
 41
0.6506851115847048
 50
0
  1
材　質
  0
TEXT
  8
_0-2_
 62
    7
 10
275.21994731184986
 20
64.031642447177631
 40
6.1440002441406251
 41
0.6506851115847048
 50
0
  1
色　調
  0
TEXT
  8
_0-2_
 62
    7
 10
296.2999473118499
 20
64.760342447177606
 40
6.1440002441406251
 41
0.6383522988855609
 50
0
  1
クロ
  0
LINE
  8
_0-2_
  6
CONTINUOUS
 62
    7
 10
271.04854731184991
 20
83.546042447177626
 11
271.04854731184991
 21
61.546042447177626
  0
TEXT
  8
_0-2_
 62
    7
 10
295.8111198277993
 20
75.029342447177612
 40
6.1440002441406251
 41
0.7600629134633195
 50
0
  1
ＥＰＤＭ（エチレンプロピレンゴム）
  0
LINE
  8
_0-2_
  6
CONTINUOUS
 62
    7
 10
372.84934863227999
 20
61.546042447177626
 11
372.84934863227999
 21
83.546042447177626
  0
LINE
  8
_0-2_
  6
CONTINUOUS
 62
    7
 10
271.04854731184991
 20
61.546042447177626
 11
372.84934863227999
 21
61.546042447177626
  0
LINE
  8
_0-2_
  6
CONTINUOUS
 62
    7
 10
271.04854731184991
 20
83.546042447177626
 11
372.84934863227999
 21
83.546042447177626
  0
LINE
  8
_0-2_
  6
CONTINUOUS
 62
    7
 10
271.04854731184991
 20
72.546042447177626
 11
372.84934863227999
 21
72.546042447177626
  0
LINE
  8
_0-0_
  6
CONTINUOUS
 62
    7
 10
149.01214635329657
 20
242.44168935932904
 11
134.8321463532965
 21
217.88168935932898
  0
LINE
  8
_0-0_
  6
CONTINUOUS
 62
    7
 10
147.28014635329637
 20
243.44168935932893
 11
133.27914635329651
 21
219.19168935932893
  0
LINE
  8
_0-0_
  6
CONTINUOUS
 62
    7
 10
146.28014635329648
 20
241.70968935932896
 11
148.01214635329645
 21
240.70968935932896
  0
LINE
  8
_0-0_
  6
CONTINUOUS
 62
    7
 10
146.28014635329648
 20
241.70968935932896
 11
142.00464635329652
 21
244.17818935932891
  0
LINE
  8
_0-0_
  6
CONTINUOUS
 62
    7
 10
148.01214635329645
 20
240.70968935932896
 11
150.9096463532966
 21
239.93318935932902
  0
LINE
  8
_0-0_
  6
CONTINUOUS
 62
    7
 10
148.01214635329645
 20
240.70968935932896
 11
150.13314635329643
 21
238.58818935932899
  0
LINE
  8
_0-0_
  6
CONTINUOUS
 62
    7
 10
146.28014635329648
 20
241.70968935932896
 11
144.15864635329651
 21
243.83118935932893
  0
LINE
  8
_0-0_
  6
CONTINUOUS
 62
    7
 10
146.28014635329648
 20
241.70968935932896
 11
143.38214635329646
 21
242.4861893593289
  0
LINE
  8
_0-0_
  6
CONTINUOUS
 62
    7
 10
119.57564635329643
 20
199.15718935932895
 11
119.57564635329643
 21
220.72418935932896
  0
LINE
  8
_0-0_
  6
CONTINUOUS
 62
    7
 10
119.57564635329643
 20
162.72418935932896
 11
119.57564635329643
 21
184.29118935932896
  0
LINE
  8
_0-0_
  6
CONTINUOUS
 62
    7
 10
117.57564635329643
 20
184.29118935932896
 11
117.57564635329643
 21
162.72418935932896
  0
LINE
  8
_0-0_
  6
CONTINUOUS
 62
    7
 10
117.57564635329643
 20
220.72418935932896
 11
117.57564635329643
 21
199.15718935932895
  0
LINE
  8
_0-0_
  6
CONTINUOUS
 62
    7
 10
126.00864635329642
 20
190.72418935932896
 11
147.57564635329643
 21
190.72418935932896
  0
LINE
  8
_0-0_
  6
CONTINUOUS
 62
    7
 10
89.575646353296434
 20
190.72418935932896
 11
111.14264635329644
 21
190.72418935932896
  0
LINE
  8
_0-0_
  6
CONTINUOUS
 62
    7
 10
111.14264635329644
 20
192.72418935932896
 11
89.575646353296434
 21
192.72418935932896
  0
LINE
  8
_0-0_
  6
CONTINUOUS
 62
    7
 10
147.57564635329643
 20
192.72418935932896
 11
126.00864635329642
 21
192.72418935932896
  0
LINE
  8
_0-0_
  6
CONTINUOUS
 62
    7
 10
112.63814635329654
 20
187.14168935932897
 11
93.960646353296539
 21
176.35818935932897
  0
LINE
  8
_0-0_
  6
CONTINUOUS
 62
    7
 10
144.19014635329645
 20
205.35818935932897
 11
125.51264635329644
 21
194.57468935932897
  0
LINE
  8
_0-0_
  6
CONTINUOUS
 62
    7
 10
111.63814635329643
 20
188.87368935932894
 11
92.960646353296425
 21
178.09018935932894
  0
LINE
  8
_0-0_
  6
CONTINUOUS
 62
    7
 10
115.72514635329653
 20
184.78718935932906
 11
104.94164635329653
 21
166.10918935932895
  0
LINE
  8
_0-0_
  6
CONTINUOUS
 62
    7
 10
133.94164635329642
 20
216.33868935932886
 11
123.15814635329641
 21
197.66118935932885
  0
LINE
  8
_0-0_
  6
CONTINUOUS
 62
    7
 10
113.99314635329645
 20
185.78718935932894
 11
103.20964635329644
 21
167.10918935932895
  0
LINE
  8
_0-0_
  6
CONTINUOUS
 62
    7
 10
132.20964635329656
 20
217.33868935932898
 11
121.42614635329655
 21
198.66118935932897
  0
LINE
  8
_0-0_
  6
CONTINUOUS
 62
    7
 10
123.15814635329641
 20
185.78718935932894
 11
133.94164635329642
 21
167.10918935932895
  0
LINE
  8
_0-0_
  6
CONTINUOUS
 62
    7
 10
104.94164635329653
 20
217.33868935932898
 11
115.72514635329653
 21
198.66118935932897
  0
LINE
  8
_0-0_
  6
CONTINUOUS
 62
    7
 10
124.51264635329644
 20
187.14168935932897
 11
143.19014635329645
 21
176.35818935932897
  0
LINE
  8
_0-0_
  6
CONTINUOUS
 62
    7
 10
92.960646353296425
 20
205.35818935932897
 11
111.63814635329643
 21
194.57468935932897
  0
LINE
  8
_0-0_
  6
CONTINUOUS
 62
    7
 10
125.51264635329644
 20
188.87368935932894
 11
144.19014635329645
 21
178.09018935932894
  0
LINE
  8
_0-0_
  6
CONTINUOUS
 62
    7
 10
93.960646353296539
 20
207.09018935932894
 11
112.63814635329654
 21
196.30668935932894
  0
LINE
  8
_0-0_
  6
CONTINUOUS
 62
    7
 10
121.42614635329655
 20
184.78718935932906
 11
132.20964635329656
 21
166.10918935932895
  0
LINE
  8
_0-0_
  6
CONTINUOUS
 62
    7
 10
103.20964635329644
 20
216.33868935932886
 11
113.99314635329645
 21
197.66118935932885
  0
LINE
  8
_0-0_
  6
CONTINUOUS
 62
    7
 10
143.19014635329645
 20
207.09018935932894
 11
124.51264635329644
 21
196.30668935932894
  0
LINE
  8
_0-0_
  6
CONTINUOUS
 62
    7
 10
148.01214635329645
 20
240.70968935932896
 11
181.1686463532965
 21
221.56668935932893
  0
ARC
  8
_0-0_
  6
CONTINUOUS
 62
    7
 10
118.57564635329654
 20
191.72418935932896
 40
7.5
 50
127.66200000000004
 51
142.33799999999999
  0
ARC
  8
_0-0_
  6
CONTINUOUS
 62
    7
 10
118.57564635329654
 20
191.72418935932896
 40
7.5
 50
157.66200000000003
 51
172.33800000000002
  0
ARC
  8
_0-0_
  6
CONTINUOUS
 62
    7
 10
118.57564635329654
 20
191.72418935932896
 40
7.5
 50
187.66200000000009
 51
202.33800000000007
  0
ARC
  8
_0-0_
  6
CONTINUOUS
 62
    7
 10
118.57564635329654
 20
191.72418935932896
 40
7.5
 50
217.66200000000003
 51
232.33800000000002
  0
ARC
  8
_0-0_
  6
CONTINUOUS
 62
    7
 10
118.57564635329654
 20
191.72418935932896
 40
7.5
 50
247.66200000000003
 51
262.33800000000007
  0
ARC
  8
_0-0_
  6
CONTINUOUS
 62
    7
 10
118.57564635329654
 20
191.72418935932896
 40
7.5
 50
277.66200000000003
 51
292.33800000000007
  0
ARC
  8
_0-0_
  6
CONTINUOUS
 62
    7
 10
118.57564635329654
 20
191.72418935932896
 40
7.5
 50
307.66200000000009
 51
322.33800000000013
  0
ARC
  8
_0-0_
  6
CONTINUOUS
 62
    7
 10
118.57564635329654
 20
191.72418935932896
 40
7.5
 50
337.66200000000003
 51
352.33800000000007
  0
ARC
  8
_0-0_
  6
CONTINUOUS
 62
    7
 10
118.57564635329654
 20
191.72418935932896
 40
7.5
 50
7.6620000000000016
 51
22.338000000000004
  0
ARC
  8
_0-0_
  6
CONTINUOUS
 62
    7
 10
118.57564635329654
 20
191.72418935932896
 40
7.5
 50
37.662000000000006
 51
52.338000000000008
  0
ARC
  8
_0-0_
  6
CONTINUOUS
 62
    7
 10
118.57564635329654
 20
191.72418935932896
 40
7.5
 50
67.66200000000002
 51
82.338000000000008
  0
ARC
  8
_0-0_
  6
CONTINUOUS
 62
    7
 10
118.57564635329654
 20
191.72418935932896
 40
7.5
 50
97.66200000000002
 51
112.338
  0
ARC
  8
_0-0_
  6
CONTINUOUS
 62
    7
 10
118.57564635329654
 20
220.72418935932896
 40
1
 50
0
 51
180.00000000000005
  0
ARC
  8
_0-0_
  6
CONTINUOUS
 62
    7
 10
118.57564635329654
 20
162.72418935932896
 40
1
 50
180.00000000000005
 51
0.0000000000001017
  0
ARC
  8
_0-0_
  6
CONTINUOUS
 62
    7
 10
93.460646353296539
 20
206.22418935932896
 40
1
 50
60.000000000000007
 51
240.00000000000002
  0
ARC
  8
_0-0_
  6
CONTINUOUS
 62
    7
 10
143.69014635329645
 20
177.22418935932896
 40
1
 50
240.00000000000002
 51
60.000000000000085
  0
ARC
  8
_0-0_
  6
CONTINUOUS
 62
    7
 10
133.07564635329654
 20
166.60918935932895
 40
1
 50
210.00000000000005
 51
30.000000000000092
  0
ARC
  8
_0-0_
  6
CONTINUOUS
 62
    7
 10
133.07564635329654
 20
216.83868935932886
 40
1
 50
330.00000000000011
 51
150.00000000000014
  0
ARC
  8
_0-0_
  6
CONTINUOUS
 62
    7
 10
104.07564635329654
 20
166.60918935932895
 40
1
 50
150.00000000000002
 51
330.00000000000005
  0
ARC
  8
_0-0_
  6
CONTINUOUS
 62
    7
 10
143.69014635329645
 20
206.22418935932896
 40
1
 50
300.00000000000005
 51
120.00000000000011
  0
ARC
  8
_0-0_
  6
CONTINUOUS
 62
    7
 10
93.460646353296539
 20
177.22418935932896
 40
1
 50
120.00000000000001
 51
300.00000000000005
  0
ARC
  8
_0-0_
  6
CONTINUOUS
 62
    7
 10
147.57564635329643
 20
191.72418935932896
 40
1
 50
270.00000000000005
 51
90.000000000000099
  0
ARC
  8
_0-0_
  6
CONTINUOUS
 62
    7
 10
89.575646353296434
 20
191.72418935932896
 40
1
 50
90.000000000000028
 51
270.00000000000011
  0
CIRCLE
  8
_0-0_
  6
CONTINUOUS
 62
    7
 10
118.57564635329654
 20
191.72418935932896
 40
39.5
  0
CIRCLE
  8
_0-0_
  6
CONTINUOUS
 62
    7
 10
118.57564635329654
 20
191.72418935932896
 40
40.5
  0
CIRCLE
  8
_0-0_
  6
CONTINUOUS
 62
    7
 10
118.57564635329654
 20
191.72418935932896
 40
37
  0
LINE
  8
_0-0_
  6
CONTINUOUS
 62
    7
 10
287.00718650065533
 20
231.22418935932896
 11
286.00718650065522
 21
232.22418935932896
  0
LINE
  8
_0-0_
  6
CONTINUOUS
 62
    7
 10
286.00718650065522
 20
229.44468935932897
 11
287.78668650065532
 21
231.22418935932896
  0
LINE
  8
_0-0_
  6
CONTINUOUS
 62
    7
 10
286.00718650065522
 20
226.61618935932889
 11
290.61518650065528
 21
231.22418935932896
  0
LINE
  8
_0-0_
  6
CONTINUOUS
 62
    7
 10
286.89518650065525
 20
224.67568935932897
 11
293.44368650065524
 21
231.22418935932896
  0
LINE
  8
_0-0_
  6
CONTINUOUS
 62
    7
 10
289.57668650065539
 20
224.52918935932902
 11
294.00718650065533
 21
228.95918935932897
  0
LINE
  8
_0-0_
  6
CONTINUOUS
 62
    7
 10
292.2586865006553
 20
224.38268935932896
 11
296.60018650065529
 21
228.72418935932896
  0
LINE
  8
_0-0_
  6
CONTINUOUS
 62
    7
 10
294.94068650065531
 20
224.2361893593289
 11
297.00718650065533
 21
226.30218935932893
  0
LINE
  8
_0-0_
  6
CONTINUOUS
 62
    7
 10
295.24468650065529
 20
221.71168935932891
 11
297.00718650065533
 21
223.47368935932908
  0
LINE
  8
_0-0_
  6
CONTINUOUS
 62
    7
 10
286.00718650065522
 20
155.905189359329
 11
288.98868650065531
 21
158.88718935932897
  0
LINE
  8
_0-0_
  6
CONTINUOUS
 62
    7
 10
286.00718650065522
 20
153.07718935932891
 11
291.98068650065528
 21
159.05068935932897
  0
LINE
  8
_0-0_
  6
CONTINUOUS
 62
    7
 10
295.16568650065534
 20
159.40718935932895
 11
297.00718650065533
 21
161.24868935932894
  0
LINE
  8
_0-0_
  6
CONTINUOUS
 62
    7
 10
287.98268650065534
 20
152.22418935932896
 11
294.97218650065525
 21
159.21368935932898
  0
LINE
  8
_0-0_
  6
CONTINUOUS
 62
    7
 10
290.81118650065519
 20
152.22418935932896
 11
297.00718650065533
 21
158.42018935932898
  0
LINE
  8
_0-0_
  6
CONTINUOUS
 62
    7
 10
296.13968650065527
 20
154.72418935932896
 11
297.00718650065533
 21
155.59168935932902
  0
LINE
  8
_0-0_
  6
CONTINUOUS
 62
    7
 10
293.63968650065527
 20
152.22418935932896
 11
294.00718650065533
 21
152.59168935932891
  0
LINE
  8
_0-0_
  6
CONTINUOUS
 62
    7
 10
286.00718650065522
 20
224.72418935932896
 11
286.00718650065522
 21
158.72418935932896
  0
LINE
  8
_0-0_
  6
CONTINUOUS
 62
    7
 10
286.00718650065522
 20
224.72418935932896
 11
286.00718650065522
 21
232.22418935932896
  0
LINE
  8
_0-0_
  6
CONTINUOUS
 62
    7
 10
296.00718650065522
 20
199.22418935932896
 11
296.00718650065522
 21
184.22418935932896
  0
LINE
  8
_0-0_
  6
CONTINUOUS
 62
    7
 10
297.00718650065533
 20
154.72418935932896
 11
297.00718650065533
 21
228.72418935932896
  0
LINE
  8
_0-0_
  6
CONTINUOUS
 62
    7
 10
297.00718650065533
 20
228.72418935932896
 11
294.00718650065533
 21
228.72418935932896
  0
LINE
  8
_0-0_
  6
CONTINUOUS
 62
    7
 10
294.00718650065533
 20
228.72418935932896
 11
294.00718650065533
 21
231.22418935932896
  0
LINE
  8
_0-0_
  6
CONTINUOUS
 62
    7
 10
294.00718650065533
 20
231.22418935932896
 11
287.00718650065533
 21
231.22418935932896
  0
LINE
  8
_0-0_
  6
CONTINUOUS
 62
    7
 10
294.00718650065533
 20
152.22418935932896
 11
287.00718650065533
 21
152.22418935932896
  0
LINE
  8
_0-0_
  6
CONTINUOUS
 62
    7
 10
297.00718650065533
 20
154.72418935932896
 11
294.00718650065533
 21
154.72418935932896
  0
LINE
  8
_0-0_
  6
CONTINUOUS
 62
    7
 10
294.00718650065533
 20
152.22418935932896
 11
294.00718650065533
 21
154.72418935932896
  0
LINE
  8
_0-0_
  6
CONTINUOUS
 62
    7
 10
299.00718650065533
 20
191.72418935932896
 11
284.00718650065533
 21
191.72418935932896
  0
LINE
  8
_0-0_
  6
CONTINUOUS
 62
    7
 10
295.00718650065533
 20
224.23268935932887
 11
296.00718650065522
 21
199.22418935932896
  0
LINE
  8
_0-0_
  6
CONTINUOUS
 62
    7
 10
286.00718650065522
 20
224.72418935932896
 11
295.00718650065533
 21
224.23268935932887
  0
LINE
  8
_0-0_
  6
CONTINUOUS
 62
    7
 10
295.00718650065533
 20
159.21568935932893
 11
296.00718650065522
 21
184.22418935932896
  0
LINE
  8
_0-0_
  6
CONTINUOUS
 62
    7
 10
286.00718650065522
 20
158.72418935932896
 11
295.00718650065533
 21
159.21568935932893
  0
LINE
  8
_0-0_
  6
CONTINUOUS
 62
    7
 10
287.00718650065533
 20
152.22418935932896
 11
286.00718650065522
 21
151.22418935932896
  0
LINE
  8
_0-0_
  6
CONTINUOUS
 62
    7
 10
286.00718650065522
 20
151.22418935932896
 11
286.00718650065522
 21
158.72418935932896
  0
LINE
  8
_0-0_
  6
CONTINUOUS
 62
    7
 10
297.00718650065533
 20
161.72418935932896
 11
295.10718650065535
 21
161.72418935932896
  0
LINE
  8
_0-0_
  6
CONTINUOUS
 62
    7
 10
297.00718650065533
 20
221.72418935932896
 11
295.10718650065535
 21
221.72418935932896
  0
TEXT
  8
_0-0_
 62
    7
 10
287.41202468698952
 20
139.87818935932895
 40
4
 41
1.0000000000000015
 50
0
  1
断面
  0
POINT
  8
_0-3_
 62
    3
 10
317.00718650065533
 20
228.72418935932896
  0
POINT
  8
_0-3_
 62
    3
 10
317.00718650065533
 20
154.72418935932896
  0
LINE
  8
_0-3_
  6
CONTINUOUS
 62
    4
 10
318.00718650065533
 20
228.72418935932896
 11
299.00718650065533
 21
228.72418935932896
  0
LINE
  8
_0-3_
  6
CONTINUOUS
 62
    4
 10
318.00718650065533
 20
154.72418935932896
 11
299.00718650065533
 21
154.72418935932896
  0
LINE
  8
_0-3_
  6
CONTINUOUS
 62
    4
 10
317.00718650065533
 20
228.72418935932896
 11
317.00718650065533
 21
154.72418935932896
  0
TEXT
  8
_0-3_
 62
    7
 10
316.50718650065533
 20
189.51918935932897
 40
3.5
 41
0.6285714285714286
 50
90
  1
７４
  0
POINT
  8
_0-3_
 62
    3
 10
266.00718650065522
 20
232.22418935932896
  0
POINT
  8
_0-3_
 62
    3
 10
266.00718650065522
 20
151.22418935932896
  0
LINE
  8
_0-3_
  6
CONTINUOUS
 62
    4
 10
265.00718650065522
 20
232.22418935932896
 11
284.00718650065522
 21
232.22418935932896
  0
LINE
  8
_0-3_
  6
CONTINUOUS
 62
    4
 10
265.00718650065522
 20
151.22418935932896
 11
284.00718650065522
 21
151.22418935932896
  0
LINE
  8
_0-3_
  6
CONTINUOUS
 62
    4
 10
266.00718650065522
 20
232.22418935932896
 11
266.00718650065522
 21
151.22418935932896
  0
TEXT
  8
_0-3_
 62
    7
 10
265.50718650065522
 20
189.51918935932897
 40
3.5
 41
0.6285714285714286
 50
90
  1
８１
  0
POINT
  8
_0-3_
 62
    3
 10
88.575646353296548
 20
131.72418935932896
  0
POINT
  8
_0-3_
 62
    3
 10
118.57564635329654
 20
131.72418935932896
  0
LINE
  8
_0-3_
  6
CONTINUOUS
 62
    4
 10
88.575646353296548
 20
131.72418935932896
 11
118.57564635329654
 21
131.72418935932896
  0
TEXT
  8
_0-3_
 62
    7
 10
101.37064635329655
 20
132.22418935932896
 40
3.5
 41
0.6285714285714286
 50
0
  1
３０
  0
POINT
  8
_0-3_
 62
    3
 10
148.57564544677734
 20
131.72418935932896
  0
LINE
  8
_0-3_
  6
CONTINUOUS
 62
    4
 10
118.57564635329654
 20
131.72418935932896
 11
148.57564544677734
 21
131.72418935932896
  0
TEXT
  8
_0-3_
 62
    7
 10
131.37064590003694
 20
132.22418935932896
 40
3.5
 41
0.6285714285714286
 50
0
  1
３０
  0
TEXT
  8
_0-0_
 62
    7
 10
154.4721781751262
 20
237.74819590864422
 40
3.5
 41
0.857142857142857
 50
-29.999990589999985
  1
(溝幅)
  0
TEXT
  8
_0-0_
 62
    7
 10
151.73215940688371
 20
239.11170074856991
 40
3
 41
0.6666666666666666
 50
-30.000110119999632
  1
2
  0
TEXT
  8
_0-0_
 62
    7
 10
153.40112030007321
 20
232.59319629963061
 40
3.5
 41
0.857142857142857
 50
-29.99998717
  1
12ヶ所（等配）
  0
LINE
  8
_e-0_
  6
CONTINUOUS
 62
    7
 10
224.89496194143126
 20
22.559442898127812
 11
227.8097617615079
 21
23.620343271480194
  0
LINE
  8
_e-0_
  6
CONTINUOUS
 62
    7
 10
224.27973506505128
 20
21.803429741566972
 11
229.27166396158926
 21
23.620343271480109
  0
LINE
  8
_e-0_
  6
CONTINUOUS
 62
    7
 10
223.93704267242137
 20
21.146611024902469
 11
226.90280321503627
 21
22.226059584375477
  0
LINE
  8
_e-0_
  6
CONTINUOUS
 62
    7
 10
223.73756461823958
 20
20.541918064553001
 11
225.91223474161566
 21
21.333433258809876
  0
LINE
  8
_e-0_
  6
CONTINUOUS
 62
    7
 10
223.63661405569695
 20
19.973086178417077
 11
225.46211479408728
 21
20.637514109822134
  0
LINE
  8
_e-0_
  6
CONTINUOUS
 62
    7
 10
223.61285980327798
 20
19.432351451361
 11
225.4538499384065
 21
20.102417062125539
  0
LINE
  8
_e-0_
  6
CONTINUOUS
 62
    7
 10
223.65474388890888
 20
18.915507125582166
 11
225.49923532220543
 21
19.586847104661103
  0
LINE
  8
_e-0_
  6
CONTINUOUS
 62
    7
 10
223.75586960394016
 20
18.420224989534688
 11
225.64332579634933
 21
19.107202862053043
  0
LINE
  8
_e-0_
  6
CONTINUOUS
 62
    7
 10
223.91312442017226
 20
17.945372175600198
 11
225.8826205913096
 21
18.662210158395453
  0
LINE
  8
_e-0_
  6
CONTINUOUS
 62
    7
 10
224.12592193471445
 20
17.490735250581451
 11
226.22635996333283
 21
18.255232171919317
  0
LINE
  8
_e-0_
  6
CONTINUOUS
 62
    7
 10
224.39606980716561
 20
17.056972148766021
 11
226.70438051479627
 21
17.897128537781554
  0
LINE
  8
_e-0_
  6
CONTINUOUS
 62
    7
 10
224.72818768877962
 20
16.645764285703137
 11
227.41105280437514
 21
17.622247330331049
  0
LINE
  8
_e-0_
  6
CONTINUOUS
 62
    7
 10
225.13092583276619
 20
16.260260096079889
 11
228.97288296980465
 21
17.658618135288463
  0
LINE
  8
_e-0_
  6
CONTINUOUS
 62
    7
 10
225.61987939155056
 20
15.906135751178169
 11
228.43481714028754
 21
16.93068930303076
  0
LINE
  8
_e-0_
  6
CONTINUOUS
 62
    7
 10
228.47486213635934
 20
22.798242238249727
 11
230.73356616167063
 21
23.62034327148028
  0
LINE
  8
_e-0_
  6
CONTINUOUS
 62
    7
 10
226.57261434539557
 20
21.573791777902314
 11
231.82148190616896
 21
23.484223333629259
  0
LINE
  8
_e-0_
  6
CONTINUOUS
 62
    7
 10
227.82333079946997
 20
21.496926452454388
 11
231.82148190616896
 21
22.952134447391316
  0
LINE
  8
_e-0_
  6
CONTINUOUS
 62
    7
 10
229.28523299955151
 20
21.496926452454388
 11
231.82148190616896
 21
22.420045561153372
  0
LINE
  8
_e-0_
  6
CONTINUOUS
 62
    7
 10
229.70388354877749
 20
21.117213904693883
 11
231.82148190616896
 21
21.887956674915429
  0
LINE
  8
_e-0_
  6
CONTINUOUS
 62
    7
 10
229.70388354877749
 20
20.58512501845594
 11
231.82148190616896
 21
21.355867788677429
  0
LINE
  8
_e-0_
  6
CONTINUOUS
 62
    7
 10
229.70388354877749
 20
20.053036132217982
 11
231.82148190616896
 21
20.823778902439485
  0
LINE
  8
_e-0_
  6
CONTINUOUS
 62
    7
 10
229.70388354877749
 20
19.520947245980039
 11
231.82148190616896
 21
20.291690016201528
  0
LINE
  8
_e-0_
  6
CONTINUOUS
 62
    7
 10
229.69645367148712
 20
18.986154105564139
 11
231.82148190616896
 21
19.759601129963584
  0
LINE
  8
_e-0_
  6
CONTINUOUS
 62
    7
 10
229.5817680081563
 20
18.412323051576663
 11
231.82148190616896
 21
19.227512243725641
  0
LINE
  8
_e-0_
  6
CONTINUOUS
 62
    7
 10
229.35586854310082
 20
17.798013484121895
 11
231.82148190616896
 21
18.695423357487698
  0
LINE
  8
_e-0_
  6
CONTINUOUS
 62
    7
 10
228.95640753279892
 20
17.120532680384144
 11
231.70245557819438
 21
18.120012430772987
  0
LINE
  8
_e-0_
  6
CONTINUOUS
 62
    7
 10
228.09100360317412
 20
16.273462523145724
 11
231.42024604365911
 21
17.485207674138052
  0
LINE
  8
_e-0_
  6
CONTINUOUS
 62
    7
 10
227.21428092930469
 20
15.422272679913021
 11
230.93340672274078
 21
16.775923766215441
  0
LINE
  8
_e-0_
  6
CONTINUOUS
 62
    7
 10
228.73013306021925
 20
15.441908848876948
 11
229.78881475325437
 21
15.827237472704268
  0
LINE
  8
_e-0_
  6
CONTINUOUS
 62
    3
 10
227.16101564187161
 20
22.364090237445466
 11
226.74881626045512
 21
22.083158082147321
  0
LINE
  8
_e-0_
  6
CONTINUOUS
 62
    3
 10
228.75505313371695
 20
15.42227267991285
 11
227.20840901853964
 21
15.42227267991285
  0
ARC
  8
_e-0_
  6
CONTINUOUS
 62
    3
 10
228.75505313371695
 20
15.92227267991285
 40
0.5
 50
270
 51
286.20399351045659
  0
LINE
  8
_e-0_
  6
CONTINUOUS
 62
    3
 10
231.83925499864875
 20
23.620343271480109
 11
231.83925499864875
 21
18.584824148334121
  0
ARC
  8
_e-0_
  6
CONTINUOUS
 62
    3
 10
227.70858549218709
 20
19.523301071252035
 40
4.25
 50
286.20399351045648
 51
345.50707147989851
  0
ARC
  8
_e-0_
  6
CONTINUOUS
 62
    3
 10
231.33925499864875
 20
18.584824148334121
 40
0.5
 50
345.50707147989879
 51
0.0000000000000159
  0
ARC
  8
_e-0_
  6
CONTINUOUS
 62
    3
 10
225.52564278829467
 20
19.65703826405678
 40
4
 50
279.71265316664215
 51
332.69093929010892
  0
ARC
  8
_e-0_
  6
CONTINUOUS
 62
    3
 10
226.1161174900198
 20
16.207206438210391
 40
0.5
 50
241.9452628118
 51
279.71265316664221
  0
ARC
  8
_e-0_
  6
CONTINUOUS
 62
    3
 10
226.84280014418442
 20
23.120343271480109
 40
0.5
 50
90
 51
106.05338143786269
  0
LINE
  8
_e-0_
  6
CONTINUOUS
 62
    3
 10
229.35971880604481
 20
23.620343271480081
 11
228.33818881004171
 21
23.131545108989257
  0
LINE
  8
_e-0_
  6
CONTINUOUS
 62
    3
 10
228.33818881004171
 20
23.131545108989257
 11
227.74631474828078
 21
22.75192639675123
  0
LINE
  8
_e-0_
  6
CONTINUOUS
 62
    3
 10
227.16101564187161
 20
22.364090237445466
 11
227.74631474828078
 21
22.751926396751244
  0
ARC
  8
_e-0_
  6
CONTINUOUS
 62
    3
 10
226.84280014418442
 20
23.120343271480109
 40
0.5
 50
90
 51
106.05338143786269
  0
ARC
  8
_e-0_
  6
CONTINUOUS
 62
    3
 10
226.84280014418442
 20
23.120343271480109
 40
0.5
 50
90
 51
106.05338143786269
  0
LINE
  8
_e-0_
  6
CONTINUOUS
 62
    3
 10
229.35971880604483
 20
23.620343271480109
 11
226.84280014418442
 21
23.620343271480109
  0
ARC
  8
_e-0_
  6
CONTINUOUS
 62
    3
 10
227.87979824217902
 20
19.516576499787504
 40
4.25
 50
106.05338143786271
 51
241.94526281180051
  0
ARC
  8
_e-0_
  6
CONTINUOUS
 62
    3
 10
226.84280014418442
 20
23.120343271480109
 40
0.5
 50
90
 51
106.05338143786269
  0
LINE
  8
_e-0_
  6
CONTINUOUS
 62
    3
 10
230.43356720910816
 20
23.620343271480109
 11
231.83925499864875
 21
23.620343271480109
  0
ARC
  8
_e-0_
  6
CONTINUOUS
 62
    3
 10
230.43356720910816
 20
23.120343271480109
 40
0.5
 50
90
 51
112.84552721528329
  0
LINE
  8
_e-0_
  6
CONTINUOUS
 62
    3
 10
229.72165664125728
 20
21.496926452454218
 11
227.41810437481933
 21
21.496926452454218
  0
ARC
  8
_e-0_
  6
CONTINUOUS
 62
    3
 10
227.41810437481933
 20
20.996926452454218
 40
0.5
 50
90
 51
110.93110431809542
  0
ARC
  8
_e-0_
  6
CONTINUOUS
 62
    3
 10
225.93929554254836
 20
20.377863869984594
 40
0.05
 50
165.368776721252
 51
224.67319701305797
  0
LINE
  8
_e-0_
  6
CONTINUOUS
 62
    3
 10
225.90373912032887
 20
20.34271076430457
 11
225.88474474191534
 21
20.361923067900647
  0
ARC
  8
_e-0_
  6
CONTINUOUS
 62
    3
 10
228.13259457660137
 20
19.12890510579956
 40
2.5
 50
110.93110431809527
 51
150.17701829297226
  0
ARC
  8
_e-0_
  6
CONTINUOUS
 62
    3
 10
225.92030116413479
 20
20.397076173580671
 40
0.05
 50
224.67319701305652
 51
330.17701829297561
  0
LINE
  8
_e-0_
  6
CONTINUOUS
 62
    3
 10
230.2394432209482
 20
23.58112074187214
 11
228.8687083260981
 21
23.003634771753198
  0
LINE
  8
_e-0_
  6
CONTINUOUS
 62
    3
 10
228.8687083260981
 20
23.003634771753198
 11
228.22782175306693
 21
22.653614209573234
  0
ARC
  8
_e-0_
  6
CONTINUOUS
 62
    3
 10
228.30984611408007
 20
19.759002021256947
 40
2.5
 50
126.05682261028304
 51
165.36877672125814
  0
ARC
  8
_e-0_
  6
CONTINUOUS
 62
    3
 10
232.7192481497305
 20
13.719013551269938
 40
10
 50
116.6886898974924
 51
126.03335467187628
  0
LINE
  8
_e-0_
  6
CONTINUOUS
 62
    3
 10
226.74881626045512
 20
22.083158082147321
 11
225.95197305863649
 21
21.357663311702637
  0
LINE
  8
_e-0_
  6
CONTINUOUS
 62
    3
 10
225.95197305863649
 20
21.357663311702637
 11
225.76745851498802
 21
21.144341182042694
  0
ARC
  8
_e-0_
  6
CONTINUOUS
 62
    3
 10
227.97130721195708
 20
20.062680493268089
 40
2.5
 50
169.07329675873063
 51
296.32138326661799
  0
LINE
  8
_e-0_
  6
CONTINUOUS
 62
    3
 10
225.76745851498802
 20
21.144341182042708
 11
225.51663102113391
 21
20.536563177279575
  0
LINE
  8
_e-0_
  6
CONTINUOUS
 62
    3
 10
229.72165664125728
 20
21.496926452454218
 11
229.72165664125728
 21
19.049903303598853
  0
ARC
  8
_e-0_
  6
CONTINUOUS
 62
    3
 10
228.2447781668277
 20
17.020568401074399
 40
0.5
 50
311.4163090429962
 51
326.13300916724881
  0
ARC
  8
_e-0_
  6
CONTINUOUS
 62
    3
 10
225.7449630233759
 20
19.481073652187035
 40
4
 50
316.78132524618342
 51
353.81191653224226
  0
ARC
  8
_e-0_
  6
CONTINUOUS
 62
    3
 10
224.60638871422315
 20
21.145143796333414
 40
6
 50
294.69555798319504
 51
311.41630904299643
  0
ARC
  8
_e-0_
  6
CONTINUOUS
 62
    3
 10
227.70905044770961
 20
22.905544568558823
 40
7.5
 50
264.68313230529076
 51
266.17253517307824
  0
ARC
  8
_e-0_
  6
CONTINUOUS
 62
    3
 10
227.01870572168419
 20
15.48759848091106
 40
0.05
 50
174.02086603460466
 51
264.68313230528985
  0
ARC
  8
_e-0_
  6
CONTINUOUS
 62
    3
 10
227.21761770102369
 20
15.466765226839072
 40
0.25
 50
114.69555798319522
 51
174.02086603461154
  0
LINE
  8
_e-0_
  6
CONTINUOUS
 62
    7
 10
238.20536810548207
 20
19.550509441829262
 11
239.34255801200222
 21
19.964412718510573
  0
LINE
  8
_e-0_
  6
CONTINUOUS
 62
    3
 10
244.14222125916532
 20
18.870789910286589
 11
244.14222125916532
 21
16.256496040596744
  0
CIRCLE
  8
_e-0_
  6
CONTINUOUS
 62
    3
 10
237.06804321962647
 20
18.853770866897718
 40
1.333773795583065
  0
CIRCLE
  8
_e-0_
  6
CONTINUOUS
 62
    3
 10
237.03967147488896
 20
18.825399122160206
 40
2.5691707563897665
  0
LINE
  8
_e-0_
  6
CONTINUOUS
 62
    3
 10
240.46576508704839
 20
21.433727799882191
 11
240.46576508704839
 21
16.256496040596744
  0
LINE
  8
_e-0_
  6
CONTINUOUS
 62
    3
 10
240.46576508704839
 20
16.256496040596744
 11
242.00206198988951
 21
16.256496040596744
  0
LINE
  8
_e-0_
  6
CONTINUOUS
 62
    3
 10
242.00206198988951
 20
16.256496040596744
 11
242.00206198988951
 21
19.870789910286589
  0
LINE
  8
_e-0_
  6
CONTINUOUS
 62
    3
 10
245.63411651741569
 20
16.256496040596744
 11
244.14222125916532
 21
16.256496040596744
  0
LINE
  8
_e-0_
  6
CONTINUOUS
 62
    3
 10
243.14222125916532
 20
19.870789910286589
 11
242.00206198988951
 21
19.870789910286589
  0
ARC
  8
_e-0_
  6
CONTINUOUS
 62
    3
 10
243.14222125916532
 20
18.870789910286589
 40
1
 50
0
 51
90
  0
LINE
  8
_e-0_
  6
CONTINUOUS
 62
    3
 10
243.13411651741566
 20
21.433727799882191
 11
240.46576508704839
 21
21.433727799882191
  0
LINE
  8
_e-0_
  6
CONTINUOUS
 62
    3
 10
245.63411651741569
 20
18.933727799882205
 11
245.63411651741569
 21
16.256496040596744
  0
ARC
  8
_e-0_
  6
CONTINUOUS
 62
    3
 10
243.13411651741566
 20
18.933727799882205
 40
2.5
 50
0
 51
90
  0
ARC
  8
_e-0_
  6
CONTINUOUS
 62
    3
 10
249.14089497627497
 20
18.825131180173627
 40
1.333773795583065
 50
23.422555400004949
 51
97.191484740792631
  0
LINE
  8
_e-0_
  6
CONTINUOUS
 62
    3
 10
247.91702652762893
 20
19.355318466132871
 11
250.36476342492096
 21
19.355318466132871
  0
ARC
  8
_e-0_
  6
CONTINUOUS
 62
    3
 10
249.14089497627497
 20
18.825131180173627
 40
1.333773795583065
 50
92.530763017635251
 51
156.57744459999506
  0
ARC
  8
_e-0_
  6
CONTINUOUS
 62
    3
 10
249.14089497627497
 20
18.825131180173627
 40
1.333773795583065
 50
204.21097500392608
 51
316.0067678116265
  0
LINE
  8
_e-0_
  6
CONTINUOUS
 62
    3
 10
247.9244378181213
 20
18.278153557083953
 11
251.66837645014646
 21
18.278153557083953
  0
LINE
  8
_e-0_
  6
CONTINUOUS
 62
    3
 10
250.10044098614889
 20
17.898727384456492
 11
251.3872930355115
 21
17.586420890431725
  0
ARC
  8
_e-0_
  6
CONTINUOUS
 62
    3
 10
249.17292759130117
 20
18.88919641022602
 40
2.5691707563897665
 50
346.24110979921471
 51
329.53046432565099
  0
ARC
  8
_e-0_
  6
CONTINUOUS
 62
    3
 10
255.16772481875665
 20
18.821787263121109
 40
1.1089756641867942
 50
94.502189492040685
 51
357.22978420280037
  0
LINE
  8
_e-0_
  6
CONTINUOUS
 62
    3
 10
256.17540452963731
 20
19.927340999672765
 11
255.08067334343763
 21
19.927340999672765
  0
LINE
  8
_e-0_
  6
CONTINUOUS
 62
    3
 10
256.27540452963728
 20
19.827340999672799
 11
256.27540452963728
 21
18.768189857755942
  0
ARC
  8
_e-0_
  6
CONTINUOUS
 62
    3
 10
256.17540452963731
 20
19.827340999672799
 40
0.1
 50
0
 51
90
  0
LINE
  8
_e-0_
  6
CONTINUOUS
 62
    3
 10
255.41340348807779
 20
21.436536160503308
 11
256.25567666910433
 21
21.436536160503308
  0
ARC
  8
_e-0_
  6
CONTINUOUS
 62
    3
 10
255.21299748064302
 20
18.875193581371718
 40
2.5691707563897665
 50
85.526146014136969
 51
347.40557840019874
  0
LINE
  8
_e-0_
  6
CONTINUOUS
 62
    3
 10
256.25567666910433
 20
23.520343271480115
 11
256.25567666910433
 21
21.436536160503308
  0
ARC
  8
_e-0_
  6
CONTINUOUS
 62
    3
 10
256.35567666910435
 20
23.520343271480115
 40
0.1
 50
90
 51
180
  0
LINE
  8
_e-0_
  6
CONTINUOUS
 62
    3
 10
257.72034884015874
 20
23.520343271480115
 11
257.72034884015874
 21
18.314990461581317
  0
LINE
  8
_e-0_
  6
CONTINUOUS
 62
    3
 10
257.62034884015878
 20
23.620343271480109
 11
256.35567666910435
 21
23.620343271480109
  0
ARC
  8
_e-0_
  6
CONTINUOUS
 62
    3
 10
257.62034884015878
 20
23.520343271480115
 40
0.1
 50
0
 51
90
  0
CIRCLE
  8
_e-0_
  6
CONTINUOUS
 62
    3
 10
261.26569737248098
 20
18.869336188909812
 40
1.333773795583065
  0
CIRCLE
  8
_e-0_
  6
CONTINUOUS
 62
    3
 10
261.23732562774347
 20
18.8409644441723
 40
2.5691707563897665
  0
ARC
  8
_e-0_
  6
CONTINUOUS
 62
    3
 10
236.64693337240947
 20
20.963586378279629
 40
0.5
 50
90
 51
106.05338143786269
  0
ARC
  8
_e-0_
  6
CONTINUOUS
 62
    3
 10
236.64693337240947
 20
20.963586378279629
 40
0.5
 50
90
 51
106.05338143786269
  0
ARC
  8
_e-0_
  6
CONTINUOUS
 62
    3
 10
236.64693337240947
 20
20.963586378279629
 40
0.5
 50
90
 51
106.05338143786269
  0
ARC
  8
_e-0_
  6
CONTINUOUS
 62
    3
 10
236.64693337240947
 20
20.963586378279629
 40
0.5
 50
90
 51
106.05338143786269
  0
LINE
  8
_e-0_
  6
CONTINUOUS
 62
    7
 10
235.15107695783277
 20
20.567193922253991
 11
237.36681469386815
 21
21.373656505111242
  0
LINE
  8
_e-0_
  6
CONTINUOUS
 62
    7
 10
236.64051954528406
 20
20.577217803496708
 11
238.16842737065564
 21
21.13333077263438
  0
LINE
  8
_e-0_
  6
CONTINUOUS
 62
    7
 10
234.69148442437094
 20
19.867827033944934
 11
236.64051954528406
 21
20.577217803496708
  0
LINE
  8
_e-0_
  6
CONTINUOUS
 62
    7
 10
234.50915297888352
 20
19.269374928778802
 11
236.23993560685426
 21
19.899328287345213
  0
LINE
  8
_e-0_
  6
CONTINUOUS
 62
    7
 10
234.47250458004532
 20
18.723947116230249
 11
235.77994159004077
 21
19.199815271046588
  0
LINE
  8
_e-0_
  6
CONTINUOUS
 62
    7
 10
234.54341421300136
 20
18.217667225711011
 11
235.74894688763922
 21
18.6564452357145
  0
LINE
  8
_e-0_
  6
CONTINUOUS
 62
    7
 10
234.70841714951203
 20
17.745634496929483
 11
235.91431462987958
 21
18.184545285359831
  0
LINE
  8
_e-0_
  6
CONTINUOUS
 62
    7
 10
234.96678181193331
 20
17.307582657399109
 11
236.27286328163975
 21
17.782957435898879
  0
LINE
  8
_e-0_
  6
CONTINUOUS
 62
    7
 10
235.3299853912627
 20
16.907689063015993
 11
237.01516846109061
 21
17.521045539722649
  0
LINE
  8
_e-0_
  6
CONTINUOUS
 62
    7
 10
235.83138183506326
 20
16.558093557888355
 11
238.04171645401385
 21
17.362589566954511
  0
LINE
  8
_e-0_
  6
CONTINUOUS
 62
    7
 10
236.57854471253526
 20
16.297949719198868
 11
238.04707921602098
 21
16.832452566460574
  0
LINE
  8
_e-0_
  6
CONTINUOUS
 62
    7
 10
238.04707921602098
 20
16.832452566460574
 11
239.01752822909665
 21
17.18566712109316
  0
LINE
  8
_e-0_
  6
CONTINUOUS
 62
    7
 10
237.95638429650605
 20
17.331531201595964
 11
239.422670963243
 21
17.865215903189607
  0
LINE
  8
_e-0_
  6
CONTINUOUS
 62
    7
 10
237.96520696200769
 20
17.866831275463368
 11
239.58204726371789
 21
18.455313018847846
  0
LINE
  8
_e-0_
  6
CONTINUOUS
 62
    7
 10
238.36549199813288
 20
18.544612000073072
 11
239.60323069972162
 21
18.995112045250664
  0
LINE
  8
_e-0_
  6
CONTINUOUS
 62
    7
 10
238.38202050656738
 20
19.082716771397997
 11
239.5195752188172
 21
19.496752826506167
  0
LINE
  8
_e-0_
  6
CONTINUOUS
 62
    7
 10
237.03033909961567
 20
20.18701163177036
 11
238.69277895946873
 21
20.792090257014578
  0
LINE
  8
_e-0_
  6
CONTINUOUS
 62
    7
 10
237.83235325975482
 20
19.946832027283107
 11
239.07144750163257
 21
20.397825448777211
  0
LINE
  8
_e-0_
  6
CONTINUOUS
 62
    7
 10
240.46576508704839
 20
20.905315546982492
 11
241.91756582005348
 21
21.433727799882191
  0
LINE
  8
_e-0_
  6
CONTINUOUS
 62
    7
 10
240.46576508704839
 20
20.373226660744535
 11
243.35307334324386
 21
21.424120923150738
  0
LINE
  8
_e-0_
  6
CONTINUOUS
 62
    7
 10
240.46576508704839
 20
19.841137774506591
 11
244.19379989432931
 21
21.198031476665178
  0
LINE
  8
_e-0_
  6
CONTINUOUS
 62
    7
 10
240.46576508704839
 20
19.309048888268648
 11
244.72746923533318
 21
20.860182345493072
  0
LINE
  8
_e-0_
  6
CONTINUOUS
 62
    7
 10
240.46576508704839
 20
18.776960002030705
 11
242.00206198988951
 21
19.336126345660204
  0
LINE
  8
_e-0_
  6
CONTINUOUS
 62
    7
 10
243.38726974238502
 20
19.840300735843356
 11
245.10880977654846
 21
20.466890065376389
  0
LINE
  8
_e-0_
  6
CONTINUOUS
 62
    7
 10
240.46576508704839
 20
18.244871115792761
 11
242.00206198988951
 21
18.804037459422261
  0
LINE
  8
_e-0_
  6
CONTINUOUS
 62
    7
 10
240.8503582668672
 20
16.256496040596744
 11
242.00206198988951
 21
16.67568191447043
  0
LINE
  8
_e-0_
  6
CONTINUOUS
 62
    7
 10
240.46576508704839
 20
16.648604457078874
 11
242.00206198988951
 21
17.207770800708431
  0
LINE
  8
_e-0_
  6
CONTINUOUS
 62
    7
 10
240.46576508704839
 20
17.180693343316875
 11
242.00206198988951
 21
17.739859686946374
  0
LINE
  8
_e-0_
  6
CONTINUOUS
 62
    7
 10
240.46576508704839
 20
17.712782229554818
 11
242.00206198988951
 21
18.271948573184317
  0
LINE
  8
_e-0_
  6
CONTINUOUS
 62
    7
 10
244.14222125916532
 20
18.518813957551628
 11
245.63411651741569
 21
19.061819424197608
  0
LINE
  8
_e-0_
  6
CONTINUOUS
 62
    7
 10
244.14222125916532
 20
17.986725071313685
 11
245.63411651741569
 21
18.529730537959665
  0
LINE
  8
_e-0_
  6
CONTINUOUS
 62
    7
 10
244.12687367106173
 20
19.045316778552091
 11
245.5532407082851
 21
19.564471923239864
  0
LINE
  8
_e-0_
  6
CONTINUOUS
 62
    7
 10
244.14222125916532
 20
17.454636185075742
 11
245.63411651741569
 21
17.997641651721721
  0
LINE
  8
_e-0_
  6
CONTINUOUS
 62
    7
 10
244.14222125916532
 20
16.922547298837798
 11
245.63411651741569
 21
17.465552765483778
  0
LINE
  8
_e-0_
  6
CONTINUOUS
 62
    7
 10
244.14222125916532
 20
16.390458412599798
 11
245.63411651741569
 21
16.933463879245834
  0
LINE
  8
_e-0_
  6
CONTINUOUS
 62
    7
 10
245.23606486711193
 20
16.256496040596744
 11
245.63411651741569
 21
16.401374993007834
  0
LINE
  8
_e-0_
  6
CONTINUOUS
 62
    7
 10
243.91825915508417
 20
19.501476190538369
 11
245.37933753883709
 21
20.033265232154178
  0
LINE
  8
_e-0_
  6
CONTINUOUS
 62
    7
 10
247.43520734015601
 20
20.781540645361005
 11
249.28772310577977
 21
21.455801242556859
  0
LINE
  8
_e-0_
  6
CONTINUOUS
 62
    7
 10
246.87953280390087
 20
20.047202767986505
 11
250.18541778536052
 21
21.250446499145468
  0
LINE
  8
_e-0_
  6
CONTINUOUS
 62
    7
 10
246.6626588231818
 20
19.436178208179967
 11
250.74431190940526
 21
20.921778438166072
  0
LINE
  8
_e-0_
  6
CONTINUOUS
 62
    7
 10
246.66629311322896
 20
18.905412095341887
 11
247.91531563172287
 21
19.360019114001886
  0
LINE
  8
_e-0_
  6
CONTINUOUS
 62
    7
 10
249.73145207762803
 20
20.021038721677314
 11
251.14522571029147
 21
20.535610241957229
  0
LINE
  8
_e-0_
  6
CONTINUOUS
 62
    7
 10
250.18564170047511
 20
19.654261338868309
 11
251.43421810211515
 21
20.108705984272489
  0
LINE
  8
_e-0_
  6
CONTINUOUS
 62
    7
 10
246.83730318489176
 20
18.435565784948948
 11
249.36430290792753
 21
19.355318466132871
  0
LINE
  8
_e-0_
  6
CONTINUOUS
 62
    7
 10
246.8052568604852
 20
17.891812990509379
 11
251.62777430207887
 21
19.647065793478986
  0
LINE
  8
_e-0_
  6
CONTINUOUS
 62
    7
 10
247.04639808766586
 20
17.447492333219599
 11
248.20920322083208
 21
17.870718789944021
  0
LINE
  8
_e-0_
  6
CONTINUOUS
 62
    7
 10
249.32862104344985
 20
18.278153557083953
 11
251.72865321822382
 21
19.151693829982832
  0
LINE
  8
_e-0_
  6
CONTINUOUS
 62
    7
 10
250.79052324353142
 20
18.278153557083953
 11
251.72788512579222
 21
18.619325380962607
  0
LINE
  8
_e-0_
  6
CONTINUOUS
 62
    7
 10
247.38918632342313
 20
17.040168161453891
 11
248.77187032427667
 21
17.543423981160685
  0
LINE
  8
_e-0_
  6
CONTINUOUS
 62
    7
 10
247.86145472216554
 20
16.679970914942771
 11
250.76610506004709
 21
17.737177178882859
  0
LINE
  8
_e-0_
  6
CONTINUOUS
 62
    7
 10
248.54706387050532
 20
16.397423351041084
 11
251.25404786536131
 21
17.38268494980366
  0
LINE
  8
_e-0_
  6
CONTINUOUS
 62
    7
 10
255.7786858237398
 20
16.369074056294607
 11
256.39055764798956
 21
16.591777187507659
  0
LINE
  8
_e-0_
  6
CONTINUOUS
 62
    7
 10
254.45649567467091
 20
16.419925084231465
 11
257.37072765373284
 21
17.480618780356678
  0
LINE
  8
_e-0_
  6
CONTINUOUS
 62
    7
 10
253.81613692356995
 20
16.718942445816821
 11
257.66906626150819
 21
18.121294039557255
  0
LINE
  8
_e-0_
  6
CONTINUOUS
 62
    7
 10
252.72455535000011
 20
19.514172562191674
 11
257.72034884015874
 21
21.332492689150214
  0
LINE
  8
_e-0_
  6
CONTINUOUS
 62
    7
 10
252.97533721247867
 20
20.137538581665637
 11
257.72034884015874
 21
21.864581575388157
  0
LINE
  8
_e-0_
  6
CONTINUOUS
 62
    7
 10
256.25567666910433
 20
23.459840047118134
 11
256.69665565378858
 21
23.620343271480109
  0
LINE
  8
_e-0_
  6
CONTINUOUS
 62
    7
 10
256.25567666910433
 20
22.927751160880191
 11
257.72034884015874
 21
23.460848234102016
  0
LINE
  8
_e-0_
  6
CONTINUOUS
 62
    7
 10
256.25567666910433
 20
22.395662274642219
 11
257.72034884015874
 21
22.928759347864072
  0
LINE
  8
_e-0_
  6
CONTINUOUS
 62
    7
 10
256.25567666910433
 20
21.863573388404248
 11
257.72034884015874
 21
22.396670461626129
  0
LINE
  8
_e-0_
  6
CONTINUOUS
 62
    7
 10
253.65237211254827
 20
20.916048019088307
 11
255.09666992592457
 21
21.44172943257304
  0
LINE
  8
_e-0_
  6
CONTINUOUS
 62
    7
 10
255.3216285024925
 20
19.927340999672765
 11
257.72034884015874
 21
20.800403802912271
  0
LINE
  8
_e-0_
  6
CONTINUOUS
 62
    7
 10
252.64500914358598
 20
18.953131224570142
 11
254.35388975869346
 21
19.575112902383807
  0
LINE
  8
_e-0_
  6
CONTINUOUS
 62
    7
 10
252.68190999188595
 20
18.434473148732593
 11
254.06483582777616
 21
18.937816989194288
  0
LINE
  8
_e-0_
  6
CONTINUOUS
 62
    7
 10
252.81577006061786
 20
17.951105343069855
 11
254.13041409438028
 21
18.429596640015006
  0
LINE
  8
_e-0_
  6
CONTINUOUS
 62
    7
 10
253.04200327240306
 20
17.50135861192416
 11
254.41991775213659
 21
18.002878467911557
  0
LINE
  8
_e-0_
  6
CONTINUOUS
 62
    7
 10
253.3675420378006
 20
17.087756146390688
 11
255.09198262184347
 21
17.715401189742919
  0
LINE
  8
_e-0_
  6
CONTINUOUS
 62
    7
 10
255.93691796730888
 20
18.022932505371727
 11
257.72034884015874
 21
18.672048257960454
  0
LINE
  8
_e-0_
  6
CONTINUOUS
 62
    7
 10
256.26696269369011
 20
18.675147847988966
 11
257.72034884015874
 21
19.204137144198398
  0
LINE
  8
_e-0_
  6
CONTINUOUS
 62
    7
 10
256.27540452963728
 20
19.210309311234254
 11
257.72034884015874
 21
19.736226030436341
  0
LINE
  8
_e-0_
  6
CONTINUOUS
 62
    7
 10
256.27540452963728
 20
19.742398197472198
 11
257.72034884015874
 21
20.268314916674285
  0
LINE
  8
_e-0_
  6
CONTINUOUS
 62
    7
 10
260.03104519640862
 20
21.109339610776615
 11
260.70330659779682
 21
21.354022750527988
  0
LINE
  8
_e-0_
  6
CONTINUOUS
 62
    7
 10
259.07573351886549
 20
20.229545709466037
 11
262.00063841866568
 21
21.294124031052618
  0
LINE
  8
_e-0_
  6
CONTINUOUS
 62
    7
 10
261.36818066425871
 20
16.275128257876133
 11
262.78637256320337
 21
16.791307895569389
  0
LINE
  8
_e-0_
  6
CONTINUOUS
 62
    7
 10
260.34081652935424
 20
16.433287179256183
 11
263.47171655478211
 21
17.572841594975216
  0
LINE
  8
_e-0_
  6
CONTINUOUS
 62
    7
 10
258.77967812713791
 20
19.58970147294525
 11
262.63871395371887
 21
20.994275646787528
  0
LINE
  8
_e-0_
  6
CONTINUOUS
 62
    7
 10
259.74605077257666
 20
16.748899033666305
 11
263.72446216823408
 21
18.196922361351028
  0
LINE
  8
_e-0_
  6
CONTINUOUS
 62
    7
 10
259.32332387365102
 20
17.127127911471632
 11
260.74098010855021
 21
17.643112583396884
  0
LINE
  8
_e-0_
  6
CONTINUOUS
 62
    7
 10
259.0173118527179
 20
17.547837530762308
 11
260.25546226568081
 21
17.998487426625217
  0
LINE
  8
_e-0_
  6
CONTINUOUS
 62
    7
 10
258.8083519128919
 20
18.003871218749566
 11
260.0033207151597
 21
18.438804293651742
  0
LINE
  8
_e-0_
  6
CONTINUOUS
 62
    7
 10
258.69175640144169
 20
18.493522809370574
 11
259.93411161540279
 21
18.945703127637841
  0
LINE
  8
_e-0_
  6
CONTINUOUS
 62
    7
 10
258.67435016112364
 20
19.019276342242278
 11
260.11490282603074
 21
19.543594633161319
  0
LINE
  8
_e-0_
  6
CONTINUOUS
 62
    7
 10
261.71385216626941
 20
20.125564599107747
 11
263.08606206305881
 21
20.625008156704566
  0
LINE
  8
_e-0_
  6
CONTINUOUS
 62
    7
 10
262.23666352022297
 20
19.783763483845291
 11
263.41067596606643
 21
20.211069068790379
  0
LINE
  8
_e-0_
  6
CONTINUOUS
 62
    7
 10
262.50947456379174
 20
19.350969697045456
 11
263.63610059794183
 21
19.761028038625454
  0
LINE
  8
_e-0_
  6
CONTINUOUS
 62
    7
 10
262.59935315659629
 20
18.851593943286104
 11
263.7691608014415
 21
19.277369105826778
  0
LINE
  8
_e-0_
  6
CONTINUOUS
 62
    7
 10
262.4558554570525
 20
18.26727616572856
 11
263.80516892383406
 21
18.758386104331577
  0
TEXT
  8
_e-0_
 62
    7
 10
264.80223717202437
 20
20.663724475216767
 40
3.5
 41
0.5714285714285713
 50
0
  1
ワンド
  0
TEXT
  8
_e-0_
 62
    7
 10
265.48681991601301
 20
17.309269029672179
 40
3
 41
0.6666666666666666
 50
0
  1
株式
  0
TEXT
  8
_e-0_
 62
    7
 10
265.41836164161418
 20
14.502479779318605
 40
3
 41
0.6666666666666666
 50
0
  1
会社
  0
TEXT
  8
_0-1_
 62
    7
 10
168.57296137339056
 20
15.933476394849776
 40
4.5
 41
0.6666666666666666
 50
0
  1
菊割りゴム（小)
  0
TEXT
  8
_0-1_
 62
    7
 10
304.93890205959127
 20
16.857477417767256
 40
3.5
 41
0.5714285714285713
 50
0
  1
２０２３．０５．０１
  0
TEXT
  8
_0-1_
 62
    7
 10
357.72095497071984
 20
16.857477417767256
 40
3.5
 41
0.5714285714285713
 50
0
  1
Ｔ．Ｋ
  0
LINE
  8
_0-0_
  6
CONTINUOUS
 62
    4
 10
88.575646353296548
 20
129.72418935932896
 11
88.575646353296548
 21
186.72418935932896
  0
LINE
  8
_0-0_
  6
CONTINUOUS
 62
    4
 10
148.57564635329654
 20
129.72418935932896
 11
148.57564635329654
 21
186.72418935932896
  0
LINE
  8
_0-0_
  6
CENTER2
 62
    4
 10
118.57564635329654
 20
129.72418935932896
 11
118.57564635329654
 21
237.4087982832618
  0
ENDSEC
  0
EOF
