  0
SECTION
  2
HEADER
  9
$ACADVER
  1
AC1009
  9
$INSBASE
 10
0
 20
0
 30
0
  9
$EXTMIN
 10
0
 20
0
  9
$EXTMAX
 10
420
 20
297
  9
$LIMMIN
 10
0
 20
0
  9
$LIMMAX
 10
420
 20
297
  9
$LTSCALE
 40
1
  0
ENDSEC
  0
SECTION
  2
TABLES
  0
TABLE
  2
LTYPE
 70
     9
  0
LTYPE
  2
CONTINUOUS
 70
    64
  3
実線
 72
    65
 73
     0
 40
0.0
  0
LTYPE
  2
DASHED1
 70
    64
  3
--  --  --  --  --  --  --  --  
 72
    65
 73
     2
 40
2.5
 49
1.25
 49
-1.25
  0
LTYPE
  2
DASHED2
 70
    64
  3
----    ----    ----    ----    
 72
    65
 73
     2
 40
5.0
 49
2.5
 49
-2.5
  0
LTYPE
  2
DASHED3
 70
    64
  3
------  ------  ------  ------  
 72
    65
 73
     2
 40
5.0
 49
3.75
 49
-1.25
  0
LTYPE
  2
CENTER1
 70
    64
  3
----- - ----- - ----- - ----- - 
 72
    65
 73
     4
 40
10.0
 49
6.25
 49
-1.25
 49
1.25
 49
-1.25
  0
LTYPE
  2
CENTER2
 70
    64
  3
----------  --  ----------  --  
 72
    65
 73
     4
 40
20.0
 49
12.5
 49
-2.5
 49
2.5
 49
-2.5
  0
LTYPE
  2
PHANTOM1
 70
    64
  3
--- - - --- - - --- - - --- - - 
 72
    65
 73
     6
 40
10.0
 49
3.25
 49
-1.25
 49
1.25
 49
-1.25
 49
1.25
 49
-1.25
  0
LTYPE
  2
PHANTOM2
 70
    64
  3
--------  -  -  --------  -  -  
 72
    65
 73
     6
 40
20.0
 49
10.0
 49
-2.5
 49
1.25
 49
-2.5
 49
1.25
 49
-2.5
  0
LTYPE
  2
DOT
 70
    64
  3
-   -   -   -   -   -   -   -   
 72
    65
 73
     2
 40
2.5
 49
0.625
 49
-1.875
  0
LTYPE
  2
DUMMY
 70
    64
  3
ダミー
 72
    65
 73
     0
 40
0.0
  0
LTYPE
  2
RAND1
 70
    64
  3
ランダム線1
 72
    65
 73
     4
 40
10.0
 49
1.0
 49
-2.0
 49
3.0
 49
-4.0
  0
LTYPE
  2
RAND2
 70
    64
  3
ランダム線2
 72
    65
 73
     4
 40
14.0
 49
2.0
 49
-3.0
 49
4.0
 49
-5.0
  0
LTYPE
  2
RAND3
 70
    64
  3
ランダム線3
 72
    65
 73
     4
 40
18.0
 49
3.0
 49
-4.0
 49
5.0
 49
-6.0
  0
LTYPE
  2
RAND4
 70
    64
  3
ランダム線4
 72
    65
 73
     4
 40
22.0
 49
4.0
 49
-5.0
 49
6.0
 49
-7.0
  0
LTYPE
  2
RAND5
 70
    64
  3
ランダム線5
 72
    65
 73
     4
 40
26.0
 49
5.0
 49
-6.0
 49
7.0
 49
-8.0
  0
LTYPE
  2
LONG1
 70
    64
  3
----------  --  ----------  --  
 72
    65
 73
     4
 40
40.0
 49
32.5
 49
-2.5
 49
2.5
 49
-2.5
  0
LTYPE
  2
LONG2
 70
    64
  3
--------  -  -  --------  -  -  
 72
    65
 73
     6
 40
40.0
 49
30.0
 49
-2.5
 49
1.25
 49
-2.5
 49
1.25
 49
-2.5
  0
LTYPE
  2
LONG3
 70
    64
  3
+++++++++++++++..+++++++++++++++
 72
    65
 73
     2
 40
40.0
 49
37.5
 49
-2.5
  0
LTYPE
  2
LONG4
 70
    64
  3
+++++++++++++++..+++++++++++++++
 72
    65
 73
     2
 40
80.0
 49
75.0
 49
-5.0
  0
LTYPE
  2
LONG5
 70
    64
  3
----------  --  ----------  --  
 72
    65
 73
     4
 40
60.0
 49
37.5
 49
-7.5
 49
7.5
 49
-7.5
  0
LTYPE
  2
dashed
 70
   64
  3
-------   -------------   ------
 72
   65
 73
    2
 40
7.5
 49
6
 49
-1.5
  0
LTYPE
  2
dashed_spaced
 70
   64
  3
----        --------        ----
 72
   65
 73
    2
 40
12
 49
6
 49
-6
  0
LTYPE
  2
long_dashed_dotted
 70
   64
  3
------------- --- --------------
 72
   65
 73
    4
 40
15.25
 49
12
 49
-1.5
 49
0.25
 49
-1.5
  0
LTYPE
  2
long_dashed_double-dotted
 70
   64
  3
----------- --- --- ------------
 72
   65
 73
    6
 40
17
 49
12
 49
-1.5
 49
0.25
 49
-1.5
 49
0.25
 49
-1.5
  0
LTYPE
  2
long_dashed_triplicate-dotted
 70
   64
  3
--------- --- --- --- ----------
 72
   65
 73
    8
 40
18.75
 49
12
 49
-1.5
 49
0.25
 49
-1.5
 49
0.25
 49
-1.5
 49
0.25
 49
-1.5
  0
LTYPE
  2
dotted
 70
   64
  3
   -       -       -       -    
 72
   65
 73
    2
 40
1.75
 49
0.25
 49
-1.5
  0
LTYPE
  2
chain
 70
   64
  3
-------------- -- --------------
 72
   65
 73
    4
 40
18.5
 49
12
 49
-1.5
 49
3.5
 49
-1.5
  0
LTYPE
  2
chain_double_dash
 70
   64
  3
------------ -- -- -------------
 72
   65
 73
    6
 40
23.5
 49
12
 49
-1.5
 49
3.5
 49
-1.5
 49
3.5
 49
-1.5
  0
LTYPE
  2
dashed_dotted
 70
   64
  3
-----------     -     ----------
 72
   65
 73
    4
 40
9.25
 49
6
 49
-1.5
 49
0.25
 49
-1.5
  0
LTYPE
  2
double-dashed_dotted
 70
   64
  3
------   -----------   -   -----
 72
   65
 73
    6
 40
16.75
 49
6
 49
-1.5
 49
6
 49
-1.5
 49
0.25
 49
-1.5
  0
LTYPE
  2
dashed_double-dotted
 70
   64
  3
---------    -    -    ---------
 72
   65
 73
    6
 40
11
 49
6
 49
-1.5
 49
0.25
 49
-1.5
 49
0.25
 49
-1.5
  0
LTYPE
  2
double-dashed_double-dotted
 70
   64
  3
-----   ---------   -   -   ----
 72
   65
 73
    8
 40
18.5
 49
6
 49
-1.5
 49
6
 49
-1.5
 49
0.25
 49
-1.5
 49
0.25
 49
-1.5
  0
LTYPE
  2
dashed_triplicate-dotted
 70
   64
  3
-------    -    -    -    ------
 72
   65
 73
    8
 40
12.75
 49
6
 49
-1.5
 49
0.25
 49
-1.5
 49
0.25
 49
-1.5
 49
0.25
 49
-1.5
  0
LTYPE
  2
double-dashed_triplicate-dotted
 70
   64
  3
-----  ---------  -  -  -  -----
 72
   65
 73
   10
 40
20.25
 49
6
 49
-1.5
 49
6
 49
-1.5
 49
0.25
 49
-1.5
 49
0.25
 49
-1.5
 49
0.25
 49
-1.5
  0
LTYPE
  2
undefined
 70
   64
  3
--------------------------------
 72
   65
 73
    0
 40
0
  0
LTYPE
  2
_
 70
   64
  3
                                
 72
   65
 73
    0
 40
0
  0
LTYPE
  2
__18
 70
   64
  3
                                
 72
   65
 73
    0
 40
0
  0
LTYPE
  2
__19
 70
   64
  3
                                
 72
   65
 73
    0
 40
0
  0
LTYPE
  2
__20
 70
   64
  3
                                
 72
   65
 73
    0
 40
0
  0
LTYPE
  2
__21
 70
   64
  3
                                
 72
   65
 73
    0
 40
0
  0
LTYPE
  2
__22
 70
   64
  3
                                
 72
   65
 73
    0
 40
0
  0
LTYPE
  2
__23
 70
   64
  3
                                
 72
   65
 73
    0
 40
0
  0
LTYPE
  2
__24
 70
   64
  3
                                
 72
   65
 73
    0
 40
0
  0
LTYPE
  2
__25
 70
   64
  3
                                
 72
   65
 73
    0
 40
0
  0
LTYPE
  2
__26
 70
   64
  3
                                
 72
   65
 73
    0
 40
0
  0
LTYPE
  2
__27
 70
   64
  3
                                
 72
   65
 73
    0
 40
0
  0
LTYPE
  2
__28
 70
   64
  3
                                
 72
   65
 73
    0
 40
0
  0
LTYPE
  2
__29
 70
   64
  3
                                
 72
   65
 73
    0
 40
0
  0
LTYPE
  2
__30
 70
   64
  3
                                
 72
   65
 73
    0
 40
0
  0
LTYPE
  2
__31
 70
   64
  3
                                
 72
   65
 73
    0
 40
0
  0
LTYPE
  2
__32
 70
   64
  3
                                
 72
   65
 73
    0
 40
0
  0
ENDTAB
  0
TABLE
  2
STYLE
  5
3
100
AcDbSymbolTable
 70
     1
  0
STYLE
  5
10
100
AcDbSymbolTableRecord
100
AcDbTextStyleTableRecord
  2
STANDARD
 70
     0
 40
0.0
 41
1.0
 50
0.0
 71
     0
 42
0.2
  3
txt
  4
bigfont.shx
  0
STYLE
  5
26
100
AcDbSymbolTableRecord
100
AcDbTextStyleTableRecord
  2
TATEGAKI
 70
    68
 40
0.0
 41
1.0
 50
0.0
 71
     0
 42
1.0
  3
txt
  4
bigfont.shx
  0
ENDTAB
  0
TABLE
  2
LAYER
 70
   10
  0
LAYER
  2
_0-0_
 70
   64
 62
    7
  6
CONTINUOUS
  0
LAYER
  2
_0-9_
 70
   64
 62
    7
  6
CONTINUOUS
  0
LAYER
  2
_0-d_
 70
   64
 62
    7
  6
CONTINUOUS
  0
LAYER
  2
_1-2_
 70
   64
 62
    7
  6
CONTINUOUS
  0
LAYER
  2
_e-0_
 70
   64
 62
    7
  6
CONTINUOUS
  0
LAYER
  2
_f-7_
 70
   64
 62
    7
  6
CONTINUOUS
  0
LAYER
  2
_f-8_
 70
   64
 62
    7
  6
CONTINUOUS
  0
LAYER
  2
_f-9_
 70
   64
 62
    7
  6
CONTINUOUS
  0
LAYER
  2
_f-d_固定文字
 70
   64
 62
    7
  6
CONTINUOUS
  0
LAYER
  2
ADD_LINE
 70
   64
 62
    7
  6
CONTINUOUS
  0
ENDTAB
  0
ENDSEC
  0
SECTION
  2
BLOCKS
  0
ENDSEC
  0
SECTION
  2
ENTITIES
  0
LINE
  8
_f-9_
  6
CONTINUOUS
 62
    7
 10
63
 20
12
 11
63
 21
22
  0
LINE
  8
_f-9_
  6
CONTINUOUS
 62
    7
 10
17
 20
12
 11
61
 21
12
  0
LINE
  8
_f-9_
  6
CONTINUOUS
 62
    7
 10
17
 20
22
 11
61
 21
22
  0
LINE
  8
_f-9_
  6
CONTINUOUS
 62
    7
 10
142
 20
12
 11
142
 21
22
  0
LINE
  8
_f-9_
  6
CONTINUOUS
 62
    7
 10
221
 20
12
 11
221
 21
22
  0
LINE
  8
_f-9_
  6
CONTINUOUS
 62
    7
 10
222
 20
12
 11
222
 21
22
  0
LINE
  8
_f-9_
  6
CONTINUOUS
 62
    7
 10
63
 20
12
 11
221
 21
12
  0
LINE
  8
_f-9_
  6
CONTINUOUS
 62
    7
 10
63
 20
22
 11
221
 21
22
  0
LINE
  8
_f-9_
  6
CONTINUOUS
 62
    7
 10
271
 20
12
 11
271
 21
22
  0
LINE
  8
_f-9_
  6
CONTINUOUS
 62
    7
 10
272
 20
12
 11
272
 21
22
  0
LINE
  8
_f-9_
  6
CONTINUOUS
 62
    7
 10
222
 20
12
 11
271
 21
12
  0
LINE
  8
_f-9_
  6
CONTINUOUS
 62
    7
 10
222
 20
22
 11
271
 21
22
  0
LINE
  8
_f-9_
  6
CONTINUOUS
 62
    7
 10
302
 20
12
 11
302
 21
22
  0
LINE
  8
_f-9_
  6
CONTINUOUS
 62
    7
 10
332
 20
12
 11
332
 21
22
  0
LINE
  8
_f-9_
  6
CONTINUOUS
 62
    7
 10
370
 20
12
 11
370
 21
22
  0
LINE
  8
_f-9_
  6
CONTINUOUS
 62
    7
 10
272
 20
12
 11
411
 21
12
  0
LINE
  8
_f-9_
  6
CONTINUOUS
 62
    7
 10
411
 20
12
 11
411
 21
22
  0
LINE
  8
_f-9_
  6
CONTINUOUS
 62
    7
 10
272
 20
22
 11
411
 21
22
  0
LINE
  8
_0-0_
  6
CONTINUOUS
 62
    7
 10
413
 20
286
 11
413
 21
10
  0
LINE
  8
_0-0_
  6
CONTINUOUS
 62
    7
 10
15
 20
286
 11
413
 21
286
  0
LINE
  8
_0-0_
  6
CONTINUOUS
 62
    7
 10
15
 20
10
 11
413
 21
10
  0
LINE
  8
_0-0_
  6
CONTINUOUS
 62
    7
 10
15
 20
10
 11
15
 21
286
  0
TEXT
  8
_f-8_
 62
    7
 10
304
 20
18.75
 40
2.5
 41
0.64
 50
0
  1
ＤＡＴＡ
  0
TEXT
  8
_f-8_
 62
    7
 10
334
 20
18.75
 40
2.5
 41
0.64
 50
0
  1
ＣＨＥＣＫＥＤ
  0
TEXT
  8
_f-8_
 62
    7
 10
372
 20
18.75
 40
2.5
 41
0.64
 50
0
  1
ＳＨＥＥＴ　ＮＯ．
  0
TEXT
  8
_f-8_
 62
    7
 10
354.19999999999998
 20
18.75
 40
2.5
 41
0.64
 50
0
  1
ＤＲＡＷＩＮＧ
  0
LINE
  8
_f-9_
  6
CONTINUOUS
 62
    7
 10
17
 20
17
 11
61
 21
17
  0
TEXT
  8
_f-8_
 62
    7
 10
274.03739840854211
 20
18.746937299484983
 40
2.5
 41
0.64
 50
0
  1
ＳＣＡＬＥ
  0
TEXT
  8
_f-8_
 62
    7
 10
144.5
 20
18.75
 40
2.5
 41
0.8
 50
0
  1
図面名称
  0
TEXT
  8
_f-8_
 62
    7
 10
65.5
 20
18.75
 40
2.5
 41
0.8
 50
0
  1
名　称
  0
LINE
  8
_f-8_
  6
CONTINUOUS
 62
    7
 10
216.5
 20
287.19999999999998
 11
216.615
 21
287.40000000000003
  0
LINE
  8
_f-8_
  6
CONTINUOUS
 62
    7
 10
215.864
 20
287.69999999999998
 11
216.5
 21
286.60000000000002
  0
LINE
  8
_f-8_
  6
CONTINUOUS
 62
    7
 10
216.5
 20
286.60000000000002
 11
217.13499999999999
 21
287.69999999999998
  0
LINE
  8
_f-8_
  6
CONTINUOUS
 62
    7
 10
216.5
 20
286
 11
217.65399999999999
 21
288
  0
LINE
  8
_f-8_
  6
CONTINUOUS
 62
    7
 10
215.34499999999999
 20
288
 11
216.5
 21
286
  0
LINE
  8
_f-8_
  6
CONTINUOUS
 62
    7
 10
217.65399999999999
 20
288
 11
215.34499999999999
 21
288
  0
LINE
  8
_f-8_
  6
CONTINUOUS
 62
    7
 10
216.38400000000001
 20
287.40000000000003
 11
216.5
 21
287.19999999999998
  0
LINE
  8
_f-8_
  6
CONTINUOUS
 62
    7
 10
216.615
 20
287.40000000000003
 11
216.38400000000001
 21
287.40000000000003
  0
LINE
  8
_f-8_
  6
CONTINUOUS
 62
    7
 10
217.13499999999999
 20
287.69999999999998
 11
215.864
 21
287.69999999999998
  0
LINE
  8
_f-7_
  6
CONTINUOUS
 62
    7
 10
12
 20
146.26794919243113
 11
12
 21
149.73205080756886
  0
LINE
  8
_f-7_
  6
CONTINUOUS
 62
    7
 10
12
 20
149.73205080756886
 11
15
 21
148
  0
LINE
  8
_f-7_
  6
CONTINUOUS
 62
    7
 10
15
 20
148
 11
12
 21
146.26794919243113
  0
LINE
  8
_f-7_
  6
CONTINUOUS
 62
    7
 10
12.5
 20
147.13397459621555
 11
12.5
 21
148.86602540378444
  0
LINE
  8
_f-7_
  6
CONTINUOUS
 62
    7
 10
12.5
 20
148.86602540378444
 11
14
 21
148
  0
LINE
  8
_f-7_
  6
CONTINUOUS
 62
    7
 10
14
 20
148
 11
12.5
 21
147.13397459621555
  0
LINE
  8
_f-7_
  6
CONTINUOUS
 62
    7
 10
12.899999999999977
 20
147.82679491924309
 11
12.899999999999977
 21
148.1732050807569
  0
LINE
  8
_f-7_
  6
CONTINUOUS
 62
    7
 10
12.899999999999977
 20
148.1732050807569
 11
13.200000000000045
 21
148
  0
LINE
  8
_f-7_
  6
CONTINUOUS
 62
    7
 10
13.200000000000045
 20
148
 11
12.899999999999977
 21
147.82679491924309
  0
LINE
  8
_f-7_
  6
CONTINUOUS
 62
    7
 10
416
 20
146.26794919243113
 11
416
 21
149.73205080756886
  0
LINE
  8
_f-7_
  6
CONTINUOUS
 62
    7
 10
416
 20
149.73205080756886
 11
413
 21
148
  0
LINE
  8
_f-7_
  6
CONTINUOUS
 62
    7
 10
413
 20
148
 11
416
 21
146.26794919243113
  0
LINE
  8
_f-7_
  6
CONTINUOUS
 62
    7
 10
415.5
 20
147.13397459621555
 11
415.5
 21
148.86602540378444
  0
LINE
  8
_f-7_
  6
CONTINUOUS
 62
    7
 10
415.5
 20
148.86602540378444
 11
414
 21
148
  0
LINE
  8
_f-7_
  6
CONTINUOUS
 62
    7
 10
414
 20
148
 11
415.5
 21
147.13397459621555
  0
LINE
  8
_f-7_
  6
CONTINUOUS
 62
    7
 10
415.10000000000002
 20
147.82679491924309
 11
415.10000000000002
 21
148.1732050807569
  0
LINE
  8
_f-7_
  6
CONTINUOUS
 62
    7
 10
415.10000000000002
 20
148.1732050807569
 11
414.79999999999995
 21
148
  0
LINE
  8
_f-7_
  6
CONTINUOUS
 62
    7
 10
414.79999999999995
 20
148
 11
415.10000000000002
 21
147.82679491924309
  0
TEXT
  8
_f-d_固定文字
 62
    7
 10
14.998500000000007
 20
6.5
 40
2
 41
1
 50
0
  1
%f
  0
TEXT
  8
_f-d_固定文字
 62
    7
 10
398
 20
6.5
 40
2
 41
1
 50
0
  1
%y
  0
TEXT
  8
_f-d_固定文字
 62
    7
 10
401
 20
6.500000323002979
 40
2
 41
1
 50
0
  1
．
  0
TEXT
  8
_f-d_固定文字
 62
    7
 10
404
 20
6.500000323002979
 40
2
 41
1
 50
0
  1
%m
  0
TEXT
  8
_f-d_固定文字
 62
    7
 10
407
 20
6.500000323002979
 40
2
 41
1
 50
0
  1
．
  0
TEXT
  8
_f-d_固定文字
 62
    7
 10
410
 20
6.500000323002979
 40
2
 41
1
 50
0
  1
%d
  0
LINE
  8
_e-0_
  6
CONTINUOUS
 62
    7
 10
224.37859302690861
 20
19.951965480360598
 11
227.29339284698528
 21
21.01286585371298
  0
LINE
  8
_e-0_
  6
CONTINUOUS
 62
    7
 10
223.76336615052866
 20
19.195952323799758
 11
228.75529504706665
 21
21.012865853712895
  0
LINE
  8
_e-0_
  6
CONTINUOUS
 62
    7
 10
223.42067375789872
 20
18.539133607135255
 11
226.38643430051365
 21
19.618582166608263
  0
LINE
  8
_e-0_
  6
CONTINUOUS
 62
    7
 10
223.22119570371697
 20
17.934440646785787
 11
225.39586582709301
 21
18.725955841042662
  0
LINE
  8
_e-0_
  6
CONTINUOUS
 62
    7
 10
223.12024514117433
 20
17.365608760649877
 11
224.94574587956464
 21
18.03003669205492
  0
LINE
  8
_e-0_
  6
CONTINUOUS
 62
    7
 10
223.09649088875534
 20
16.8248740335938
 11
224.93748102388386
 21
17.494939644358311
  0
LINE
  8
_e-0_
  6
CONTINUOUS
 62
    7
 10
223.13837497438626
 20
16.308029707814966
 11
224.98286640768282
 21
16.979369686893903
  0
LINE
  8
_e-0_
  6
CONTINUOUS
 62
    7
 10
223.23950068941755
 20
15.812747571767488
 11
225.12695688182671
 21
16.499725444285843
  0
LINE
  8
_e-0_
  6
CONTINUOUS
 62
    7
 10
223.39675550564962
 20
15.337894757832998
 11
225.36625167678698
 21
16.054732740628253
  0
LINE
  8
_e-0_
  6
CONTINUOUS
 62
    7
 10
223.60955302019183
 20
14.883257832814223
 11
225.70999104881019
 21
15.647754754152117
  0
LINE
  8
_e-0_
  6
CONTINUOUS
 62
    7
 10
223.87970089264297
 20
14.449494730998821
 11
226.18801160027362
 21
15.289651120014326
  0
LINE
  8
_e-0_
  6
CONTINUOUS
 62
    7
 10
224.21181877425701
 20
14.038286867935909
 11
226.89468388985253
 21
15.014769912563821
  0
LINE
  8
_e-0_
  6
CONTINUOUS
 62
    7
 10
224.61455691824355
 20
13.652782678312661
 11
228.45651405528204
 21
15.051140717521263
  0
LINE
  8
_e-0_
  6
CONTINUOUS
 62
    7
 10
225.10351047702795
 20
13.298658333410969
 11
227.91844822576493
 21
14.32321188526356
  0
LINE
  8
_e-0_
  6
CONTINUOUS
 62
    7
 10
227.95849322183673
 20
20.190764820482513
 11
230.21719724714802
 21
21.012865853713066
  0
LINE
  8
_e-0_
  6
CONTINUOUS
 62
    7
 10
226.05624543087296
 20
18.9663143601351
 11
231.30511299164635
 21
20.876745915862045
  0
LINE
  8
_e-0_
  6
CONTINUOUS
 62
    7
 10
227.30696188494735
 20
18.889449034687174
 11
231.30511299164635
 21
20.344657029624102
  0
LINE
  8
_e-0_
  6
CONTINUOUS
 62
    7
 10
228.76886408502889
 20
18.889449034687174
 11
231.30511299164635
 21
19.812568143386158
  0
LINE
  8
_e-0_
  6
CONTINUOUS
 62
    7
 10
229.18751463425485
 20
18.509736486926669
 11
231.30511299164635
 21
19.280479257148215
  0
LINE
  8
_e-0_
  6
CONTINUOUS
 62
    7
 10
229.18751463425485
 20
17.977647600688726
 11
231.30511299164635
 21
18.748390370910215
  0
LINE
  8
_e-0_
  6
CONTINUOUS
 62
    7
 10
229.18751463425485
 20
17.445558714450783
 11
231.30511299164635
 21
18.216301484672271
  0
LINE
  8
_e-0_
  6
CONTINUOUS
 62
    7
 10
229.18751463425485
 20
16.913469828212839
 11
231.30511299164635
 21
17.684212598434328
  0
LINE
  8
_e-0_
  6
CONTINUOUS
 62
    7
 10
229.1800847569645
 20
16.378676687796939
 11
231.30511299164635
 21
17.152123712196384
  0
LINE
  8
_e-0_
  6
CONTINUOUS
 62
    7
 10
229.06539909363365
 20
15.804845633809463
 11
231.30511299164635
 21
16.620034825958413
  0
LINE
  8
_e-0_
  6
CONTINUOUS
 62
    7
 10
228.8394996285782
 20
15.190536066354695
 11
231.30511299164635
 21
16.087945939720469
  0
LINE
  8
_e-0_
  6
CONTINUOUS
 62
    7
 10
228.4400386182763
 20
14.513055262616916
 11
231.18608666367177
 21
15.512535013005759
  0
LINE
  8
_e-0_
  6
CONTINUOUS
 62
    7
 10
227.57463468865151
 20
13.665985105378524
 11
230.9038771291365
 21
14.877730256370853
  0
LINE
  8
_e-0_
  6
CONTINUOUS
 62
    7
 10
226.69791201478207
 20
12.814795262145821
 11
230.41703780821814
 21
14.168446348448242
  0
LINE
  8
_e-0_
  6
CONTINUOUS
 62
    7
 10
228.21376414569664
 20
12.834431431109749
 11
229.27244583873175
 21
13.219760054937069
  0
LINE
  8
_e-0_
  6
CONTINUOUS
 62
    3
 10
226.64464672734899
 20
19.756612819678252
 11
226.23244734593251
 21
19.475680664380121
  0
LINE
  8
_e-0_
  6
CONTINUOUS
 62
    3
 10
228.23868421919431
 20
12.814795262145651
 11
226.69204010401702
 21
12.814795262145651
  0
ARC
  8
_e-0_
  6
CONTINUOUS
 62
    3
 10
228.23868421919431
 20
13.314795262145651
 40
0.5
 50
270
 51
286.20399351045659
  0
LINE
  8
_e-0_
  6
CONTINUOUS
 62
    3
 10
231.32288608412613
 20
21.012865853712895
 11
231.32288608412613
 21
15.977346730566921
  0
ARC
  8
_e-0_
  6
CONTINUOUS
 62
    3
 10
227.19221657766448
 20
16.915823653484835
 40
4.25
 50
286.20399351045648
 51
345.50707147989851
  0
ARC
  8
_e-0_
  6
CONTINUOUS
 62
    3
 10
230.82288608412613
 20
15.977346730566921
 40
0.5
 50
345.50707147989879
 51
0.0000000000000159
  0
ARC
  8
_e-0_
  6
CONTINUOUS
 62
    3
 10
225.00927387377203
 20
17.04956084628958
 40
4
 50
279.71265316664215
 51
332.69093929010892
  0
ARC
  8
_e-0_
  6
CONTINUOUS
 62
    3
 10
225.59974857549715
 20
13.599729020443191
 40
0.5
 50
241.9452628118
 51
279.71265316664221
  0
ARC
  8
_e-0_
  6
CONTINUOUS
 62
    3
 10
226.32643122966177
 20
20.512865853712895
 40
0.5
 50
90
 51
106.05338143786268
  0
LINE
  8
_e-0_
  6
CONTINUOUS
 62
    3
 10
228.84334989152219
 20
21.012865853712881
 11
227.82181989551909
 21
20.524067691222057
  0
LINE
  8
_e-0_
  6
CONTINUOUS
 62
    3
 10
227.82181989551909
 20
20.524067691222057
 11
227.22994583375816
 21
20.14444897898403
  0
LINE
  8
_e-0_
  6
CONTINUOUS
 62
    3
 10
226.64464672734899
 20
19.756612819678252
 11
227.22994583375816
 21
20.14444897898403
  0
ARC
  8
_e-0_
  6
CONTINUOUS
 62
    3
 10
226.32643122966177
 20
20.512865853712895
 40
0.5
 50
90
 51
106.05338143786268
  0
ARC
  8
_e-0_
  6
CONTINUOUS
 62
    3
 10
226.32643122966177
 20
20.512865853712895
 40
0.5
 50
90
 51
106.05338143786268
  0
LINE
  8
_e-0_
  6
CONTINUOUS
 62
    3
 10
228.84334989152219
 20
21.012865853712895
 11
226.32643122966177
 21
21.012865853712895
  0
ARC
  8
_e-0_
  6
CONTINUOUS
 62
    3
 10
227.3634293276564
 20
16.909099082020304
 40
4.25
 50
106.05338143786268
 51
241.94526281180051
  0
ARC
  8
_e-0_
  6
CONTINUOUS
 62
    3
 10
226.32643122966177
 20
20.512865853712895
 40
0.5
 50
90
 51
106.05338143786268
  0
LINE
  8
_e-0_
  6
CONTINUOUS
 62
    3
 10
229.91719829458554
 20
21.012865853712895
 11
231.32288608412613
 21
21.012865853712895
  0
ARC
  8
_e-0_
  6
CONTINUOUS
 62
    3
 10
229.91719829458554
 20
20.512865853712895
 40
0.5
 50
90
 51
112.84552721528326
  0
LINE
  8
_e-0_
  6
CONTINUOUS
 62
    3
 10
229.20528772673463
 20
18.889449034687004
 11
226.90173546029672
 21
18.889449034687004
  0
ARC
  8
_e-0_
  6
CONTINUOUS
 62
    3
 10
226.90173546029672
 20
18.389449034687004
 40
0.5
 50
90
 51
110.93110431809542
  0
ARC
  8
_e-0_
  6
CONTINUOUS
 62
    3
 10
225.42292662802572
 20
17.770386452217394
 40
0.05
 50
165.368776721252
 51
224.67319701305797
  0
LINE
  8
_e-0_
  6
CONTINUOUS
 62
    3
 10
225.38737020580626
 20
17.73523334653737
 11
225.36837582739269
 21
17.754445650133447
  0
ARC
  8
_e-0_
  6
CONTINUOUS
 62
    3
 10
227.61622566207876
 20
16.52142768803236
 40
2.5
 50
110.93110431809527
 51
150.17701829297229
  0
ARC
  8
_e-0_
  6
CONTINUOUS
 62
    3
 10
225.40393224961218
 20
17.789598755813472
 40
0.05
 50
224.67319701305652
 51
330.17701829297561
  0
LINE
  8
_e-0_
  6
CONTINUOUS
 62
    3
 10
229.72307430642558
 20
20.973643324104926
 11
228.35233941157548
 21
20.396157353985984
  0
LINE
  8
_e-0_
  6
CONTINUOUS
 62
    3
 10
228.35233941157548
 20
20.396157353985984
 11
227.71145283854431
 21
20.04613679180602
  0
ARC
  8
_e-0_
  6
CONTINUOUS
 62
    3
 10
227.79347719955745
 20
17.151524603489747
 40
2.5
 50
126.05682261028302
 51
165.36877672125814
  0
ARC
  8
_e-0_
  6
CONTINUOUS
 62
    3
 10
232.20287923520788
 20
11.111536133502738
 40
10
 50
116.68868989749238
 51
126.03335467187628
  0
LINE
  8
_e-0_
  6
CONTINUOUS
 62
    3
 10
226.23244734593248
 20
19.475680664380121
 11
225.43560414411385
 21
18.750185893935451
  0
LINE
  8
_e-0_
  6
CONTINUOUS
 62
    3
 10
225.43560414411385
 20
18.750185893935451
 11
225.25108960046537
 21
18.536863764275494
  0
ARC
  8
_e-0_
  6
CONTINUOUS
 62
    3
 10
227.45493829743443
 20
17.45520307550089
 40
2.5
 50
169.07329675873063
 51
296.32138326661799
  0
LINE
  8
_e-0_
  6
CONTINUOUS
 62
    3
 10
225.2510896004654
 20
18.536863764275494
 11
225.0002621066113
 21
17.929085759512361
  0
LINE
  8
_e-0_
  6
CONTINUOUS
 62
    3
 10
229.20528772673463
 20
18.889449034687004
 11
229.20528772673463
 21
16.442425885831653
  0
ARC
  8
_e-0_
  6
CONTINUOUS
 62
    3
 10
227.72840925230508
 20
14.413090983307199
 40
0.5
 50
311.4163090429962
 51
326.13300916724881
  0
ARC
  8
_e-0_
  6
CONTINUOUS
 62
    3
 10
225.22859410885328
 20
16.873596234419835
 40
4
 50
316.78132524618342
 51
353.81191653224226
  0
ARC
  8
_e-0_
  6
CONTINUOUS
 62
    3
 10
224.09001979970051
 20
18.5376663785662
 40
6
 50
294.69555798319504
 51
311.41630904299643
  0
ARC
  8
_e-0_
  6
CONTINUOUS
 62
    3
 10
227.19268153318699
 20
20.298067150791609
 40
7.5
 50
264.68313230529076
 51
266.17253517307824
  0
ARC
  8
_e-0_
  6
CONTINUOUS
 62
    3
 10
226.50233680716155
 20
12.880121063143832
 40
0.05
 50
174.02086603460466
 51
264.68313230528985
  0
ARC
  8
_e-0_
  6
CONTINUOUS
 62
    3
 10
226.70124878650105
 20
12.859287809071872
 40
0.25
 50
114.69555798319522
 51
174.02086603461154
  0
LINE
  8
_e-0_
  6
CONTINUOUS
 62
    7
 10
237.68899919095943
 20
16.943032024062034
 11
238.82618909747961
 21
17.356935300743344
  0
LINE
  8
_e-0_
  6
CONTINUOUS
 62
    3
 10
243.62585234464268
 20
16.263312492519389
 11
243.62585234464268
 21
13.649018622829544
  0
CIRCLE
  8
_e-0_
  6
CONTINUOUS
 62
    3
 10
236.55167430510385
 20
16.246293449130519
 40
1.333773795583065
  0
CIRCLE
  8
_e-0_
  6
CONTINUOUS
 62
    3
 10
236.52330256036634
 20
16.217921704393006
 40
2.5691707563897665
  0
LINE
  8
_e-0_
  6
CONTINUOUS
 62
    3
 10
239.94939617252578
 20
18.826250382114977
 11
239.94939617252578
 21
13.649018622829544
  0
LINE
  8
_e-0_
  6
CONTINUOUS
 62
    3
 10
239.94939617252578
 20
13.649018622829544
 11
241.48569307536689
 21
13.649018622829544
  0
LINE
  8
_e-0_
  6
CONTINUOUS
 62
    3
 10
241.48569307536689
 20
13.649018622829544
 11
241.48569307536689
 21
17.263312492519389
  0
LINE
  8
_e-0_
  6
CONTINUOUS
 62
    3
 10
245.11774760289304
 20
13.649018622829544
 11
243.62585234464268
 21
13.649018622829544
  0
LINE
  8
_e-0_
  6
CONTINUOUS
 62
    3
 10
242.62585234464268
 20
17.263312492519389
 11
241.48569307536689
 21
17.263312492519389
  0
ARC
  8
_e-0_
  6
CONTINUOUS
 62
    3
 10
242.62585234464268
 20
16.263312492519389
 40
1
 50
0
 51
90
  0
LINE
  8
_e-0_
  6
CONTINUOUS
 62
    3
 10
242.61774760289301
 20
18.826250382114977
 11
239.94939617252578
 21
18.826250382114977
  0
LINE
  8
_e-0_
  6
CONTINUOUS
 62
    3
 10
245.11774760289304
 20
16.326250382114977
 11
245.11774760289304
 21
13.649018622829544
  0
ARC
  8
_e-0_
  6
CONTINUOUS
 62
    3
 10
242.61774760289301
 20
16.326250382114977
 40
2.5
 50
0
 51
90
  0
ARC
  8
_e-0_
  6
CONTINUOUS
 62
    3
 10
248.62452606175233
 20
16.217653762406428
 40
1.333773795583065
 50
23.422555400004949
 51
97.191484740792631
  0
LINE
  8
_e-0_
  6
CONTINUOUS
 62
    3
 10
247.40065761310629
 20
16.747841048365671
 11
249.84839451039835
 21
16.747841048365671
  0
ARC
  8
_e-0_
  6
CONTINUOUS
 62
    3
 10
248.62452606175233
 20
16.217653762406428
 40
1.333773795583065
 50
92.530763017635251
 51
156.57744459999506
  0
ARC
  8
_e-0_
  6
CONTINUOUS
 62
    3
 10
248.62452606175233
 20
16.217653762406428
 40
1.333773795583065
 50
204.21097500392608
 51
316.0067678116265
  0
LINE
  8
_e-0_
  6
CONTINUOUS
 62
    3
 10
247.40806890359868
 20
15.670676139316753
 11
251.15200753562385
 21
15.670676139316753
  0
LINE
  8
_e-0_
  6
CONTINUOUS
 62
    3
 10
249.58407207162625
 20
15.291249966689292
 11
250.87092412098888
 21
14.978943472664496
  0
ARC
  8
_e-0_
  6
CONTINUOUS
 62
    3
 10
248.65655867677853
 20
16.28171899245882
 40
2.5691707563897665
 50
346.24110979921471
 51
329.53046432565099
  0
ARC
  8
_e-0_
  6
CONTINUOUS
 62
    3
 10
254.65135590423403
 20
16.214309845353909
 40
1.1089756641867942
 50
94.502189492040685
 51
357.22978420280037
  0
LINE
  8
_e-0_
  6
CONTINUOUS
 62
    3
 10
255.6590356151147
 20
17.319863581905565
 11
254.56430442891502
 21
17.319863581905565
  0
LINE
  8
_e-0_
  6
CONTINUOUS
 62
    3
 10
255.75903561511469
 20
17.219863581905599
 11
255.75903561511469
 21
16.160712439988742
  0
ARC
  8
_e-0_
  6
CONTINUOUS
 62
    3
 10
255.6590356151147
 20
17.219863581905599
 40
0.1
 50
0
 51
90
  0
LINE
  8
_e-0_
  6
CONTINUOUS
 62
    3
 10
254.89703457355517
 20
18.829058742736094
 11
255.73930775458174
 21
18.829058742736094
  0
ARC
  8
_e-0_
  6
CONTINUOUS
 62
    3
 10
254.6966285661204
 20
16.267716163604518
 40
2.5691707563897665
 50
85.526146014136969
 51
347.40557840019874
  0
LINE
  8
_e-0_
  6
CONTINUOUS
 62
    3
 10
255.73930775458174
 20
20.912865853712901
 11
255.73930775458174
 21
18.829058742736094
  0
ARC
  8
_e-0_
  6
CONTINUOUS
 62
    3
 10
255.83930775458173
 20
20.912865853712901
 40
0.1
 50
90
 51
180
  0
LINE
  8
_e-0_
  6
CONTINUOUS
 62
    3
 10
257.20397992563613
 20
20.912865853712901
 11
257.20397992563613
 21
15.707513043814088
  0
LINE
  8
_e-0_
  6
CONTINUOUS
 62
    3
 10
257.10397992563616
 20
21.012865853712895
 11
255.83930775458173
 21
21.012865853712895
  0
ARC
  8
_e-0_
  6
CONTINUOUS
 62
    3
 10
257.10397992563616
 20
20.912865853712901
 40
0.1
 50
0
 51
90
  0
CIRCLE
  8
_e-0_
  6
CONTINUOUS
 62
    3
 10
260.74932845795831
 20
16.261858771142584
 40
1.333773795583065
  0
CIRCLE
  8
_e-0_
  6
CONTINUOUS
 62
    3
 10
260.72095671322085
 20
16.2334870264051
 40
2.5691707563897665
  0
ARC
  8
_e-0_
  6
CONTINUOUS
 62
    3
 10
236.13056445788686
 20
18.356108960512415
 40
0.5
 50
90
 51
106.05338143786268
  0
ARC
  8
_e-0_
  6
CONTINUOUS
 62
    3
 10
236.13056445788686
 20
18.356108960512415
 40
0.5
 50
90
 51
106.05338143786268
  0
ARC
  8
_e-0_
  6
CONTINUOUS
 62
    3
 10
236.13056445788686
 20
18.356108960512415
 40
0.5
 50
90
 51
106.05338143786268
  0
ARC
  8
_e-0_
  6
CONTINUOUS
 62
    3
 10
236.13056445788686
 20
18.356108960512415
 40
0.5
 50
90
 51
106.05338143786268
  0
LINE
  8
_e-0_
  6
CONTINUOUS
 62
    7
 10
234.63470804331015
 20
17.959716504486777
 11
236.85044577934553
 21
18.766179087344028
  0
LINE
  8
_e-0_
  6
CONTINUOUS
 62
    7
 10
236.12415063076144
 20
17.969740385729494
 11
237.65205845613303
 21
18.525853354867166
  0
LINE
  8
_e-0_
  6
CONTINUOUS
 62
    7
 10
234.17511550984832
 20
17.260349616177705
 11
236.12415063076144
 21
17.969740385729494
  0
LINE
  8
_e-0_
  6
CONTINUOUS
 62
    7
 10
233.99278406436087
 20
16.661897511011602
 11
235.72356669233164
 21
17.291850869577984
  0
LINE
  8
_e-0_
  6
CONTINUOUS
 62
    7
 10
233.9561356655227
 20
16.116469698463049
 11
235.26357267551816
 21
16.592337853279389
  0
LINE
  8
_e-0_
  6
CONTINUOUS
 62
    7
 10
234.02704529847875
 20
15.610189807943811
 11
235.2325779731166
 21
16.0489678179473
  0
LINE
  8
_e-0_
  6
CONTINUOUS
 62
    7
 10
234.19204823498941
 20
15.138157079162255
 11
235.39794571535693
 21
15.577067867592631
  0
LINE
  8
_e-0_
  6
CONTINUOUS
 62
    7
 10
234.4504128974107
 20
14.700105239631881
 11
235.75649436711711
 21
15.175480018131679
  0
LINE
  8
_e-0_
  6
CONTINUOUS
 62
    7
 10
234.81361647674009
 20
14.300211645248765
 11
236.49879954656799
 21
14.913568121955449
  0
LINE
  8
_e-0_
  6
CONTINUOUS
 62
    7
 10
235.31501292054062
 20
13.950616140121155
 11
237.52534753949123
 21
14.755112149187283
  0
LINE
  8
_e-0_
  6
CONTINUOUS
 62
    7
 10
236.06217579801264
 20
13.690472301431668
 11
237.53071030149837
 21
14.224975148693374
  0
LINE
  8
_e-0_
  6
CONTINUOUS
 62
    7
 10
237.53071030149837
 20
14.224975148693374
 11
238.50115931457403
 21
14.578189703325932
  0
LINE
  8
_e-0_
  6
CONTINUOUS
 62
    7
 10
237.44001538198344
 20
14.724053783828736
 11
238.90630204872039
 21
15.257738485422379
  0
LINE
  8
_e-0_
  6
CONTINUOUS
 62
    7
 10
237.44883804748508
 20
15.259353857696169
 11
239.06567834919525
 21
15.847835601080646
  0
LINE
  8
_e-0_
  6
CONTINUOUS
 62
    7
 10
237.84912308361026
 20
15.937134582305873
 11
239.08686178519897
 21
16.387634627483464
  0
LINE
  8
_e-0_
  6
CONTINUOUS
 62
    7
 10
237.86565159204477
 20
16.475239353630797
 11
239.00320630429459
 21
16.889275408738967
  0
LINE
  8
_e-0_
  6
CONTINUOUS
 62
    7
 10
236.51397018509305
 20
17.57953421400316
 11
238.17641004494612
 21
18.184612839247364
  0
LINE
  8
_e-0_
  6
CONTINUOUS
 62
    7
 10
237.3159843452322
 20
17.339354609515908
 11
238.55507858710996
 21
17.790348031010012
  0
LINE
  8
_e-0_
  6
CONTINUOUS
 62
    7
 10
239.94939617252578
 20
18.297838129215278
 11
241.40119690553086
 21
18.826250382114977
  0
LINE
  8
_e-0_
  6
CONTINUOUS
 62
    7
 10
239.94939617252578
 20
17.765749242977335
 11
242.83670442872124
 21
18.816643505383524
  0
LINE
  8
_e-0_
  6
CONTINUOUS
 62
    7
 10
239.94939617252578
 20
17.233660356739392
 11
243.67743097980667
 21
18.590554058897964
  0
LINE
  8
_e-0_
  6
CONTINUOUS
 62
    7
 10
239.94939617252578
 20
16.701571470501448
 11
244.21110032081054
 21
18.252704927725858
  0
LINE
  8
_e-0_
  6
CONTINUOUS
 62
    7
 10
239.94939617252578
 20
16.169482584263505
 11
241.48569307536689
 21
16.728648927893004
  0
LINE
  8
_e-0_
  6
CONTINUOUS
 62
    7
 10
242.87090082786238
 20
17.232823318076128
 11
244.59244086202585
 21
17.85941264760919
  0
LINE
  8
_e-0_
  6
CONTINUOUS
 62
    7
 10
239.94939617252578
 20
15.637393698025562
 11
241.48569307536689
 21
16.196560041655061
  0
LINE
  8
_e-0_
  6
CONTINUOUS
 62
    7
 10
240.33398935234458
 20
13.649018622829544
 11
241.48569307536689
 21
14.068204496703231
  0
LINE
  8
_e-0_
  6
CONTINUOUS
 62
    7
 10
239.94939617252578
 20
14.041127039311675
 11
241.48569307536689
 21
14.600293382941202
  0
LINE
  8
_e-0_
  6
CONTINUOUS
 62
    7
 10
239.94939617252578
 20
14.573215925549646
 11
241.48569307536689
 21
15.132382269179146
  0
LINE
  8
_e-0_
  6
CONTINUOUS
 62
    7
 10
239.94939617252578
 20
15.10530481178759
 11
241.48569307536689
 21
15.664471155417118
  0
LINE
  8
_e-0_
  6
CONTINUOUS
 62
    7
 10
243.62585234464268
 20
15.9113365397844
 11
245.11774760289304
 21
16.45434200643038
  0
LINE
  8
_e-0_
  6
CONTINUOUS
 62
    7
 10
243.62585234464268
 20
15.379247653546485
 11
245.11774760289304
 21
15.922253120192465
  0
LINE
  8
_e-0_
  6
CONTINUOUS
 62
    7
 10
243.61050475653911
 20
16.437839360784892
 11
245.03687179376248
 21
16.956994505472636
  0
LINE
  8
_e-0_
  6
CONTINUOUS
 62
    7
 10
243.62585234464268
 20
14.847158767308542
 11
245.11774760289304
 21
15.390164233954521
  0
LINE
  8
_e-0_
  6
CONTINUOUS
 62
    7
 10
243.62585234464268
 20
14.31506988107057
 11
245.11774760289304
 21
14.85807534771655
  0
LINE
  8
_e-0_
  6
CONTINUOUS
 62
    7
 10
243.62585234464268
 20
13.782980994832598
 11
245.11774760289304
 21
14.325986461478606
  0
LINE
  8
_e-0_
  6
CONTINUOUS
 62
    7
 10
244.71969595258929
 20
13.649018622829544
 11
245.11774760289304
 21
13.793897575240634
  0
LINE
  8
_e-0_
  6
CONTINUOUS
 62
    7
 10
243.40189024056155
 20
16.893998772771169
 11
244.86296862431447
 21
17.425787814386978
  0
LINE
  8
_e-0_
  6
CONTINUOUS
 62
    7
 10
246.91883842563339
 20
18.174063227593791
 11
248.77135419125713
 21
18.848323824789645
  0
LINE
  8
_e-0_
  6
CONTINUOUS
 62
    7
 10
246.36316388937825
 20
17.439725350219305
 11
249.66904887083791
 21
18.642969081378254
  0
LINE
  8
_e-0_
  6
CONTINUOUS
 62
    7
 10
246.14628990865918
 20
16.828700790412767
 11
250.22794299488265
 21
18.314301020398858
  0
LINE
  8
_e-0_
  6
CONTINUOUS
 62
    7
 10
246.14992419870631
 20
16.297934677574687
 11
247.39894671720023
 21
16.752541696234658
  0
LINE
  8
_e-0_
  6
CONTINUOUS
 62
    7
 10
249.21508316310541
 20
17.413561303910114
 11
250.62885679576882
 21
17.928132824190015
  0
LINE
  8
_e-0_
  6
CONTINUOUS
 62
    7
 10
249.6692727859525
 20
17.046783921101109
 11
250.91784918759253
 21
17.501228566505261
  0
LINE
  8
_e-0_
  6
CONTINUOUS
 62
    7
 10
246.32093427036915
 20
15.828088367181749
 11
248.84793399340492
 21
16.747841048365671
  0
LINE
  8
_e-0_
  6
CONTINUOUS
 62
    7
 10
246.28888794596255
 20
15.284335572742151
 11
251.11140538755623
 21
17.039588375711787
  0
LINE
  8
_e-0_
  6
CONTINUOUS
 62
    7
 10
246.53002917314321
 20
14.8400149154524
 11
247.69283430630943
 21
15.263241372176821
  0
LINE
  8
_e-0_
  6
CONTINUOUS
 62
    7
 10
248.81225212892721
 20
15.670676139316753
 11
251.21228430370121
 21
16.544216412215632
  0
LINE
  8
_e-0_
  6
CONTINUOUS
 62
    7
 10
250.27415432900878
 20
15.670676139316753
 11
251.21151621126958
 21
16.011847963195407
  0
LINE
  8
_e-0_
  6
CONTINUOUS
 62
    7
 10
246.87281740890051
 20
14.432690743686691
 11
248.25550140975403
 21
14.935946563393486
  0
LINE
  8
_e-0_
  6
CONTINUOUS
 62
    7
 10
247.34508580764293
 20
14.072493497175571
 11
250.24973614552445
 21
15.129699761115659
  0
LINE
  8
_e-0_
  6
CONTINUOUS
 62
    7
 10
248.03069495598271
 20
13.789945933273884
 11
250.73767895083869
 21
14.775207532036432
  0
LINE
  8
_e-0_
  6
CONTINUOUS
 62
    7
 10
255.26231690921716
 20
13.761596638527407
 11
255.87418873346697
 21
13.984299769740459
  0
LINE
  8
_e-0_
  6
CONTINUOUS
 62
    7
 10
253.94012676014827
 20
13.812447666464265
 11
256.85435873921022
 21
14.873141362589478
  0
LINE
  8
_e-0_
  6
CONTINUOUS
 62
    7
 10
253.29976800904731
 20
14.111465028049622
 11
257.15269734698551
 21
15.513816621790056
  0
LINE
  8
_e-0_
  6
CONTINUOUS
 62
    7
 10
252.2081864354775
 20
16.906695144424446
 11
257.20397992563613
 21
18.725015271383
  0
LINE
  8
_e-0_
  6
CONTINUOUS
 62
    7
 10
252.45896829795606
 20
17.530061163898437
 11
257.20397992563613
 21
19.257104157620943
  0
LINE
  8
_e-0_
  6
CONTINUOUS
 62
    7
 10
255.73930775458174
 20
20.85236262935092
 11
256.18028673926596
 21
21.012865853712895
  0
LINE
  8
_e-0_
  6
CONTINUOUS
 62
    7
 10
255.73930775458174
 20
20.320273743112977
 11
257.20397992563613
 21
20.853370816334802
  0
LINE
  8
_e-0_
  6
CONTINUOUS
 62
    7
 10
255.73930775458174
 20
19.788184856875005
 11
257.20397992563613
 21
20.321281930096859
  0
LINE
  8
_e-0_
  6
CONTINUOUS
 62
    7
 10
255.73930775458174
 20
19.256095970637034
 11
257.20397992563613
 21
19.789193043858915
  0
LINE
  8
_e-0_
  6
CONTINUOUS
 62
    7
 10
253.13600319802563
 20
18.308570601321093
 11
254.58030101140195
 21
18.834252014805827
  0
LINE
  8
_e-0_
  6
CONTINUOUS
 62
    7
 10
254.80525958796985
 20
17.319863581905565
 11
257.20397992563613
 21
18.192926385145057
  0
LINE
  8
_e-0_
  6
CONTINUOUS
 62
    7
 10
252.12864022906336
 20
16.345653806802943
 11
253.83752084417085
 21
16.967635484616607
  0
LINE
  8
_e-0_
  6
CONTINUOUS
 62
    7
 10
252.16554107736331
 20
15.826995730965364
 11
253.54846691325354
 21
16.330339571427089
  0
LINE
  8
_e-0_
  6
CONTINUOUS
 62
    7
 10
252.29940114609524
 20
15.343627925302655
 11
253.61404517985766
 21
15.822119222247806
  0
LINE
  8
_e-0_
  6
CONTINUOUS
 62
    7
 10
252.52563435788044
 20
14.893881194156961
 11
253.90354883761395
 21
15.395401050144357
  0
LINE
  8
_e-0_
  6
CONTINUOUS
 62
    7
 10
252.85117312327798
 20
14.480278728623488
 11
254.57561370732085
 21
15.107923771975691
  0
LINE
  8
_e-0_
  6
CONTINUOUS
 62
    7
 10
255.42054905278624
 20
15.415455087604527
 11
257.20397992563613
 21
16.064570840193255
  0
LINE
  8
_e-0_
  6
CONTINUOUS
 62
    7
 10
255.7505937791675
 20
16.067670430221767
 11
257.20397992563613
 21
16.596659726431198
  0
LINE
  8
_e-0_
  6
CONTINUOUS
 62
    7
 10
255.75903561511469
 20
16.602831893467055
 11
257.20397992563613
 21
17.128748612669141
  0
LINE
  8
_e-0_
  6
CONTINUOUS
 62
    7
 10
255.75903561511469
 20
17.134920779704998
 11
257.20397992563613
 21
17.660837498907085
  0
LINE
  8
_e-0_
  6
CONTINUOUS
 62
    7
 10
259.51467628188601
 20
18.501862193009401
 11
260.1869376832742
 21
18.746545332760774
  0
LINE
  8
_e-0_
  6
CONTINUOUS
 62
    7
 10
258.55936460434281
 20
17.622068291698809
 11
261.48426950414307
 21
18.686646613285404
  0
LINE
  8
_e-0_
  6
CONTINUOUS
 62
    7
 10
260.8518117497361
 20
13.667650840108905
 11
262.27000364868069
 21
14.183830477802189
  0
LINE
  8
_e-0_
  6
CONTINUOUS
 62
    7
 10
259.82444761483162
 20
13.825809761488983
 11
262.9553476402595
 21
14.965364177207987
  0
LINE
  8
_e-0_
  6
CONTINUOUS
 62
    7
 10
258.26330921261529
 20
16.982224055178022
 11
262.12234503919626
 21
18.386798229020314
  0
LINE
  8
_e-0_
  6
CONTINUOUS
 62
    7
 10
259.22968185805405
 20
14.141421615899105
 11
263.20809325371146
 21
15.589444943583799
  0
LINE
  8
_e-0_
  6
CONTINUOUS
 62
    7
 10
258.80695495912834
 20
14.519650493704432
 11
260.2246111940276
 21
15.035635165629656
  0
LINE
  8
_e-0_
  6
CONTINUOUS
 62
    7
 10
258.50094293819529
 20
14.940360112995108
 11
259.7390933511582
 21
15.391010008858017
  0
LINE
  8
_e-0_
  6
CONTINUOUS
 62
    7
 10
258.29198299836929
 20
15.396393800982366
 11
259.48695180063708
 21
15.831326875884542
  0
LINE
  8
_e-0_
  6
CONTINUOUS
 62
    7
 10
258.17538748691902
 20
15.886045391603374
 11
259.41774270088018
 21
16.338225709870641
  0
LINE
  8
_e-0_
  6
CONTINUOUS
 62
    7
 10
258.15798124660102
 20
16.411798924475078
 11
259.59853391150812
 21
16.936117215394091
  0
LINE
  8
_e-0_
  6
CONTINUOUS
 62
    7
 10
261.1974832517468
 20
17.518087181340547
 11
262.5696931485362
 21
18.017530738937352
  0
LINE
  8
_e-0_
  6
CONTINUOUS
 62
    7
 10
261.72029460570036
 20
17.176286066078091
 11
262.89430705154381
 21
17.603591651023151
  0
LINE
  8
_e-0_
  6
CONTINUOUS
 62
    7
 10
261.99310564926912
 20
16.743492279278257
 11
263.11973168341921
 21
17.153550620858254
  0
LINE
  8
_e-0_
  6
CONTINUOUS
 62
    7
 10
262.08298424207367
 20
16.244116525518904
 11
263.25279188691888
 21
16.669891688059578
  0
LINE
  8
_e-0_
  6
CONTINUOUS
 62
    7
 10
261.93948654252989
 20
15.65979874796136
 11
263.28880000931144
 21
16.150908686564349
  0
TEXT
  8
_e-0_
 62
    7
 10
264.28586825750176
 20
18.056247057449553
 40
3.5
 41
0.5714285714285712
 50
0
  1
ワンド
  0
TEXT
  8
_e-0_
 62
    7
 10
264.9704510014904
 20
14.70179161190498
 40
3
 41
0.6666666666666666
 50
0
  1
株式
  0
TEXT
  8
_e-0_
 62
    7
 10
264.90199272709156
 20
11.895002361551377
 40
3
 41
0.6666666666666666
 50
0
  1
会社
  0
TEXT
  8
_f-8_
 62
    7
 10
306.87553648068671
 20
13.702789699570814
 40
3.5
 41
0.5714285714285712
 50
0
  1
２０２３.０５.０１
  0
TEXT
  8
_f-8_
 62
    7
 10
358.19999999999998
 20
14.5
 40
3
 41
0.7333333333333332
 50
0
  1
Ｔ．Ｋ
  0
TEXT
  8
_0-d_
 62
    7
 10
-112.39999999999997
 20
-1178.125
 40
4.5
 41
0.8
 50
0
  1
上ブタ　大
  0
LINE
  8
_1-2_
  6
CONTINUOUS
 62
    7
 10
336.04289462056163
 20
51.847762262895201
 11
336.04289462056163
 21
29.847762262895201
  0
TEXT
  8
_1-2_
 62
    7
 10
320.21429462056164
 20
43.333362262895207
 40
6.1440002441406251
 41
0.6506851115847048
 50
0
  1
材　質
  0
TEXT
  8
_1-2_
 62
    7
 10
320.21429462056164
 20
32.333362262895207
 40
6.1440002441406251
 41
0.6506851115847048
 50
0
  1
色　調
  0
LINE
  8
_1-2_
  6
CONTINUOUS
 62
    7
 10
316.04289462056163
 20
51.847762262895201
 11
316.04289462056163
 21
29.847762262895201
  0
LINE
  8
_1-2_
  6
CONTINUOUS
 62
    7
 10
409.49259435265202
 20
29.847762262895201
 11
409.49259435265202
 21
51.847762262895201
  0
LINE
  8
_1-2_
  6
CONTINUOUS
 62
    7
 10
316.04289462056163
 20
40.847762262895201
 11
409.49259435265202
 21
40.847762262895201
  0
LINE
  8
_1-2_
  6
CONTINUOUS
 62
    7
 10
316.04289462056163
 20
51.847762262895201
 11
409.49259435265202
 21
51.847762262895201
  0
LINE
  8
_1-2_
  6
CONTINUOUS
 62
    7
 10
316.04289462056163
 20
29.847762262895201
 11
409.49259435265202
 21
29.847762262895201
  0
TEXT
  8
_f-8_
 62
    7
 10
285.16448497854077
 20
14.094553410409474
 40
3.5
 41
0.5714285714285712
 50
0
  1
１／１
  0
TEXT
  8
_1-2_
 62
    7
 10
342.5
 20
32.5625
 40
6.1440002441406251
 41
0.6506851115847048
 50
0
  1
黒
  0
TEXT
  8
_1-2_
 62
    7
 10
342.5
 20
42.562500000000014
 40
6.1440002441406251
 41
0.6506851115847048
 50
0
  1
オレフィン系エラストマー
  0
LINE
  8
_0-9_
  6
CONTINUOUS
 62
    7
 10
303.32455180392156
 20
251.22282256553347
 11
302.4245518039217
 21
250.31105756553353
  0
LINE
  8
_0-9_
  6
CONTINUOUS
 62
    7
 10
304.22455180392165
 20
250.36399856553356
 11
303.32455180392156
 21
251.22282256553347
  0
LINE
  8
_0-9_
  6
CONTINUOUS
 62
    7
 10
294.80985180392161
 20
250.0870955655335
 11
302.4245518039217
 21
250.31105756553353
  0
LINE
  8
_0-9_
  6
CONTINUOUS
 62
    7
 10
310.29515280392155
 20
250.54254556553354
 11
304.22455180392165
 21
250.36399856553356
  0
LINE
  8
_0-9_
  6
CONTINUOUS
 62
    7
 10
302.57455180392156
 20
237.76032256553349
 11
303.32455180392156
 21
236.07282256553349
  0
LINE
  8
_0-9_
  6
CONTINUOUS
 62
    7
 10
303.32455180392156
 20
236.07282256553349
 11
304.07455180392156
 21
237.81389356553353
  0
LINE
  8
_0-9_
  6
CONTINUOUS
 62
    7
 10
310.3602428039216
 20
238.03838256553348
 11
304.07455180392156
 21
237.81389356553353
  0
LINE
  8
_0-9_
  6
CONTINUOUS
 62
    7
 10
297.8067058039216
 20
237.59004256553356
 11
302.57455180392156
 21
237.76032256553349
  0
LINE
  8
_0-9_
  6
CONTINUOUS
 62
    7
 10
295.82455180392156
 20
233.57282256553349
 11
294.32455180392156
 21
235.07282256553349
  0
LINE
  8
_0-9_
  6
CONTINUOUS
 62
    7
 10
308.32455180392156
 20
240.57282256553349
 11
308.32455180392156
 21
247.07282256553349
  0
LINE
  8
_0-9_
  6
CONTINUOUS
 62
    7
 10
307.82455180392156
 20
247.57282256553349
 11
294.32455180392156
 21
247.57282256553349
  0
LINE
  8
_0-9_
  6
CONTINUOUS
 62
    7
 10
307.82455180392156
 20
240.07282256553349
 11
294.32455180392156
 21
240.07282256553349
  0
LINE
  8
_0-9_
  6
CONTINUOUS
 62
    7
 10
303.32455180392156
 20
105.92282256553352
 11
302.4245518039217
 21
106.83458756553358
  0
LINE
  8
_0-9_
  6
CONTINUOUS
 62
    7
 10
304.22455180392165
 20
106.78164556553355
 11
303.32455180392156
 21
105.92282256553352
  0
LINE
  8
_0-9_
  6
CONTINUOUS
 62
    7
 10
294.80985180392161
 20
107.05854856553348
 11
302.4245518039217
 21
106.83458756553358
  0
LINE
  8
_0-9_
  6
CONTINUOUS
 62
    7
 10
310.29515280392155
 20
106.60309856553357
 11
304.22455180392165
 21
106.78164556553355
  0
LINE
  8
_0-9_
  6
CONTINUOUS
 62
    7
 10
302.57455180392156
 20
119.38532256553361
 11
303.32455180392156
 21
121.07282256553361
  0
LINE
  8
_0-9_
  6
CONTINUOUS
 62
    7
 10
303.32455180392156
 20
121.07282256553361
 11
304.07455180392156
 21
119.33175156553346
  0
LINE
  8
_0-9_
  6
CONTINUOUS
 62
    7
 10
310.3602428039216
 20
119.1072625655335
 11
304.07455180392156
 21
119.33175156553346
  0
LINE
  8
_0-9_
  6
CONTINUOUS
 62
    7
 10
297.8067058039216
 20
119.55560256553343
 11
302.57455180392156
 21
119.38532256553361
  0
LINE
  8
_0-9_
  6
CONTINUOUS
 62
    7
 10
308.32455180392156
 20
116.57282256553361
 11
308.32455180392156
 21
110.07282256553361
  0
LINE
  8
_0-9_
  6
CONTINUOUS
 62
    7
 10
307.82455180392156
 20
109.57282256553361
 11
294.32455180392156
 21
109.57282256553361
  0
LINE
  8
_0-9_
  6
CONTINUOUS
 62
    7
 10
307.82455180392156
 20
117.07282256553361
 11
294.32455180392156
 21
117.07282256553361
  0
LINE
  8
_0-9_
  6
CONTINUOUS
 62
    7
 10
291.32455180392156
 20
175.57282256553361
 11
291.32455180392156
 21
181.57282256553361
  0
LINE
  8
_0-9_
  6
CONTINUOUS
 62
    7
 10
290.32455180392156
 20
175.57282256553361
 11
290.32455180392156
 21
181.57282256553361
  0
ARC
  8
_0-9_
  6
CONTINUOUS
 62
    7
 10
237.32455180392159
 20
149.41942856553345
 40
60
 50
0
 51
25.841932999999997
  0
ARC
  8
_0-9_
  6
CONTINUOUS
 62
    7
 10
237.32455180392159
 20
207.72621656553354
 40
60
 50
334.15806700000007
 51
0.0000000000000795
  0
ARC
  8
_0-9_
  6
CONTINUOUS
 62
    7
 10
235.82455180392159
 20
206.66764256553341
 40
60
 50
335.27603699999991
 51
359.99999999999994
  0
ARC
  8
_0-9_
  6
CONTINUOUS
 62
    7
 10
235.82455180392159
 20
150.47800256553358
 40
60
 50
12.838568
 51
24.723963000000004
  0
LINE
  8
_0-9_
  6
CONTINUOUS
 62
    7
 10
290.32455180392156
 20
180.34058956553343
 11
291.32455180392156
 21
180.34058956553343
  0
LINE
  8
_0-9_
  6
CONTINUOUS
 62
    7
 10
290.32455180392156
 20
176.80505556553356
 11
291.32455180392156
 21
176.80505556553356
  0
ARC
  8
_0-9_
  6
CONTINUOUS
 62
    7
 10
283.86057180392162
 20
191.5462915655334
 40
13.463979999999999
 50
303.66709400000013
 51
0.0000000000000826
  0
ARC
  8
_0-9_
  6
CONTINUOUS
 62
    7
 10
283.86057180392162
 20
165.59935356553359
 40
13.463979999999999
 50
0
 51
56.332905999999987
  0
LINE
  8
_0-9_
  6
CONTINUOUS
 62
    7
 10
290.32455180392156
 20
181.57282256553361
 11
291.32455180392156
 21
181.57282256553361
  0
LINE
  8
_0-9_
  6
CONTINUOUS
 62
    7
 10
290.32455180392156
 20
175.57282256553361
 11
291.32455180392156
 21
175.57282256553361
  0
LINE
  8
_0-9_
  6
CONTINUOUS
 62
    7
 10
303.32455180392156
 20
236.07282256553349
 11
303.32455180392156
 21
121.07282256553361
  0
LINE
  8
_0-9_
  6
CONTINUOUS
 62
    7
 10
297.32455180392156
 20
214.57282256553349
 11
295.82455180392156
 21
214.57282256553349
  0
ARC
  8
_0-9_
  6
CONTINUOUS
 62
    7
 10
297.82455180392156
 20
237.09036056553355
 40
0.5
 50
92.045407999999994
 51
180
  0
ARC
  8
_0-9_
  6
CONTINUOUS
 62
    7
 10
307.82455180392156
 20
247.07282256553349
 40
0.5
 50
0
 51
90
  0
ARC
  8
_0-9_
  6
CONTINUOUS
 62
    7
 10
307.82455180392156
 20
240.57282256553349
 40
0.5
 50
270
 51
0
  0
ARC
  8
_0-9_
  6
CONTINUOUS
 62
    7
 10
294.82455180392156
 20
249.58731256553352
 40
0.5
 50
91.684684000000004
 51
180
  0
ARC
  8
_0-9_
  6
CONTINUOUS
 62
    7
 10
310.32455180392156
 20
249.54297856553347
 40
1
 50
0
 51
91.684684000000004
  0
ARC
  8
_0-9_
  6
CONTINUOUS
 62
    7
 10
310.32455180392156
 20
239.03774556553349
 40
1
 50
272.04540799999995
 51
0
  0
ARC
  8
_0-9_
  6
CONTINUOUS
 62
    7
 10
310.32455180392156
 20
118.10789956553361
 40
1
 50
0
 51
87.954592000000005
  0
ARC
  8
_0-9_
  6
CONTINUOUS
 62
    7
 10
310.32455180392156
 20
107.60266656553352
 40
1
 50
268.31531599999999
 51
0.0000000000000127
  0
ARC
  8
_0-9_
  6
CONTINUOUS
 62
    7
 10
307.82455180392156
 20
110.07282256553361
 40
0.5
 50
270
 51
0
  0
ARC
  8
_0-9_
  6
CONTINUOUS
 62
    7
 10
307.82455180392156
 20
116.57282256553361
 40
0.5
 50
0
 51
90
  0
ARC
  8
_0-9_
  6
CONTINUOUS
 62
    7
 10
297.82455180392156
 20
120.05528456553355
 40
0.5
 50
180
 51
267.95459199999999
  0
ARC
  8
_0-9_
  6
CONTINUOUS
 62
    7
 10
294.82455180392156
 20
107.55833256553357
 40
0.5
 50
180
 51
268.31531599999999
  0
LINE
  8
_0-9_
  6
CONTINUOUS
 62
    7
 10
294.32455180392156
 20
247.57282256553349
 11
294.32455180392156
 21
249.58731256553352
  0
LINE
  8
_0-9_
  6
CONTINUOUS
 62
    7
 10
294.32455180392156
 20
240.07282256553349
 11
294.32455180392156
 21
247.57282256553349
  0
LINE
  8
_0-9_
  6
CONTINUOUS
 62
    7
 10
294.32455180392156
 20
235.07282256553349
 11
294.32455180392156
 21
240.07282256553349
  0
LINE
  8
_0-9_
  6
CONTINUOUS
 62
    7
 10
294.32455180392156
 20
235.07282256553349
 11
294.32455180392156
 21
193.33535056553358
  0
LINE
  8
_0-9_
  6
CONTINUOUS
 62
    7
 10
295.82455180392156
 20
232.57282256553349
 11
295.82455180392156
 21
233.57282256553349
  0
LINE
  8
_0-9_
  6
CONTINUOUS
 62
    7
 10
295.82455180392156
 20
232.57282256553349
 11
295.82455180392156
 21
206.66764256553341
  0
LINE
  8
_0-9_
  6
CONTINUOUS
 62
    7
 10
297.32455180392156
 20
232.57282256553349
 11
297.32455180392156
 21
237.09036056553355
  0
LINE
  8
_0-9_
  6
CONTINUOUS
 62
    7
 10
297.32455180392156
 20
232.57282256553349
 11
297.32455180392156
 21
178.57282256553361
  0
LINE
  8
_0-9_
  6
CONTINUOUS
 62
    7
 10
311.32455180392156
 20
239.03774556553349
 11
311.32455180392156
 21
249.54297856553347
  0
LINE
  8
_0-9_
  6
CONTINUOUS
 62
    7
 10
311.32455180392156
 20
239.03774556553349
 11
311.32455180392156
 21
178.57282256553361
  0
LINE
  8
_0-9_
  6
CONTINUOUS
 62
    7
 10
297.32455180392156
 20
149.41942856553345
 11
297.32455180392156
 21
120.05528456553355
  0
LINE
  8
_0-9_
  6
CONTINUOUS
 62
    7
 10
297.32455180392156
 20
149.41942856553345
 11
297.32455180392156
 21
178.57282256553361
  0
LINE
  8
_0-9_
  6
CONTINUOUS
 62
    7
 10
294.32455180392156
 20
117.07282256553361
 11
294.32455180392156
 21
163.81029356553352
  0
LINE
  8
_0-9_
  6
CONTINUOUS
 62
    7
 10
294.32455180392156
 20
109.57282256553361
 11
294.32455180392156
 21
117.07282256553361
  0
LINE
  8
_0-9_
  6
CONTINUOUS
 62
    7
 10
294.32455180392156
 20
109.57282256553361
 11
294.32455180392156
 21
107.55833256553357
  0
LINE
  8
_0-9_
  6
CONTINUOUS
 62
    7
 10
311.32455180392156
 20
118.10789956553361
 11
311.32455180392156
 21
107.60266656553352
  0
LINE
  8
_0-9_
  6
CONTINUOUS
 62
    7
 10
311.32455180392156
 20
118.10789956553361
 11
311.32455180392156
 21
178.57282256553361
  0
LINE
  8
_0-9_
  6
CONTINUOUS
 62
    7
 10
310.43049880392158
 20
106.60829456553341
 11
311.31892280392156
 21
107.49671956553351
  0
LINE
  8
_0-9_
  6
CONTINUOUS
 62
    7
 10
309.04777680392174
 20
106.63978656553348
 11
311.32455180392156
 21
108.91656156553351
  0
LINE
  8
_0-9_
  6
CONTINUOUS
 62
    7
 10
307.67396880392169
 20
106.68019256553354
 11
311.32455180392156
 21
110.33077456553354
  0
LINE
  8
_0-9_
  6
CONTINUOUS
 62
    7
 10
306.30016180392175
 20
106.72059856553339
 11
311.32455180392156
 21
111.74498856553344
  0
LINE
  8
_0-9_
  6
CONTINUOUS
 62
    7
 10
304.92635380392169
 20
106.76100456553348
 11
307.7381718039216
 21
109.57282256553361
  0
LINE
  8
_0-9_
  6
CONTINUOUS
 62
    7
 10
308.32455180392156
 20
110.15920256553357
 11
311.32455180392156
 21
113.15920256553357
  0
LINE
  8
_0-9_
  6
CONTINUOUS
 62
    7
 10
303.00136680392159
 20
106.25023156553351
 11
306.3239578039217
 21
109.57282256553361
  0
LINE
  8
_0-9_
  6
CONTINUOUS
 62
    7
 10
308.32455180392156
 20
111.57341556553359
 11
311.32455180392156
 21
114.57341556553359
  0
LINE
  8
_0-9_
  6
CONTINUOUS
 62
    7
 10
302.1787388039217
 20
106.8418165655334
 11
304.90974480392168
 21
109.57282256553361
  0
LINE
  8
_0-9_
  6
CONTINUOUS
 62
    7
 10
308.32455180392156
 20
112.98762956553349
 11
311.32455180392156
 21
115.98762956553349
  0
LINE
  8
_0-9_
  6
CONTINUOUS
 62
    7
 10
300.80493180392176
 20
106.88222356553359
 11
303.49553080392155
 21
109.57282256553361
  0
LINE
  8
_0-9_
  6
CONTINUOUS
 62
    7
 10
308.32455180392156
 20
114.40184256553351
 11
311.32455180392156
 21
117.40184256553351
  0
LINE
  8
_0-9_
  6
CONTINUOUS
 62
    7
 10
299.4311238039217
 20
106.92262956553344
 11
302.08131780392176
 21
109.57282256553361
  0
LINE
  8
_0-9_
  6
CONTINUOUS
 62
    7
 10
308.32455180392156
 20
115.81605656553341
 11
311.16235980392156
 21
118.65386456553341
  0
LINE
  8
_0-9_
  6
CONTINUOUS
 62
    7
 10
298.05731680392176
 20
106.96303556553351
 11
300.66710380392163
 21
109.57282256553361
  0
LINE
  8
_0-9_
  6
CONTINUOUS
 62
    7
 10
308.09050480392164
 20
116.99622356553338
 11
310.20701580392159
 21
119.11273456553357
  0
LINE
  8
_0-9_
  6
CONTINUOUS
 62
    7
 10
296.68350980392159
 20
107.00344156553359
 11
299.25289080392161
 21
109.57282256553361
  0
LINE
  8
_0-9_
  6
CONTINUOUS
 62
    7
 10
306.75289080392161
 20
117.07282256553361
 11
308.84156880392168
 21
119.16150056553344
  0
LINE
  8
_0-9_
  6
CONTINUOUS
 62
    7
 10
295.30970180392176
 20
107.04384756553344
 11
297.83867680392171
 21
109.57282256553361
  0
LINE
  8
_0-9_
  6
CONTINUOUS
 62
    7
 10
305.33867680392171
 20
117.07282256553361
 11
307.47612080392167
 21
119.21026656553357
  0
LINE
  8
_0-9_
  6
CONTINUOUS
 62
    7
 10
294.33085180392157
 20
107.47921056553349
 11
296.42446280392158
 21
109.57282256553361
  0
LINE
  8
_0-9_
  6
CONTINUOUS
 62
    7
 10
303.92446280392158
 20
117.07282256553361
 11
306.11067280392165
 21
119.25903256553344
  0
LINE
  8
_0-9_
  6
CONTINUOUS
 62
    7
 10
294.32455180392156
 20
108.88712456553361
 11
295.01024980392156
 21
109.57282256553361
  0
LINE
  8
_0-9_
  6
CONTINUOUS
 62
    7
 10
302.51024980392156
 20
117.07282256553361
 11
304.74522580392175
 21
119.30779856553357
  0
LINE
  8
_0-9_
  6
CONTINUOUS
 62
    7
 10
301.09603580392166
 20
117.07282256553361
 11
303.85790180392172
 21
119.83468756553355
  0
LINE
  8
_0-9_
  6
CONTINUOUS
 62
    7
 10
299.68182280392164
 20
117.07282256553361
 11
302.0143308039216
 21
119.40533056553357
  0
LINE
  8
_0-9_
  6
CONTINUOUS
 62
    7
 10
303.03873480392161
 20
120.42973456553356
 11
303.43211680392158
 21
120.82311656553355
  0
LINE
  8
_0-9_
  6
CONTINUOUS
 62
    7
 10
298.26760880392174
 20
117.07282256553361
 11
300.64888280392159
 21
119.45409656553346
  0
LINE
  8
_0-9_
  6
CONTINUOUS
 62
    7
 10
296.85339580392172
 20
117.07282256553361
 11
299.28343580392169
 21
119.50286256553357
  0
LINE
  8
_0-9_
  6
CONTINUOUS
 62
    7
 10
295.43918180392159
 20
117.07282256553361
 11
297.91798780392167
 21
119.55162856553346
  0
LINE
  8
_0-9_
  6
CONTINUOUS
 62
    7
 10
294.32455180392156
 20
117.37240556553358
 11
297.32455180392156
 21
120.37240556553358
  0
LINE
  8
_0-9_
  6
CONTINUOUS
 62
    7
 10
294.32455180392156
 20
118.78661956553348
 11
297.32455180392156
 21
121.78661956553348
  0
LINE
  8
_0-9_
  6
CONTINUOUS
 62
    7
 10
294.32455180392156
 20
120.20083256553351
 11
297.32455180392156
 21
123.20083256553351
  0
LINE
  8
_0-9_
  6
CONTINUOUS
 62
    7
 10
294.32455180392156
 20
121.6150465655334
 11
297.32455180392156
 21
124.6150465655334
  0
LINE
  8
_0-9_
  6
CONTINUOUS
 62
    7
 10
294.32455180392156
 20
123.02925956553343
 11
297.32455180392156
 21
126.02925956553343
  0
LINE
  8
_0-9_
  6
CONTINUOUS
 62
    7
 10
294.32455180392156
 20
124.44347356553356
 11
297.32455180392156
 21
127.44347356553356
  0
LINE
  8
_0-9_
  6
CONTINUOUS
 62
    7
 10
294.32455180392156
 20
125.85768656553358
 11
297.32455180392156
 21
128.85768656553358
  0
LINE
  8
_0-9_
  6
CONTINUOUS
 62
    7
 10
294.32455180392156
 20
127.27190056553348
 11
297.32455180392156
 21
130.27190056553348
  0
LINE
  8
_0-9_
  6
CONTINUOUS
 62
    7
 10
294.32455180392156
 20
128.68611456553361
 11
297.32455180392156
 21
131.68611456553361
  0
LINE
  8
_0-9_
  6
CONTINUOUS
 62
    7
 10
294.32455180392156
 20
130.1003275655334
 11
297.32455180392156
 21
133.1003275655334
  0
LINE
  8
_0-9_
  6
CONTINUOUS
 62
    7
 10
294.32455180392156
 20
131.51454156553353
 11
297.32455180392156
 21
134.51454156553353
  0
LINE
  8
_0-9_
  6
CONTINUOUS
 62
    7
 10
294.32455180392156
 20
132.92875456553355
 11
297.32455180392156
 21
135.92875456553355
  0
LINE
  8
_0-9_
  6
CONTINUOUS
 62
    7
 10
294.32455180392156
 20
134.34296856553345
 11
297.32455180392156
 21
137.34296856553345
  0
LINE
  8
_0-9_
  6
CONTINUOUS
 62
    7
 10
294.32455180392156
 20
135.75718156553347
 11
297.32455180392156
 21
138.75718156553347
  0
LINE
  8
_0-9_
  6
CONTINUOUS
 62
    7
 10
294.32455180392156
 20
137.1713955655336
 11
297.32455180392156
 21
140.1713955655336
  0
LINE
  8
_0-9_
  6
CONTINUOUS
 62
    7
 10
294.32455180392156
 20
138.58560856553361
 11
297.32455180392156
 21
141.58560856553361
  0
LINE
  8
_0-9_
  6
CONTINUOUS
 62
    7
 10
294.32455180392156
 20
139.99982256553352
 11
297.32455180392156
 21
142.99982256553352
  0
LINE
  8
_0-9_
  6
CONTINUOUS
 62
    7
 10
294.32455180392156
 20
141.41403656553342
 11
297.32455180392156
 21
144.41403656553342
  0
LINE
  8
_0-9_
  6
CONTINUOUS
 62
    7
 10
294.32455180392156
 20
142.82824956553344
 11
297.32455180392156
 21
145.82824956553344
  0
LINE
  8
_0-9_
  6
CONTINUOUS
 62
    7
 10
294.32455180392156
 20
144.24246356553356
 11
297.32455180392156
 21
147.24246356553356
  0
LINE
  8
_0-9_
  6
CONTINUOUS
 62
    7
 10
294.32455180392156
 20
145.65667656553358
 11
297.32455180392156
 21
148.65667656553358
  0
LINE
  8
_0-9_
  6
CONTINUOUS
 62
    7
 10
294.32455180392156
 20
147.07089056553348
 11
297.32105280392164
 21
150.06739156553356
  0
LINE
  8
_0-9_
  6
CONTINUOUS
 62
    7
 10
294.32455180392156
 20
148.4851035655335
 11
297.29015780392154
 21
151.45070956553348
  0
LINE
  8
_0-9_
  6
CONTINUOUS
 62
    7
 10
294.32455180392156
 20
149.8993175655334
 11
297.22902580392172
 21
152.80379256553345
  0
LINE
  8
_0-9_
  6
CONTINUOUS
 62
    7
 10
294.32455180392156
 20
151.31353156553353
 11
297.1394748039217
 21
154.12845456553344
  0
LINE
  8
_0-9_
  6
CONTINUOUS
 62
    7
 10
294.32455180392156
 20
152.72774456553355
 11
297.02310680392173
 21
155.42629956553349
  0
LINE
  8
_0-9_
  6
CONTINUOUS
 62
    7
 10
294.32455180392156
 20
154.14195856553345
 11
296.88134380392165
 21
156.69875056553354
  0
LINE
  8
_0-9_
  6
CONTINUOUS
 62
    7
 10
294.32455180392156
 20
155.55617156553347
 11
296.71545380392166
 21
157.94707356553357
  0
LINE
  8
_0-9_
  6
CONTINUOUS
 62
    7
 10
294.32455180392156
 20
156.9703855655336
 11
296.52657380392173
 21
159.17240756553354
  0
LINE
  8
_0-9_
  6
CONTINUOUS
 62
    7
 10
294.32455180392156
 20
158.38459856553362
 11
296.31572480392168
 21
160.37577256553339
  0
LINE
  8
_0-9_
  6
CONTINUOUS
 62
    7
 10
294.32455180392156
 20
159.79881256553352
 11
296.08383080392167
 21
161.5580915655334
  0
LINE
  8
_0-9_
  6
CONTINUOUS
 62
    7
 10
294.32455180392156
 20
161.21302556553354
 11
295.83172580392164
 21
162.7202005655335
  0
LINE
  8
_0-9_
  6
CONTINUOUS
 62
    7
 10
294.32455180392156
 20
162.62723956553344
 11
295.5601708039216
 21
163.86285856553348
  0
LINE
  8
_0-9_
  6
CONTINUOUS
 62
    7
 10
294.28138880392174
 20
163.99829056553352
 11
295.26985580392164
 21
164.98675756553342
  0
LINE
  8
_0-9_
  6
CONTINUOUS
 62
    7
 10
294.00620180392155
 20
165.13731756553346
 11
294.96141280392174
 21
166.09252756553354
  0
LINE
  8
_0-9_
  6
CONTINUOUS
 62
    7
 10
293.71238080392157
 20
166.2577095655335
 11
294.6354188039217
 21
167.1807475655334
  0
LINE
  8
_0-9_
  6
CONTINUOUS
 62
    7
 10
293.4005458039216
 20
167.36008856553343
 11
294.29240480392167
 21
168.25194656553361
  0
LINE
  8
_0-9_
  6
CONTINUOUS
 62
    7
 10
293.07126480392156
 20
168.44502156553352
 11
293.93285480392154
 21
169.30661056553361
  0
LINE
  8
_0-9_
  6
CONTINUOUS
 62
    7
 10
292.72505880392162
 20
169.5130285655336
 11
293.55721680392156
 21
170.34518656553353
  0
LINE
  8
_0-9_
  6
CONTINUOUS
 62
    7
 10
292.36240580392171
 20
170.56458956553359
 11
293.16590280392159
 21
171.36808556553359
  0
LINE
  8
_0-9_
  6
CONTINUOUS
 62
    7
 10
291.98374680392174
 20
171.60014256553353
 11
292.75928980392171
 21
172.37568656553361
  0
LINE
  8
_0-9_
  6
CONTINUOUS
 62
    7
 10
291.58948480392172
 20
172.6200945655334
 11
292.3377288039216
 21
173.3683395655334
  0
LINE
  8
_0-9_
  6
CONTINUOUS
 62
    7
 10
291.1799938039216
 20
173.62481756553341
 11
291.90154180392158
 21
174.3463655655334
  0
LINE
  8
_0-9_
  6
CONTINUOUS
 62
    7
 10
290.75561780392166
 20
174.61465456553349
 11
291.45102480392159
 21
175.31006256553354
  0
LINE
  8
_0-9_
  6
CONTINUOUS
 62
    7
 10
290.64271780392158
 20
181.57282256553361
 11
291.92868080392162
 21
182.85878556553342
  0
LINE
  8
_0-9_
  6
CONTINUOUS
 62
    7
 10
291.18249680392176
 20
183.52681556553346
 11
292.98941080392154
 21
185.33372956553347
  0
LINE
  8
_0-9_
  6
CONTINUOUS
 62
    7
 10
292.10077280392164
 20
185.85930456553359
 11
293.8520938039216
 21
187.61062556553355
  0
LINE
  8
_0-9_
  6
CONTINUOUS
 62
    7
 10
292.85607080392168
 20
188.02881656553353
 11
294.56431180392172
 21
189.73705756553357
  0
LINE
  8
_0-9_
  6
CONTINUOUS
 62
    7
 10
293.48324580392176
 20
190.07020556553351
 11
295.15670580392173
 21
191.7436645655336
  0
LINE
  8
_0-9_
  6
CONTINUOUS
 62
    7
 10
294.00588180392168
 20
192.00705456553345
 11
295.65039780392174
 21
193.65157056553351
  0
LINE
  8
_0-9_
  6
CONTINUOUS
 62
    7
 10
294.44082180392155
 20
193.85620856553344
 11
296.06069080392165
 21
195.47607756553355
  0
LINE
  8
_0-9_
  6
CONTINUOUS
 62
    7
 10
294.80060580392176
 20
195.63020556553345
 11
296.39909880392173
 21
197.22869856553342
  0
LINE
  8
_0-9_
  6
CONTINUOUS
 62
    7
 10
295.09486880392154
 20
197.33868256553358
 11
296.67454380392172
 21
198.91835756553354
  0
LINE
  8
_0-9_
  6
CONTINUOUS
 62
    7
 10
295.3312068039217
 20
198.98923456553342
 11
296.89411280392158
 21
200.55213956553342
  0
LINE
  8
_0-9_
  6
CONTINUOUS
 62
    7
 10
295.51573780392158
 20
200.58797856553354
 11
297.06354280392173
 21
202.13578356553347
  0
LINE
  8
_0-9_
  6
CONTINUOUS
 62
    7
 10
295.6534728039216
 20
202.13992656553358
 11
297.18755880392171
 21
203.67401356553358
  0
LINE
  8
_0-9_
  6
CONTINUOUS
 62
    7
 10
295.74858080392158
 20
203.64924856553346
 11
297.27010780392168
 21
205.17077556553357
  0
LINE
  8
_0-9_
  6
CONTINUOUS
 62
    7
 10
295.80457380392175
 20
205.11945556553354
 11
297.31452580392164
 21
206.62940756553342
  0
LINE
  8
_0-9_
  6
CONTINUOUS
 62
    7
 10
295.82444280392172
 20
206.55353756553353
 11
297.32455180392156
 21
208.05364656553359
  0
LINE
  8
_0-9_
  6
CONTINUOUS
 62
    7
 10
295.82455180392156
 20
207.96785956553361
 11
297.32455180392156
 21
209.46785956553361
  0
LINE
  8
_0-9_
  6
CONTINUOUS
 62
    7
 10
295.82455180392156
 20
209.38207356553351
 11
297.32455180392156
 21
210.88207356553351
  0
LINE
  8
_0-9_
  6
CONTINUOUS
 62
    7
 10
295.82455180392156
 20
210.79628756553353
 11
297.32455180392156
 21
212.29628756553353
  0
LINE
  8
_0-9_
  6
CONTINUOUS
 62
    7
 10
295.82455180392156
 20
212.21050056553355
 11
297.32455180392156
 21
213.71050056553355
  0
LINE
  8
_0-9_
  6
CONTINUOUS
 62
    7
 10
295.82455180392156
 20
213.62471456553345
 11
296.77265980392161
 21
214.57282256553349
  0
LINE
  8
_0-9_
  6
CONTINUOUS
 62
    7
 10
310.33792780392167
 20
238.03758556553356
 11
311.32445880392168
 21
239.02411656553346
  0
LINE
  8
_0-9_
  6
CONTINUOUS
 62
    7
 10
308.87133680392156
 20
237.98520756553347
 11
311.32455180392156
 21
240.43842256553347
  0
LINE
  8
_0-9_
  6
CONTINUOUS
 62
    7
 10
307.40474480392157
 20
237.93282956553349
 11
311.32455180392156
 21
241.85263656553348
  0
LINE
  8
_0-9_
  6
CONTINUOUS
 62
    7
 10
305.93815280392158
 20
237.88045156553351
 11
311.32455180392156
 21
243.2668495655335
  0
LINE
  8
_0-9_
  6
CONTINUOUS
 62
    7
 10
303.1374008039217
 20
236.49391256553354
 11
303.78484180392155
 21
237.1413535655335
  0
LINE
  8
_0-9_
  6
CONTINUOUS
 62
    7
 10
304.47156080392159
 20
237.82807256553354
 11
306.71631080392165
 21
240.07282256553349
  0
LINE
  8
_0-9_
  6
CONTINUOUS
 62
    7
 10
308.32455180392156
 20
241.68106356553352
 11
311.32455180392156
 21
244.68106356553352
  0
LINE
  8
_0-9_
  6
CONTINUOUS
 62
    7
 10
302.70225780392155
 20
237.47298356553352
 11
305.30209680392175
 21
240.07282256553349
  0
LINE
  8
_0-9_
  6
CONTINUOUS
 62
    7
 10
308.32455180392156
 20
243.09527656553353
 11
311.32455180392156
 21
246.09527656553353
  0
LINE
  8
_0-9_
  6
CONTINUOUS
 62
    7
 10
296.38788380392173
 20
232.57282256553349
 11
297.32455180392156
 21
233.50949056553355
  0
LINE
  8
_0-9_
  6
CONTINUOUS
 62
    7
 10
301.5383768039216
 20
237.72331656553348
 11
303.88788380392173
 21
240.07282256553349
  0
LINE
  8
_0-9_
  6
CONTINUOUS
 62
    7
 10
308.32455180392156
 20
244.50949056553355
 11
311.32455180392156
 21
247.50949056553355
  0
LINE
  8
_0-9_
  6
CONTINUOUS
 62
    7
 10
295.82455180392156
 20
233.42370456553345
 11
297.32455180392156
 21
234.92370456553345
  0
LINE
  8
_0-9_
  6
CONTINUOUS
 62
    7
 10
300.07178480392161
 20
237.6709375655335
 11
302.4736698039216
 21
240.07282256553349
  0
LINE
  8
_0-9_
  6
CONTINUOUS
 62
    7
 10
308.32455180392156
 20
245.92370456553345
 11
311.32455180392156
 21
248.92370456553345
  0
LINE
  8
_0-9_
  6
CONTINUOUS
 62
    7
 10
295.19200380392175
 20
234.20537056553354
 11
297.32455180392156
 21
236.33791756553347
  0
LINE
  8
_0-9_
  6
CONTINUOUS
 62
    7
 10
298.60519380392173
 20
237.61855956553353
 11
301.0594558039217
 21
240.07282256553349
  0
LINE
  8
_0-9_
  6
CONTINUOUS
 62
    7
 10
308.27547780392154
 20
247.28884456553345
 11
311.12671580392174
 21
250.14008156553353
  0
LINE
  8
_0-9_
  6
CONTINUOUS
 62
    7
 10
294.48489680392157
 20
234.91247656553349
 11
299.64524280392168
 21
240.07282256553349
  0
LINE
  8
_0-9_
  6
CONTINUOUS
 62
    7
 10
307.14524280392168
 20
247.57282256553349
 11
310.10950580392176
 21
250.53708556553345
  0
LINE
  8
_0-9_
  6
CONTINUOUS
 62
    7
 10
294.32455180392156
 20
236.1663445655335
 11
298.23102880392156
 21
240.07282256553349
  0
LINE
  8
_0-9_
  6
CONTINUOUS
 62
    7
 10
305.73102880392156
 20
247.57282256553349
 11
308.6524378039216
 21
250.49423056553354
  0
LINE
  8
_0-9_
  6
CONTINUOUS
 62
    7
 10
294.32455180392156
 20
237.58055856553352
 11
296.81681580392154
 21
240.07282256553349
  0
LINE
  8
_0-9_
  6
CONTINUOUS
 62
    7
 10
304.31681580392154
 20
247.57282256553349
 11
307.19536880392155
 21
250.45137556553351
  0
LINE
  8
_0-9_
  6
CONTINUOUS
 62
    7
 10
294.32455180392156
 20
238.99477156553354
 11
295.40260180392164
 21
240.07282256553349
  0
LINE
  8
_0-9_
  6
CONTINUOUS
 62
    7
 10
302.90260180392164
 20
247.57282256553349
 11
305.73830080392161
 21
250.40852056553347
  0
LINE
  8
_0-9_
  6
CONTINUOUS
 62
    7
 10
301.48838880392162
 20
247.57282256553349
 11
304.28123180392157
 21
250.36566556553356
  0
LINE
  8
_0-9_
  6
CONTINUOUS
 62
    7
 10
300.07417480392172
 20
247.57282256553349
 11
303.52904080392175
 21
251.02768856553353
  0
LINE
  8
_0-9_
  6
CONTINUOUS
 62
    7
 10
298.6599618039217
 20
247.57282256553349
 11
301.36709480392158
 21
250.27995656553349
  0
LINE
  8
_0-9_
  6
CONTINUOUS
 62
    7
 10
297.24574780392157
 20
247.57282256553349
 11
299.91002680392165
 21
250.23710156553346
  0
LINE
  8
_0-9_
  6
CONTINUOUS
 62
    7
 10
295.83153380392167
 20
247.57282256553349
 11
298.4529578039216
 21
250.19424656553354
  0
LINE
  8
_0-9_
  6
CONTINUOUS
 62
    7
 10
294.41732080392165
 20
247.57282256553349
 11
296.99588980392167
 21
250.15139156553351
  0
LINE
  8
_0-9_
  6
CONTINUOUS
 62
    7
 10
294.32455180392156
 20
248.89426656553354
 11
295.53882080392162
 21
250.10853656553348
  0
CIRCLE
  8
_0-9_
  6
CONTINUOUS
 62
    7
 10
158.85426180392161
 20
178.57282256553361
 40
71.5
  0
CIRCLE
  8
_0-9_
  6
CONTINUOUS
 62
    7
 10
158.85426180392161
 20
178.57282256553361
 40
72.650000000000005
  0
CIRCLE
  8
_0-9_
  6
CONTINUOUS
 62
    7
 10
158.85426180392161
 20
178.57282256553361
 40
69
  0
CIRCLE
  8
_0-9_
  6
CONTINUOUS
 62
    7
 10
158.85426180392161
 20
178.57282256553361
 40
61.5
  0
CIRCLE
  8
_0-9_
  6
CONTINUOUS
 62
    7
 10
158.85426180392161
 20
178.57282256553361
 40
56.5
  0
LINE
  8
_0-9_
  6
CONTINUOUS
 62
    7
 10
158.85426180392161
 20
235.07282256553349
 11
157.35426180392161
 21
233.55236456553353
  0
LINE
  8
_0-9_
  6
CONTINUOUS
 62
    7
 10
158.85426180392161
 20
235.07282256553349
 11
160.35426180392161
 21
233.55236456553353
  0
LINE
  8
_0-9_
  6
CONTINUOUS
 62
    7
 10
160.35426180392161
 20
233.55236456553353
 11
158.85426180392161
 21
193.33535056553358
  0
LINE
  8
_0-9_
  6
CONTINUOUS
 62
    7
 10
158.85426180392161
 20
193.33535056553358
 11
157.35426180392161
 21
233.55236456553353
  0
ARC
  8
_0-9_
  6
CONTINUOUS
 62
    7
 10
158.85426180392161
 20
178.57282256553361
 40
55
 50
91.562806000000009
 51
118.437194
  0
ARC
  8
_0-9_
  6
CONTINUOUS
 62
    7
 10
158.85426180392161
 20
178.57282256553361
 40
55
 50
121.56280599999999
 51
148.437194
  0
LINE
  8
_0-9_
  6
CONTINUOUS
 62
    7
 10
130.60426180392161
 20
227.50325756553348
 11
130.06545380392159
 21
225.43650256553354
  0
LINE
  8
_0-9_
  6
CONTINUOUS
 62
    7
 10
130.60426180392161
 20
227.50325756553348
 11
132.66352980392159
 21
226.93650256553354
  0
LINE
  8
_0-9_
  6
CONTINUOUS
 62
    7
 10
151.47299780392174
 20
191.35754756553359
 11
130.06545380392159
 21
225.43650256553354
  0
LINE
  8
_0-9_
  6
CONTINUOUS
 62
    7
 10
132.66352980392159
 20
226.93650256553354
 11
151.47299780392174
 21
191.35754756553359
  0
LINE
  8
_0-9_
  6
CONTINUOUS
 62
    7
 10
109.92382680392161
 20
206.82282256553361
 11
110.49058280392179
 21
204.76355556553352
  0
LINE
  8
_0-9_
  6
CONTINUOUS
 62
    7
 10
109.92382680392161
 20
206.82282256553361
 11
111.99058280392179
 21
207.36163156553351
  0
LINE
  8
_0-9_
  6
CONTINUOUS
 62
    7
 10
146.06953780392174
 20
185.95408656553348
 11
110.49058280392179
 21
204.76355556553352
  0
LINE
  8
_0-9_
  6
CONTINUOUS
 62
    7
 10
111.99058280392179
 20
207.36163156553351
 11
146.06953780392174
 21
185.95408656553348
  0
ARC
  8
_0-9_
  6
CONTINUOUS
 62
    7
 10
158.85426180392161
 20
178.57282256553361
 40
55
 50
181.56280599999999
 51
208.43719399999994
  0
LINE
  8
_0-9_
  6
CONTINUOUS
 62
    7
 10
109.92382680392161
 20
150.32282256553361
 11
110.49058280392179
 21
152.38208956553347
  0
LINE
  8
_0-9_
  6
CONTINUOUS
 62
    7
 10
146.06953780392174
 20
171.19155856553351
 11
111.99058280392179
 21
149.78401356553348
  0
LINE
  8
_0-9_
  6
CONTINUOUS
 62
    7
 10
110.49058280392179
 20
152.38208956553347
 11
146.06953780392174
 21
171.19155856553351
  0
LINE
  8
_0-9_
  6
CONTINUOUS
 62
    7
 10
109.92382680392161
 20
150.32282256553361
 11
111.99058280392179
 21
149.78401356553348
  0
ARC
  8
_0-9_
  6
CONTINUOUS
 62
    7
 10
158.85426180392161
 20
178.57282256553361
 40
55
 50
151.56280599999999
 51
178.437194
  0
LINE
  8
_0-9_
  6
CONTINUOUS
 62
    7
 10
102.35426180392161
 20
178.57282256553361
 11
103.87472080392169
 21
180.07282256553361
  0
LINE
  8
_0-9_
  6
CONTINUOUS
 62
    7
 10
144.09173380392164
 20
178.57282256553361
 11
103.87472080392169
 21
177.07282256553361
  0
LINE
  8
_0-9_
  6
CONTINUOUS
 62
    7
 10
103.87472080392169
 20
180.07282256553361
 11
144.09173380392164
 21
178.57282256553361
  0
LINE
  8
_0-9_
  6
CONTINUOUS
 62
    7
 10
102.35426180392161
 20
178.57282256553361
 11
103.87472080392169
 21
177.07282256553361
  0
ARC
  8
_0-9_
  6
CONTINUOUS
 62
    7
 10
158.85426180392161
 20
178.57282256553361
 40
55
 50
271.56280600000002
 51
298.43719399999997
  0
LINE
  8
_0-9_
  6
CONTINUOUS
 62
    7
 10
187.10426180392161
 20
129.64238756553339
 11
185.04499480392175
 21
130.20914256553345
  0
LINE
  8
_0-9_
  6
CONTINUOUS
 62
    7
 10
185.04499480392175
 20
130.20914256553345
 11
166.2355268039216
 21
165.7880975655334
  0
ARC
  8
_0-9_
  6
CONTINUOUS
 62
    7
 10
158.85426180392161
 20
178.57282256553361
 40
55
 50
301.56280600000002
 51
328.43719399999997
  0
LINE
  8
_0-9_
  6
CONTINUOUS
 62
    7
 10
166.2355268039216
 20
165.7880975655334
 11
187.64307080392174
 21
131.70914256553345
  0
LINE
  8
_0-9_
  6
CONTINUOUS
 62
    7
 10
187.10426180392161
 20
129.64238756553339
 11
187.64307080392174
 21
131.70914256553345
  0
LINE
  8
_0-9_
  6
CONTINUOUS
 62
    7
 10
171.63898680392159
 20
171.19155856553351
 11
207.21794180392177
 21
152.38208956553347
  0
LINE
  8
_0-9_
  6
CONTINUOUS
 62
    7
 10
205.71794180392177
 20
149.78401356553348
 11
171.63898680392159
 21
171.19155856553351
  0
LINE
  8
_0-9_
  6
CONTINUOUS
 62
    7
 10
207.78469780392171
 20
150.32282256553361
 11
207.21794180392177
 21
152.38208956553347
  0
LINE
  8
_0-9_
  6
CONTINUOUS
 62
    7
 10
207.78469780392171
 20
150.32282256553361
 11
205.71794180392177
 21
149.78401356553348
  0
ARC
  8
_0-9_
  6
CONTINUOUS
 62
    7
 10
158.85426180392161
 20
178.57282256553361
 40
55
 50
241.56280599999999
 51
268.43719399999997
  0
LINE
  8
_0-9_
  6
CONTINUOUS
 62
    7
 10
158.85426180392161
 20
122.07282256553361
 11
157.35426180392161
 21
123.59328056553357
  0
LINE
  8
_0-9_
  6
CONTINUOUS
 62
    7
 10
158.85426180392161
 20
163.81029356553352
 11
160.35426180392161
 21
123.59328056553357
  0
LINE
  8
_0-9_
  6
CONTINUOUS
 62
    7
 10
157.35426180392161
 20
123.59328056553357
 11
158.85426180392161
 21
163.81029356553352
  0
LINE
  8
_0-9_
  6
CONTINUOUS
 62
    7
 10
158.85426180392161
 20
122.07282256553361
 11
160.35426180392161
 21
123.59328056553357
  0
ARC
  8
_0-9_
  6
CONTINUOUS
 62
    7
 10
158.85426180392161
 20
178.57282256553361
 40
55
 50
211.56280599999999
 51
238.437194
  0
LINE
  8
_0-9_
  6
CONTINUOUS
 62
    7
 10
130.60426180392161
 20
129.64238756553339
 11
130.06545380392159
 21
131.70914256553345
  0
LINE
  8
_0-9_
  6
CONTINUOUS
 62
    7
 10
151.47299780392174
 20
165.7880975655334
 11
132.66352980392159
 21
130.20914256553345
  0
LINE
  8
_0-9_
  6
CONTINUOUS
 62
    7
 10
130.06545380392159
 20
131.70914256553345
 11
151.47299780392174
 21
165.7880975655334
  0
LINE
  8
_0-9_
  6
CONTINUOUS
 62
    7
 10
130.60426180392161
 20
129.64238756553339
 11
132.66352980392159
 21
130.20914256553345
  0
LINE
  8
_0-9_
  6
CONTINUOUS
 62
    7
 10
213.83380380392165
 20
177.07282256553361
 11
173.6167908039217
 21
178.57282256553361
  0
LINE
  8
_0-9_
  6
CONTINUOUS
 62
    7
 10
173.6167908039217
 20
178.57282256553361
 11
213.83380380392165
 21
180.07282256553361
  0
LINE
  8
_0-9_
  6
CONTINUOUS
 62
    7
 10
171.63898680392159
 20
185.95408656553348
 11
205.71794180392177
 21
207.36163156553351
  0
LINE
  8
_0-9_
  6
CONTINUOUS
 62
    7
 10
207.21794180392177
 20
204.76355556553352
 11
171.63898680392159
 21
185.95408656553348
  0
LINE
  8
_0-9_
  6
CONTINUOUS
 62
    7
 10
207.78469780392171
 20
206.82282256553361
 11
205.71794180392177
 21
207.36163156553351
  0
LINE
  8
_0-9_
  6
CONTINUOUS
 62
    7
 10
207.78469780392171
 20
206.82282256553361
 11
207.21794180392177
 21
204.76355556553352
  0
ARC
  8
_0-9_
  6
CONTINUOUS
 62
    7
 10
158.85426180392161
 20
178.57282256553361
 40
55
 50
1.5628059999999996
 51
28.437194000000001
  0
LINE
  8
_0-9_
  6
CONTINUOUS
 62
    7
 10
215.35426180392161
 20
178.57282256553361
 11
213.83380380392165
 21
180.07282256553361
  0
LINE
  8
_0-9_
  6
CONTINUOUS
 62
    7
 10
215.35426180392161
 20
178.57282256553361
 11
213.83380380392165
 21
177.07282256553361
  0
ARC
  8
_0-9_
  6
CONTINUOUS
 62
    7
 10
158.85426180392161
 20
178.57282256553361
 40
55
 50
331.56280599999996
 51
358.43719399999991
  0
ARC
  8
_0-9_
  6
CONTINUOUS
 62
    7
 10
158.85426180392161
 20
178.57282256553361
 40
55
 50
61.562806000000001
 51
88.437194000000005
  0
LINE
  8
_0-9_
  6
CONTINUOUS
 62
    7
 10
187.10426180392161
 20
227.50325756553348
 11
185.04499480392175
 21
226.93650256553354
  0
LINE
  8
_0-9_
  6
CONTINUOUS
 62
    7
 10
166.2355268039216
 20
191.35754756553359
 11
185.04499480392175
 21
226.93650256553354
  0
LINE
  8
_0-9_
  6
CONTINUOUS
 62
    7
 10
187.64307080392174
 20
225.43650256553354
 11
166.2355268039216
 21
191.35754756553359
  0
LINE
  8
_0-9_
  6
CONTINUOUS
 62
    7
 10
187.10426180392161
 20
227.50325756553348
 11
187.64307080392174
 21
225.43650256553354
  0
ARC
  8
_0-9_
  6
CONTINUOUS
 62
    7
 10
158.85426180392161
 20
178.57282256553361
 40
55
 50
31.562805999999998
 51
58.437194000000005
  0
LINE
  8
_0-9_
  6
CONTINUOUS
 62
    4
 10
101.95729680392169
 20
193.81831856553361
 11
129.21177180392166
 21
186.5155035655336
  0
LINE
  8
_0-9_
  6
CONTINUOUS
 62
    4
 10
174.04552580392166
 20
235.2673885655335
 11
166.79694380392172
 21
208.21531356553344
  0
LINE
  8
_0-9_
  6
CONTINUOUS
 62
    4
 10
101.95729680392169
 20
163.32732656553361
 11
129.21177180392166
 21
170.63014156553361
  0
ARC
  8
_0-9_
  6
CONTINUOUS
 62
    7
 10
204.01129480392157
 20
190.67261256553359
 40
4.25
 50
280.90395599999999
 51
109.09604399999999
  0
LINE
  8
_0-9_
  6
CONTINUOUS
 62
    7
 10
202.62089580392168
 20
194.68874156553346
 11
196.02299180392171
 21
192.40452256553356
  0
LINE
  8
_0-9_
  6
CONTINUOUS
 62
    7
 10
204.81523880392157
 20
186.49934356553347
 11
197.95917580392162
 21
185.17858356553341
  0
LINE
  8
_0-9_
  6
CONTINUOUS
 62
    7
 10
149.29529480392167
 20
213.28144756553348
 11
157.83632380392165
 21
181.40589556553339
  0
LINE
  8
_0-9_
  6
CONTINUOUS
 62
    7
 10
149.7782578039216
 20
213.41085656553349
 11
158.31928680392158
 21
181.53530456553352
  0
ARC
  8
_0-9_
  6
CONTINUOUS
 62
    7
 10
148.56620480392163
 20
216.96837456553356
 40
3.75
 50
197.86598399999999
 51
281.17744599999997
  0
ARC
  8
_0-9_
  6
CONTINUOUS
 62
    7
 10
148.56620480392163
 20
216.96837456553356
 40
3.75
 50
288.82255400000002
 51
12.134015999999972
  0
LINE
  8
_0-9_
  6
CONTINUOUS
 62
    7
 10
150.68867580392176
 20
213.87683456553355
 11
158.85426180392161
 21
183.40245156553345
  0
LINE
  8
_0-9_
  6
CONTINUOUS
 62
    7
 10
148.27386180392178
 20
213.22978656553351
 11
156.43944780392163
 21
182.75540356553341
  0
ARC
  8
_0-9_
  6
CONTINUOUS
 62
    7
 10
130.74676780392175
 20
206.68031656553347
 40
3.75
 50
318.82255399999996
 51
42.134016000000002
  0
ARC
  8
_0-9_
  6
CONTINUOUS
 62
    7
 10
130.74676780392175
 20
206.68031656553347
 40
3.75
 50
227.86598399999999
 51
311.17744599999997
  0
LINE
  8
_0-9_
  6
CONTINUOUS
 62
    7
 10
134.13065080392172
 20
205.06420056553355
 11
156.43944780392163
 21
182.75540356553341
  0
LINE
  8
_0-9_
  6
CONTINUOUS
 62
    7
 10
133.57519480392167
 20
204.20544356553358
 11
156.90971880392177
 21
180.87091956553348
  0
LINE
  8
_0-9_
  6
CONTINUOUS
 62
    7
 10
133.22164180392175
 20
203.85188956553355
 11
156.55616480392174
 21
180.51736656553356
  0
LINE
  8
_0-9_
  6
CONTINUOUS
 62
    7
 10
132.36288380392167
 20
203.2964335655335
 11
154.67168080392158
 21
180.98763756553347
  0
LINE
  8
_0-9_
  6
CONTINUOUS
 62
    7
 10
156.43944780392163
 20
182.75540356553341
 11
157.35426180392161
 21
181.1708985655336
  0
ARC
  8
_0-9_
  6
CONTINUOUS
 62
    7
 10
158.85426180392161
 20
178.57282256553361
 40
3
 50
109.78019199999998
 51
119.99999999999998
  0
ARC
  8
_0-9_
  6
CONTINUOUS
 62
    7
 10
158.85426180392161
 20
178.57282256553361
 40
3
 50
90.606076000000001
 51
100.219808
  0
ARC
  8
_0-9_
  6
CONTINUOUS
 62
    7
 10
158.85426180392161
 20
178.57282256553361
 40
3
 50
120.60607600000001
 51
130.219808
  0
ARC
  8
_0-9_
  6
CONTINUOUS
 62
    7
 10
158.85426180392161
 20
178.57282256553361
 40
3
 50
139.78019199999999
 51
150
  0
ARC
  8
_0-9_
  6
CONTINUOUS
 62
    7
 10
158.85426180392161
 20
178.57282256553361
 40
3
 50
150.606076
 51
160.219808
  0
ARC
  8
_0-9_
  6
CONTINUOUS
 62
    7
 10
158.85426180392161
 20
178.57282256553361
 40
3
 50
169.78019199999999
 51
180
  0
ARC
  8
_0-9_
  6
CONTINUOUS
 62
    7
 10
158.85426180392161
 20
178.57282256553361
 40
3
 50
180.606076
 51
190.21980799999994
  0
ARC
  8
_0-9_
  6
CONTINUOUS
 62
    7
 10
158.85426180392161
 20
178.57282256553361
 40
3
 50
199.78019199999999
 51
210
  0
ARC
  8
_0-9_
  6
CONTINUOUS
 62
    7
 10
158.85426180392161
 20
178.57282256553361
 40
3
 50
210.606076
 51
220.219808
  0
ARC
  8
_0-9_
  6
CONTINUOUS
 62
    7
 10
158.85426180392161
 20
178.57282256553361
 40
3
 50
229.78019199999999
 51
240
  0
ARC
  8
_0-9_
  6
CONTINUOUS
 62
    7
 10
158.85426180392161
 20
178.57282256553361
 40
3
 50
240.606076
 51
250.219808
  0
ARC
  8
_0-9_
  6
CONTINUOUS
 62
    7
 10
158.85426180392161
 20
178.57282256553361
 40
3
 50
259.78019200000005
 51
270
  0
ARC
  8
_0-9_
  6
CONTINUOUS
 62
    7
 10
158.85426180392161
 20
178.57282256553361
 40
3
 50
270.60607599999997
 51
280.219808
  0
ARC
  8
_0-9_
  6
CONTINUOUS
 62
    7
 10
158.85426180392161
 20
178.57282256553361
 40
3
 50
289.78019199999999
 51
300
  0
ARC
  8
_0-9_
  6
CONTINUOUS
 62
    7
 10
158.85426180392161
 20
178.57282256553361
 40
3
 50
300.60607599999997
 51
310.219808
  0
ARC
  8
_0-9_
  6
CONTINUOUS
 62
    7
 10
158.85426180392161
 20
178.57282256553361
 40
3
 50
319.78019199999999
 51
330
  0
ARC
  8
_0-9_
  6
CONTINUOUS
 62
    7
 10
158.85426180392161
 20
178.57282256553361
 40
3
 50
330.60607599999997
 51
340.219808
  0
ARC
  8
_0-9_
  6
CONTINUOUS
 62
    7
 10
158.85426180392161
 20
178.57282256553361
 40
3
 50
349.78019199999999
 51
0.0000000000000206
  0
ARC
  8
_0-9_
  6
CONTINUOUS
 62
    7
 10
158.85426180392161
 20
178.57282256553361
 40
3
 50
0.6060759999999999
 51
10.219808
  0
ARC
  8
_0-9_
  6
CONTINUOUS
 62
    7
 10
158.85426180392161
 20
178.57282256553361
 40
3
 50
19.780191999999999
 51
29.999999999999996
  0
ARC
  8
_0-9_
  6
CONTINUOUS
 62
    7
 10
158.85426180392161
 20
178.57282256553361
 40
3
 50
30.606075999999998
 51
40.219807999999993
  0
ARC
  8
_0-9_
  6
CONTINUOUS
 62
    7
 10
158.85426180392161
 20
178.57282256553361
 40
3
 50
49.780191999999999
 51
59.999999999999992
  0
ARC
  8
_0-9_
  6
CONTINUOUS
 62
    7
 10
158.85426180392161
 20
178.57282256553361
 40
3
 50
60.606076000000001
 51
70.219808
  0
ARC
  8
_0-9_
  6
CONTINUOUS
 62
    7
 10
158.85426180392161
 20
178.57282256553361
 40
3
 50
79.780192000000013
 51
90.000000000000014
  0
ARC
  8
_0-9_
  6
CONTINUOUS
 62
    7
 10
120.45871080392177
 20
188.86087956553359
 40
3.75
 50
257.86598400000002
 51
341.17744599999997
  0
LINE
  8
_0-9_
  6
CONTINUOUS
 62
    7
 10
123.55025080392167
 20
186.73840856553346
 11
154.02463280392177
 21
178.57282256553361
  0
LINE
  8
_0-9_
  6
CONTINUOUS
 62
    7
 10
124.01622780392173
 20
187.64882656553339
 11
155.8917798039217
 21
179.10779856553352
  0
LINE
  8
_0-9_
  6
CONTINUOUS
 62
    7
 10
124.14563680392163
 20
188.13178956553355
 11
156.02118980392171
 21
179.59076156553345
  0
ARC
  8
_0-9_
  6
CONTINUOUS
 62
    7
 10
120.45871080392177
 20
188.86087956553359
 40
3.75
 50
348.82255400000002
 51
72.134016000000016
  0
LINE
  8
_0-9_
  6
CONTINUOUS
 62
    7
 10
124.1972978039216
 20
189.15322356553355
 11
154.67168080392158
 21
180.98763756553347
  0
ARC
  8
_0-9_
  6
CONTINUOUS
 62
    7
 10
120.45871080392177
 20
168.2847655655334
 40
3.75
 50
287.86598400000002
 51
11.177445999999957
  0
LINE
  8
_0-9_
  6
CONTINUOUS
 62
    7
 10
124.1972978039216
 20
167.99242156553344
 11
154.67168080392158
 21
176.15800756553352
  0
LINE
  8
_0-9_
  6
CONTINUOUS
 62
    7
 10
124.14563680392163
 20
169.01385556553344
 11
156.02118980392171
 21
177.55488356553354
  0
LINE
  8
_0-9_
  6
CONTINUOUS
 62
    7
 10
124.01622780392173
 20
169.4968185655336
 11
155.8917798039217
 21
178.03784656553347
  0
ARC
  8
_0-9_
  6
CONTINUOUS
 62
    7
 10
120.45871080392177
 20
168.2847655655334
 40
3.75
 50
18.822554
 51
102.13401600000001
  0
LINE
  8
_0-9_
  6
CONTINUOUS
 62
    7
 10
123.55025080392167
 20
170.40723656553353
 11
154.02463280392177
 21
178.57282256553361
  0
ARC
  8
_0-9_
  6
CONTINUOUS
 62
    7
 10
130.74676780392175
 20
150.46532756553341
 40
3.75
 50
317.86598400000002
 51
41.177446000000038
  0
LINE
  8
_0-9_
  6
CONTINUOUS
 62
    7
 10
134.13065080392172
 20
152.08144456553344
 11
156.43944780392163
 21
174.39024056553347
  0
LINE
  8
_0-9_
  6
CONTINUOUS
 62
    7
 10
133.57519480392167
 20
152.94020156553341
 11
156.90971880392177
 21
176.27472556553351
  0
LINE
  8
_0-9_
  6
CONTINUOUS
 62
    7
 10
133.22164180392175
 20
153.29375556553344
 11
156.55616480392174
 21
176.62827856553343
  0
ARC
  8
_0-9_
  6
CONTINUOUS
 62
    7
 10
130.74676780392175
 20
150.46532756553341
 40
3.75
 50
48.822553999999996
 51
132.134016
  0
LINE
  8
_0-9_
  6
CONTINUOUS
 62
    7
 10
132.36288380392167
 20
153.84921156553349
 11
154.67168080392158
 21
176.15800756553352
  0
ARC
  8
_0-9_
  6
CONTINUOUS
 62
    7
 10
148.56620480392163
 20
140.17727056553343
 40
3.75
 50
347.86598400000002
 51
71.17744600000006
  0
LINE
  8
_0-9_
  6
CONTINUOUS
 62
    7
 10
150.68867580392176
 20
143.26881056553355
 11
158.85426180392161
 21
173.74319356553354
  0
LINE
  8
_0-9_
  6
CONTINUOUS
 62
    7
 10
149.7782578039216
 20
143.73478756553362
 11
158.31928680392158
 21
175.61034056553347
  0
LINE
  8
_0-9_
  6
CONTINUOUS
 62
    7
 10
149.29529480392167
 20
143.8641975655334
 11
157.83632380392165
 21
175.7397495655336
  0
ARC
  8
_0-9_
  6
CONTINUOUS
 62
    7
 10
148.56620480392163
 20
140.17727056553343
 40
3.75
 50
78.822553999999996
 51
162.134016
  0
LINE
  8
_0-9_
  6
CONTINUOUS
 62
    7
 10
148.27386180392178
 20
143.91585856553359
 11
156.43944780392163
 21
174.39024056553347
  0
ARC
  8
_0-9_
  6
CONTINUOUS
 62
    7
 10
169.1423198039217
 20
140.17727056553343
 40
3.75
 50
17.865984
 51
101.17744600000001
  0
LINE
  8
_0-9_
  6
CONTINUOUS
 62
    7
 10
169.43466280392178
 20
143.91585856553359
 11
161.2690768039217
 21
174.39024056553347
  0
LINE
  8
_0-9_
  6
CONTINUOUS
 62
    7
 10
168.41322980392166
 20
143.8641975655334
 11
159.87220080392168
 21
175.7397495655336
  0
LINE
  8
_0-9_
  6
CONTINUOUS
 62
    7
 10
167.93026680392173
 20
143.73478756553362
 11
159.38923780392175
 21
175.61034056553347
  0
ARC
  8
_0-9_
  6
CONTINUOUS
 62
    7
 10
169.1423198039217
 20
140.17727056553343
 40
3.75
 50
108.82255399999999
 51
192.134016
  0
LINE
  8
_0-9_
  6
CONTINUOUS
 62
    7
 10
167.01984880392157
 20
143.26881056553355
 11
158.85426180392161
 21
173.74319356553354
  0
ARC
  8
_0-9_
  6
CONTINUOUS
 62
    7
 10
186.96175680392158
 20
150.46532756553341
 40
3.75
 50
47.865983999999997
 51
131.177446
  0
LINE
  8
_0-9_
  6
CONTINUOUS
 62
    7
 10
185.34564080392166
 20
153.84921156553349
 11
163.03684380392175
 21
176.15800756553352
  0
LINE
  8
_0-9_
  6
CONTINUOUS
 62
    7
 10
184.48688280392158
 20
153.29375556553344
 11
161.15235980392159
 21
176.62827856553343
  0
LINE
  8
_0-9_
  6
CONTINUOUS
 62
    7
 10
184.13332980392166
 20
152.94020156553341
 11
160.79880580392179
 21
176.27472556553351
  0
ARC
  8
_0-9_
  6
CONTINUOUS
 62
    7
 10
186.96175680392158
 20
150.46532756553341
 40
3.75
 50
138.82255399999999
 51
222.134016
  0
LINE
  8
_0-9_
  6
CONTINUOUS
 62
    7
 10
183.57787380392161
 20
152.08144456553344
 11
161.2690768039217
 21
174.39024056553347
  0
ARC
  8
_0-9_
  6
CONTINUOUS
 62
    7
 10
197.24981380392179
 20
168.2847655655334
 40
3.75
 50
77.865983999999997
 51
161.17744600000003
  0
LINE
  8
_0-9_
  6
CONTINUOUS
 62
    7
 10
194.15827380392167
 20
170.40723656553353
 11
163.68389180392179
 21
178.57282256553361
  0
LINE
  8
_0-9_
  6
CONTINUOUS
 62
    7
 10
193.6922968039216
 20
169.4968185655336
 11
161.81674480392163
 21
178.03784656553347
  0
LINE
  8
_0-9_
  6
CONTINUOUS
 62
    7
 10
193.5628868039216
 20
169.01385556553344
 11
161.68733480392162
 21
177.55488356553354
  0
ARC
  8
_0-9_
  6
CONTINUOUS
 62
    7
 10
197.24981380392179
 20
168.2847655655334
 40
3.75
 50
168.82255399999993
 51
252.134016
  0
LINE
  8
_0-9_
  6
CONTINUOUS
 62
    7
 10
193.51122680392174
 20
167.99242156553344
 11
163.03684380392175
 21
176.15800756553352
  0
ARC
  8
_0-9_
  6
CONTINUOUS
 62
    7
 10
197.24981380392179
 20
188.86087956553359
 40
3.75
 50
107.86598399999999
 51
191.17744600000003
  0
LINE
  8
_0-9_
  6
CONTINUOUS
 62
    7
 10
193.51122680392174
 20
189.15322356553355
 11
163.03684380392175
 21
180.98763756553347
  0
LINE
  8
_0-9_
  6
CONTINUOUS
 62
    7
 10
193.5628868039216
 20
188.13178956553355
 11
161.68733480392162
 21
179.59076156553345
  0
LINE
  8
_0-9_
  6
CONTINUOUS
 62
    7
 10
193.6922968039216
 20
187.64882656553339
 11
161.81674480392163
 21
179.10779856553352
  0
ARC
  8
_0-9_
  6
CONTINUOUS
 62
    7
 10
197.24981380392179
 20
188.86087956553359
 40
3.75
 50
198.82255399999999
 51
282.13401599999997
  0
LINE
  8
_0-9_
  6
CONTINUOUS
 62
    7
 10
194.15827380392167
 20
186.73840856553346
 11
163.68389180392179
 21
178.57282256553361
  0
ARC
  8
_0-9_
  6
CONTINUOUS
 62
    7
 10
186.96175680392158
 20
206.68031656553347
 40
3.75
 50
137.86598399999999
 51
221.177446
  0
ARC
  8
_0-9_
  6
CONTINUOUS
 62
    7
 10
186.96175680392158
 20
206.68031656553347
 40
3.75
 50
228.82255400000002
 51
312.13401599999997
  0
ARC
  8
_0-9_
  6
CONTINUOUS
 62
    7
 10
169.1423198039217
 20
216.96837456553356
 40
3.75
 50
167.86598399999999
 51
251.17744599999997
  0
LINE
  8
_0-9_
  6
CONTINUOUS
 62
    7
 10
167.01984880392157
 20
213.87683456553355
 11
158.85426180392161
 21
183.40245156553345
  0
LINE
  8
_0-9_
  6
CONTINUOUS
 62
    7
 10
167.93026680392173
 20
213.41085656553349
 11
159.38923780392175
 21
181.53530456553352
  0
LINE
  8
_0-9_
  6
CONTINUOUS
 62
    7
 10
168.41322980392166
 20
213.28144756553348
 11
159.87220080392168
 21
181.40589556553339
  0
ARC
  8
_0-9_
  6
CONTINUOUS
 62
    7
 10
169.1423198039217
 20
216.96837456553356
 40
3.75
 50
258.82255400000002
 51
342.13401599999997
  0
LINE
  8
_0-9_
  6
CONTINUOUS
 62
    7
 10
169.43466280392178
 20
213.22978656553351
 11
161.2690768039217
 21
182.75540356553341
  0
LINE
  8
_0-9_
  6
CONTINUOUS
 62
    7
 10
154.67168080392158
 20
180.98763756553347
 11
156.25618580392162
 21
180.07282256553361
  0
LINE
  8
_0-9_
  6
CONTINUOUS
 62
    7
 10
154.02463280392177
 20
178.57282256553361
 11
155.85426180392161
 21
178.57282256553361
  0
LINE
  8
_0-9_
  6
CONTINUOUS
 62
    7
 10
154.67168080392158
 20
176.15800756553352
 11
156.25618580392162
 21
177.07282256553361
  0
LINE
  8
_0-9_
  6
CONTINUOUS
 62
    7
 10
156.43944780392163
 20
174.39024056553347
 11
157.35426180392161
 21
175.97474656553362
  0
LINE
  8
_0-9_
  6
CONTINUOUS
 62
    7
 10
158.85426180392161
 20
173.74319356553354
 11
158.85426180392161
 21
175.57282256553361
  0
LINE
  8
_0-9_
  6
CONTINUOUS
 62
    7
 10
161.2690768039217
 20
174.39024056553347
 11
160.35426180392161
 21
175.97474656553362
  0
LINE
  8
_0-9_
  6
CONTINUOUS
 62
    7
 10
163.03684380392175
 20
176.15800756553352
 11
161.45233880392171
 21
177.07282256553361
  0
LINE
  8
_0-9_
  6
CONTINUOUS
 62
    7
 10
163.68389180392179
 20
178.57282256553361
 11
161.85426180392161
 21
178.57282256553361
  0
LINE
  8
_0-9_
  6
CONTINUOUS
 62
    7
 10
163.03684380392175
 20
180.98763756553347
 11
161.45233880392171
 21
180.07282256553361
  0
LINE
  8
_0-9_
  6
CONTINUOUS
 62
    7
 10
161.2690768039217
 20
182.75540356553341
 11
160.35426180392161
 21
181.1708985655336
  0
LINE
  8
_0-9_
  6
CONTINUOUS
 62
    7
 10
158.85426180392161
 20
183.40245156553345
 11
158.85426180392161
 21
181.57282256553361
  0
ARC
  8
_0-9_
  6
CONTINUOUS
 62
    4
 10
158.85426180392161
 20
178.57282256553361
 40
51
 50
1.5178469999999999
 51
15.000000000000001
  0
ARC
  8
_0-9_
  6
CONTINUOUS
 62
    4
 10
158.85426180392161
 20
178.57282256553361
 40
36
 50
1.2602629999999999
 51
14.999999999999998
  0
LINE
  8
_0-9_
  6
CONTINUOUS
 62
    7
 10
194.69437480392159
 20
208.41787956553361
 11
189.41723080392168
 21
203.84603656553343
  0
ARC
  8
_0-9_
  6
CONTINUOUS
 62
    7
 10
191.9115038039217
 20
211.63006456553347
 40
4.25
 50
310.90395599999999
 51
139.09604399999992
  0
LINE
  8
_0-9_
  6
CONTINUOUS
 62
    7
 10
188.69931880392161
 20
214.41293456553347
 11
184.12747580392166
 21
209.13579056553356
  0
LINE
  8
_0-9_
  6
CONTINUOUS
 62
    7
 10
174.97018180392157
 20
222.33945656553345
 11
172.68596280392168
 21
215.74155156553348
  0
ARC
  8
_0-9_
  6
CONTINUOUS
 62
    7
 10
170.95405280392171
 20
223.72985456553345
 40
4.25
 50
340.90395599999999
 51
169.09604399999997
  0
LINE
  8
_0-9_
  6
CONTINUOUS
 62
    7
 10
166.78078380392159
 20
224.53379856553345
 11
165.46002280392164
 21
217.6777365655335
  0
LINE
  8
_0-9_
  6
CONTINUOUS
 62
    7
 10
150.92774080392175
 20
224.53379856553345
 11
152.24850180392169
 21
217.6777365655335
  0
ARC
  8
_0-9_
  6
CONTINUOUS
 62
    7
 10
146.75447180392163
 20
223.72985456553345
 40
4.25
 50
10.903956
 51
199.09604399999997
  0
LINE
  8
_0-9_
  6
CONTINUOUS
 62
    7
 10
142.73834280392176
 20
222.33945656553345
 11
145.02256180392166
 21
215.74155156553348
  0
LINE
  8
_0-9_
  6
CONTINUOUS
 62
    7
 10
129.00920580392173
 20
214.41293456553347
 11
133.58104880392167
 21
209.13579056553356
  0
ARC
  8
_0-9_
  6
CONTINUOUS
 62
    7
 10
125.79701980392175
 20
211.63006456553347
 40
4.25
 50
40.903956
 51
229.09604399999997
  0
LINE
  8
_0-9_
  6
CONTINUOUS
 62
    7
 10
123.01414980392175
 20
208.41787956553361
 11
128.29129380392166
 21
203.84603656553343
  0
LINE
  8
_0-9_
  6
CONTINUOUS
 62
    7
 10
115.08762880392166
 20
194.68874156553346
 11
121.68553280392163
 21
192.40452256553356
  0
ARC
  8
_0-9_
  6
CONTINUOUS
 62
    7
 10
113.69722980392177
 20
190.67261256553359
 40
4.25
 50
70.903955999999993
 51
259.096044
  0
LINE
  8
_0-9_
  6
CONTINUOUS
 62
    7
 10
112.89328580392177
 20
186.49934356553347
 11
119.7493488039217
 21
185.17858356553341
  0
LINE
  8
_0-9_
  6
CONTINUOUS
 62
    7
 10
112.89328580392177
 20
170.64630156553351
 11
119.7493488039217
 21
171.96706156553358
  0
ARC
  8
_0-9_
  6
CONTINUOUS
 62
    7
 10
113.69722980392177
 20
166.4730325655334
 40
4.25
 50
100.90395599999999
 51
289.09604399999994
  0
LINE
  8
_0-9_
  6
CONTINUOUS
 62
    7
 10
115.08762880392166
 20
162.45690356553353
 11
121.68553280392163
 21
164.74112256553343
  0
LINE
  8
_0-9_
  6
CONTINUOUS
 62
    7
 10
123.01414980392175
 20
148.72776556553361
 11
128.29129380392166
 21
153.29960856553356
  0
ARC
  8
_0-9_
  6
CONTINUOUS
 62
    7
 10
125.79701980392175
 20
145.51558056553352
 40
4.25
 50
130.90395599999999
 51
319.096044
  0
LINE
  8
_0-9_
  6
CONTINUOUS
 62
    7
 10
129.00920580392173
 20
142.73271056553352
 11
133.58104880392167
 21
148.00985456553343
  0
LINE
  8
_0-9_
  6
CONTINUOUS
 62
    7
 10
142.73834280392176
 20
134.80618856553354
 11
145.02256180392166
 21
141.4040935655334
  0
ARC
  8
_0-9_
  6
CONTINUOUS
 62
    7
 10
146.75447180392163
 20
133.41579056553354
 40
4.25
 50
160.90395599999999
 51
349.096044
  0
LINE
  8
_0-9_
  6
CONTINUOUS
 62
    7
 10
150.92774080392175
 20
132.61184656553353
 11
152.24850180392169
 21
139.4679085655336
  0
LINE
  8
_0-9_
  6
CONTINUOUS
 62
    7
 10
166.78078380392159
 20
132.61184656553353
 11
165.46002280392164
 21
139.4679085655336
  0
ARC
  8
_0-9_
  6
CONTINUOUS
 62
    7
 10
170.95405280392171
 20
133.41579056553354
 40
4.25
 50
190.90395599999999
 51
19.096043999999988
  0
LINE
  8
_0-9_
  6
CONTINUOUS
 62
    7
 10
174.97018180392157
 20
134.80618856553354
 11
172.68596280392168
 21
141.4040935655334
  0
LINE
  8
_0-9_
  6
CONTINUOUS
 62
    7
 10
188.69931880392161
 20
142.73271056553352
 11
184.12747580392166
 21
148.00985456553343
  0
ARC
  8
_0-9_
  6
CONTINUOUS
 62
    7
 10
191.9115038039217
 20
145.51558056553352
 40
4.25
 50
220.90395599999996
 51
49.096043999999956
  0
LINE
  8
_0-9_
  6
CONTINUOUS
 62
    7
 10
194.69437480392159
 20
148.72776556553361
 11
189.41723080392168
 21
153.29960856553356
  0
LINE
  8
_0-9_
  6
CONTINUOUS
 62
    7
 10
202.62089580392168
 20
162.45690356553353
 11
196.02299180392171
 21
164.74112256553343
  0
ARC
  8
_0-9_
  6
CONTINUOUS
 62
    7
 10
204.01129480392157
 20
166.4730325655334
 40
4.25
 50
250.90395599999999
 51
79.096043999999977
  0
LINE
  8
_0-9_
  6
CONTINUOUS
 62
    7
 10
204.81523880392157
 20
170.64630156553351
 11
197.95917580392162
 21
171.96706156553358
  0
LINE
  8
_0-9_
  6
CONTINUOUS
 62
    7
 10
295.82455180392156
 20
229.57282256553349
 11
297.32455180392156
 21
229.57282256553349
  0
LINE
  8
_0-9_
  6
CONTINUOUS
 62
    7
 10
296.61046280392173
 20
229.57282256553349
 11
297.32455180392156
 21
230.28691156553355
  0
LINE
  8
_0-9_
  6
CONTINUOUS
 62
    7
 10
295.82455180392156
 20
230.20112456553346
 11
297.32455180392156
 21
231.70112456553346
  0
LINE
  8
_0-9_
  6
CONTINUOUS
 62
    7
 10
295.82455180392156
 20
231.61533856553347
 11
296.78203580392158
 21
232.57282256553349
  0
LINE
  8
_0-9_
  6
CONTINUOUS
 62
    7
 10
176.76838880392162
 20
194.71918156553346
 11
163.03684380392175
 21
180.98763756553347
  0
LINE
  8
_0-9_
  6
CONTINUOUS
 62
    7
 10
175.35417480392172
 20
194.71918156553346
 11
161.15235980392159
 21
180.51736656553356
  0
LINE
  8
_0-9_
  6
CONTINUOUS
 62
    7
 10
174.64706880392165
 20
194.71918156553346
 11
160.79880580392179
 21
180.87091956553348
  0
LINE
  8
_0-9_
  6
CONTINUOUS
 62
    7
 10
173.23285480392175
 20
194.71918156553346
 11
161.2690768039217
 21
182.75540356553341
  0
LINE
  8
_0-9_
  6
CONTINUOUS
 62
    7
 10
183.57787380392161
 20
205.06420056553355
 11
173.23285480392189
 21
194.71918156553329
  0
LINE
  8
_0-9_
  6
CONTINUOUS
 62
    7
 10
184.13332980392166
 20
204.20544356553358
 11
174.64706964485731
 21
194.71918072459803
  0
LINE
  8
_0-9_
  6
CONTINUOUS
 62
    7
 10
184.48688280392158
 20
203.85188956553355
 11
175.35417480392192
 21
194.71918156553323
  0
LINE
  8
_0-9_
  6
CONTINUOUS
 62
    7
 10
185.34564080392166
 20
203.2964335655335
 11
176.76838880392162
 21
194.71918156553346
  0
LINE
  8
_0-9_
  6
CENTER2
 62
    4
 10
76.875
 20
178.57282256553361
 11
239.6875
 21
178.57282256553361
  0
LINE
  8
_0-9_
  6
CENTER2
 62
    4
 10
158.85426180392161
 20
256.63837759298445
 11
158.85426180392161
 21
97.575877592984454
  0
LINE
  8
_0-9_
  6
CENTER2
 62
    4
 10
285.3125
 20
178.57282256553361
 11
319.375
 21
178.57282256553361
  0
POINT
  8
_0-9_
 62
    3
 10
311.32455180392156
 20
75.375000000000014
  0
POINT
  8
_0-9_
 62
    3
 10
294.32455180392156
 20
75.375000000000014
  0
LINE
  8
_0-9_
  6
CONTINUOUS
 62
    4
 10
311.32455180392156
 20
74.375000000000014
 11
311.32455180392156
 21
90.375
  0
LINE
  8
_0-9_
  6
CONTINUOUS
 62
    4
 10
294.32455180392156
 20
74.375000000000014
 11
294.32455180392156
 21
90.375
  0
LINE
  8
_0-9_
  6
CONTINUOUS
 62
    4
 10
311.32455180392156
 20
75.375000000000014
 11
294.32455180392156
 21
75.375000000000014
  0
TEXT
  8
_0-9_
 62
    7
 10
300.61955180392158
 20
75.875000000000014
 40
3.5
 41
0.6285714285714286
 50
0
  1
１７
  0
POINT
  8
_0-9_
 62
    3
 10
231.50426180392162
 20
75.375000000000014
  0
POINT
  8
_0-9_
 62
    3
 10
86.20426180392161
 20
75.375000000000014
  0
LINE
  8
_0-9_
  6
CONTINUOUS
 62
    4
 10
231.50426180392162
 20
74.375000000000014
 11
231.50426180392162
 21
90.375
  0
LINE
  8
_0-9_
  6
CONTINUOUS
 62
    4
 10
86.20426180392161
 20
74.375000000000014
 11
86.20426180392161
 21
90.375
  0
LINE
  8
_0-9_
  6
CONTINUOUS
 62
    4
 10
231.50426180392162
 20
75.375000000000014
 11
86.20426180392161
 21
75.375000000000014
  0
TEXT
  8
_0-9_
 62
    7
 10
153.88676180392161
 20
75.875000000000014
 40
3.5
 41
0.6285714285714286
 50
0
  1
１４５.３
  0
TEXT
  8
_f-8_
 62
    7
 10
166.25
 20
13.5
 40
4.5
 41
0.6666666666666666
 50
0
  1
菊割ゴム（大）
  0
ENDSEC
  0
EOF
