  0
SECTION
  2
HEADER
  9
$ACADVER
  1
AC1009
  9
$INSBASE
 10
0
 20
0
 30
0
  9
$EXTMIN
 10
0
 20
0
  9
$EXTMAX
 10
420
 20
297
  9
$LIMMIN
 10
0
 20
0
  9
$LIMMAX
 10
420
 20
297
  9
$LTSCALE
 40
1
  0
ENDSEC
  0
SECTION
  2
TABLES
  0
TABLE
  2
LTYPE
 70
     9
  0
LTYPE
  2
CONTINUOUS
 70
    64
  3
実線
 72
    65
 73
     0
 40
0.0
  0
LTYPE
  2
DASHED1
 70
    64
  3
--  --  --  --  --  --  --  --  
 72
    65
 73
     2
 40
2.5
 49
1.25
 49
-1.25
  0
LTYPE
  2
DASHED2
 70
    64
  3
----    ----    ----    ----    
 72
    65
 73
     2
 40
5.0
 49
2.5
 49
-2.5
  0
LTYPE
  2
DASHED3
 70
    64
  3
------  ------  ------  ------  
 72
    65
 73
     2
 40
5.0
 49
3.75
 49
-1.25
  0
LTYPE
  2
CENTER1
 70
    64
  3
----- - ----- - ----- - ----- - 
 72
    65
 73
     4
 40
10.0
 49
6.25
 49
-1.25
 49
1.25
 49
-1.25
  0
LTYPE
  2
CENTER2
 70
    64
  3
----------  --  ----------  --  
 72
    65
 73
     4
 40
20.0
 49
12.5
 49
-2.5
 49
2.5
 49
-2.5
  0
LTYPE
  2
PHANTOM1
 70
    64
  3
--- - - --- - - --- - - --- - - 
 72
    65
 73
     6
 40
10.0
 49
3.25
 49
-1.25
 49
1.25
 49
-1.25
 49
1.25
 49
-1.25
  0
LTYPE
  2
PHANTOM2
 70
    64
  3
--------  -  -  --------  -  -  
 72
    65
 73
     6
 40
20.0
 49
10.0
 49
-2.5
 49
1.25
 49
-2.5
 49
1.25
 49
-2.5
  0
LTYPE
  2
DOT
 70
    64
  3
-   -   -   -   -   -   -   -   
 72
    65
 73
     2
 40
2.5
 49
0.625
 49
-1.875
  0
LTYPE
  2
DUMMY
 70
    64
  3
ダミー
 72
    65
 73
     0
 40
0.0
  0
LTYPE
  2
RAND1
 70
    64
  3
ランダム線1
 72
    65
 73
     4
 40
10.0
 49
1.0
 49
-2.0
 49
3.0
 49
-4.0
  0
LTYPE
  2
RAND2
 70
    64
  3
ランダム線2
 72
    65
 73
     4
 40
14.0
 49
2.0
 49
-3.0
 49
4.0
 49
-5.0
  0
LTYPE
  2
RAND3
 70
    64
  3
ランダム線3
 72
    65
 73
     4
 40
18.0
 49
3.0
 49
-4.0
 49
5.0
 49
-6.0
  0
LTYPE
  2
RAND4
 70
    64
  3
ランダム線4
 72
    65
 73
     4
 40
22.0
 49
4.0
 49
-5.0
 49
6.0
 49
-7.0
  0
LTYPE
  2
RAND5
 70
    64
  3
ランダム線5
 72
    65
 73
     4
 40
26.0
 49
5.0
 49
-6.0
 49
7.0
 49
-8.0
  0
LTYPE
  2
LONG1
 70
    64
  3
----------  --  ----------  --  
 72
    65
 73
     4
 40
40.0
 49
32.5
 49
-2.5
 49
2.5
 49
-2.5
  0
LTYPE
  2
LONG2
 70
    64
  3
--------  -  -  --------  -  -  
 72
    65
 73
     6
 40
40.0
 49
30.0
 49
-2.5
 49
1.25
 49
-2.5
 49
1.25
 49
-2.5
  0
LTYPE
  2
LONG3
 70
    64
  3
+++++++++++++++..+++++++++++++++
 72
    65
 73
     2
 40
40.0
 49
37.5
 49
-2.5
  0
LTYPE
  2
LONG4
 70
    64
  3
+++++++++++++++..+++++++++++++++
 72
    65
 73
     2
 40
80.0
 49
75.0
 49
-5.0
  0
LTYPE
  2
LONG5
 70
    64
  3
----------  --  ----------  --  
 72
    65
 73
     4
 40
60.0
 49
37.5
 49
-7.5
 49
7.5
 49
-7.5
  0
LTYPE
  2
dashed
 70
   64
  3
-------   -------------   ------
 72
   65
 73
    2
 40
7.5
 49
6
 49
-1.5
  0
LTYPE
  2
dashed_spaced
 70
   64
  3
----        --------        ----
 72
   65
 73
    2
 40
12
 49
6
 49
-6
  0
LTYPE
  2
long_dashed_dotted
 70
   64
  3
------------- --- --------------
 72
   65
 73
    4
 40
15.25
 49
12
 49
-1.5
 49
0.25
 49
-1.5
  0
LTYPE
  2
long_dashed_double-dotted
 70
   64
  3
----------- --- --- ------------
 72
   65
 73
    6
 40
17
 49
12
 49
-1.5
 49
0.25
 49
-1.5
 49
0.25
 49
-1.5
  0
LTYPE
  2
long_dashed_triplicate-dotted
 70
   64
  3
--------- --- --- --- ----------
 72
   65
 73
    8
 40
18.75
 49
12
 49
-1.5
 49
0.25
 49
-1.5
 49
0.25
 49
-1.5
 49
0.25
 49
-1.5
  0
LTYPE
  2
dotted
 70
   64
  3
   -       -       -       -    
 72
   65
 73
    2
 40
1.75
 49
0.25
 49
-1.5
  0
LTYPE
  2
chain
 70
   64
  3
-------------- -- --------------
 72
   65
 73
    4
 40
18.5
 49
12
 49
-1.5
 49
3.5
 49
-1.5
  0
LTYPE
  2
chain_double_dash
 70
   64
  3
------------ -- -- -------------
 72
   65
 73
    6
 40
23.5
 49
12
 49
-1.5
 49
3.5
 49
-1.5
 49
3.5
 49
-1.5
  0
LTYPE
  2
dashed_dotted
 70
   64
  3
-----------     -     ----------
 72
   65
 73
    4
 40
9.25
 49
6
 49
-1.5
 49
0.25
 49
-1.5
  0
LTYPE
  2
double-dashed_dotted
 70
   64
  3
------   -----------   -   -----
 72
   65
 73
    6
 40
16.75
 49
6
 49
-1.5
 49
6
 49
-1.5
 49
0.25
 49
-1.5
  0
LTYPE
  2
dashed_double-dotted
 70
   64
  3
---------    -    -    ---------
 72
   65
 73
    6
 40
11
 49
6
 49
-1.5
 49
0.25
 49
-1.5
 49
0.25
 49
-1.5
  0
LTYPE
  2
double-dashed_double-dotted
 70
   64
  3
-----   ---------   -   -   ----
 72
   65
 73
    8
 40
18.5
 49
6
 49
-1.5
 49
6
 49
-1.5
 49
0.25
 49
-1.5
 49
0.25
 49
-1.5
  0
LTYPE
  2
dashed_triplicate-dotted
 70
   64
  3
-------    -    -    -    ------
 72
   65
 73
    8
 40
12.75
 49
6
 49
-1.5
 49
0.25
 49
-1.5
 49
0.25
 49
-1.5
 49
0.25
 49
-1.5
  0
LTYPE
  2
double-dashed_triplicate-dotted
 70
   64
  3
-----  ---------  -  -  -  -----
 72
   65
 73
   10
 40
20.25
 49
6
 49
-1.5
 49
6
 49
-1.5
 49
0.25
 49
-1.5
 49
0.25
 49
-1.5
 49
0.25
 49
-1.5
  0
LTYPE
  2
undefined
 70
   64
  3
--------------------------------
 72
   65
 73
    0
 40
0
  0
LTYPE
  2
_
 70
   64
  3
                                
 72
   65
 73
    0
 40
0
  0
LTYPE
  2
__18
 70
   64
  3
                                
 72
   65
 73
    0
 40
0
  0
LTYPE
  2
__19
 70
   64
  3
                                
 72
   65
 73
    0
 40
0
  0
LTYPE
  2
__20
 70
   64
  3
                                
 72
   65
 73
    0
 40
0
  0
LTYPE
  2
__21
 70
   64
  3
                                
 72
   65
 73
    0
 40
0
  0
LTYPE
  2
__22
 70
   64
  3
                                
 72
   65
 73
    0
 40
0
  0
LTYPE
  2
__23
 70
   64
  3
                                
 72
   65
 73
    0
 40
0
  0
LTYPE
  2
__24
 70
   64
  3
                                
 72
   65
 73
    0
 40
0
  0
LTYPE
  2
__25
 70
   64
  3
                                
 72
   65
 73
    0
 40
0
  0
LTYPE
  2
__26
 70
   64
  3
                                
 72
   65
 73
    0
 40
0
  0
LTYPE
  2
__27
 70
   64
  3
                                
 72
   65
 73
    0
 40
0
  0
LTYPE
  2
__28
 70
   64
  3
                                
 72
   65
 73
    0
 40
0
  0
LTYPE
  2
__29
 70
   64
  3
                                
 72
   65
 73
    0
 40
0
  0
LTYPE
  2
__30
 70
   64
  3
                                
 72
   65
 73
    0
 40
0
  0
LTYPE
  2
__31
 70
   64
  3
                                
 72
   65
 73
    0
 40
0
  0
LTYPE
  2
__32
 70
   64
  3
                                
 72
   65
 73
    0
 40
0
  0
ENDTAB
  0
TABLE
  2
STYLE
  5
3
100
AcDbSymbolTable
 70
     1
  0
STYLE
  5
10
100
AcDbSymbolTableRecord
100
AcDbTextStyleTableRecord
  2
STANDARD
 70
     0
 40
0.0
 41
1.0
 50
0.0
 71
     0
 42
0.2
  3
txt
  4
bigfont.shx
  0
STYLE
  5
26
100
AcDbSymbolTableRecord
100
AcDbTextStyleTableRecord
  2
TATEGAKI
 70
    68
 40
0.0
 41
1.0
 50
0.0
 71
     0
 42
1.0
  3
txt
  4
bigfont.shx
  0
ENDTAB
  0
TABLE
  2
LAYER
 70
    7
  0
LAYER
  2
_0-0_
 70
   64
 62
    7
  6
CONTINUOUS
  0
LAYER
  2
_0-1_
 70
   64
 62
    7
  6
CONTINUOUS
  0
LAYER
  2
_0-2_
 70
   64
 62
    7
  6
CONTINUOUS
  0
LAYER
  2
_e-0_
 70
   64
 62
    7
  6
CONTINUOUS
  0
LAYER
  2
_f-0_
 70
   64
 62
    7
  6
CONTINUOUS
  0
LAYER
  2
_f-1_
 70
   64
 62
    7
  6
CONTINUOUS
  0
LAYER
  2
ADD_LINE
 70
   64
 62
    7
  6
CONTINUOUS
  0
ENDTAB
  0
ENDSEC
  0
SECTION
  2
BLOCKS
  0
BLOCK
  2
-000-33-108X-2__35
 70
   64
 10
0
 20
0
 30
0
  0
ENDBLK
  0
BLOCK
  2
-001-33-108X-2__36
 70
   64
 10
0
 20
0
 30
0
  0
ENDBLK
  0
BLOCK
  2
-002-33-108X-2__37
 70
   64
 10
0
 20
0
 30
0
  0
ENDBLK
  0
BLOCK
  2
-003-33-108X-1__38
 70
   64
 10
0
 20
0
 30
0
  0
ENDBLK
  0
BLOCK
  2
-004-33-108AX__39
 70
   64
 10
0
 20
0
 30
0
  0
INSERT
  2
-000-33-108X-2__35
  8
_0-0_
 10
168.9160050914034
 20
31.783929234556683
 41
1
 42
1
 50
0
  0
INSERT
  2
-001-33-108X-2__36
  8
_0-0_
 10
132.4160050914034
 20
525.98791307951501
 41
1
 42
1
 50
0
  0
INSERT
  2
-002-33-108X-2__37
  8
_0-0_
 10
126.6548620515672
 20
31.783929234556683
 41
1
 42
1
 50
0
  0
INSERT
  2
-003-33-108X-1__38
  8
_0-0_
 10
143.78318357148535
 20
194.68089349478779
 41
1
 42
1
 50
0
  0
ENDBLK
  0
BLOCK
  2
-005-33-108X-1__40
 70
   64
 10
0
 20
0
 30
0
  0
ENDBLK
  0
BLOCK
  2
-006-33-108X-2__41
 70
   64
 10
0
 20
0
 30
0
  0
ENDBLK
  0
BLOCK
  2
-007-33-108AX__42
 70
   64
 10
0
 20
0
 30
0
  0
INSERT
  2
-005-33-108X-1__40
  8
_0-0_
 10
151.7876835714853
 20
194.68089349478779
 41
1
 42
1
 50
0
  0
INSERT
  2
-006-33-108X-2__41
  8
_0-0_
 10
168.9160050914034
 20
31.783929234556683
 41
1
 42
1
 50
0
  0
ENDBLK
  0
BLOCK
  2
-008-87-63
 70
   64
 10
0
 20
0
 30
0
  0
ENDBLK
  0
ENDSEC
  0
SECTION
  2
ENTITIES
  0
LINE
  8
_f-0_
  6
CONTINUOUS
 62
    7
 10
63.516368914522615
 20
24.607477417767213
 11
221.51636891452261
 21
24.607477417767213
  0
LINE
  8
_f-0_
  6
CONTINUOUS
 62
    7
 10
63.516368914522615
 20
14.607477417767256
 11
63.516368914522615
 21
24.607477417767213
  0
LINE
  8
_f-0_
  6
CONTINUOUS
 62
    7
 10
17.516368914522615
 20
14.607477417767256
 11
61.516368914522615
 21
14.607477417767256
  0
LINE
  8
_f-0_
  6
CONTINUOUS
 62
    7
 10
17.516368914522615
 20
24.607477417767213
 11
61.516368914522615
 21
24.607477417767213
  0
LINE
  8
_f-0_
  6
CONTINUOUS
 62
    7
 10
142.51636891452261
 20
14.607477417767256
 11
142.51636891452261
 21
24.607477417767213
  0
LINE
  8
_f-0_
  6
CONTINUOUS
 62
    7
 10
221.51636891452261
 20
14.607477417767256
 11
221.51636891452261
 21
24.607477417767213
  0
LINE
  8
_f-0_
  6
CONTINUOUS
 62
    7
 10
222.51636891452261
 20
14.607477417767256
 11
222.51636891452261
 21
24.607477417767213
  0
LINE
  8
_f-0_
  6
CONTINUOUS
 62
    7
 10
63.516368914522615
 20
14.607477417767256
 11
221.51636891452261
 21
14.607477417767256
  0
LINE
  8
_f-0_
  6
CONTINUOUS
 62
    7
 10
271.51636891452261
 20
14.607477417767256
 11
271.51636891452261
 21
24.607477417767213
  0
LINE
  8
_f-0_
  6
CONTINUOUS
 62
    7
 10
272.51636891452261
 20
14.607477417767256
 11
272.51636891452261
 21
24.607477417767213
  0
LINE
  8
_f-0_
  6
CONTINUOUS
 62
    7
 10
222.51636891452261
 20
14.607477417767256
 11
271.51636891452261
 21
14.607477417767256
  0
LINE
  8
_f-0_
  6
CONTINUOUS
 62
    7
 10
222.51636891452261
 20
24.607477417767213
 11
271.51636891452261
 21
24.607477417767213
  0
LINE
  8
_f-0_
  6
CONTINUOUS
 62
    7
 10
302.51636891452261
 20
14.607477417767256
 11
302.51636891452261
 21
24.607477417767213
  0
LINE
  8
_f-0_
  6
CONTINUOUS
 62
    7
 10
332.51636891452267
 20
14.607477417767256
 11
332.51636891452267
 21
24.607477417767213
  0
LINE
  8
_f-0_
  6
CONTINUOUS
 62
    7
 10
370.51636891452261
 20
14.607477417767256
 11
370.51636891452261
 21
24.607477417767213
  0
LINE
  8
_f-0_
  6
CONTINUOUS
 62
    7
 10
272.51636891452261
 20
14.607477417767256
 11
411.51636891452261
 21
14.607477417767256
  0
LINE
  8
_f-0_
  6
CONTINUOUS
 62
    7
 10
411.51636891452261
 20
14.607477417767256
 11
411.51636891452261
 21
24.607477417767213
  0
LINE
  8
_f-0_
  6
CONTINUOUS
 62
    7
 10
272.51636891452261
 20
24.607477417767213
 11
411.51636891452261
 21
24.607477417767213
  0
LINE
  8
_f-0_
  6
CONTINUOUS
 62
    7
 10
413.51636891452261
 20
288.60747741776719
 11
413.51636891452261
 21
12.607477417767256
  0
LINE
  8
_f-0_
  6
CONTINUOUS
 62
    7
 10
15.516368914522615
 20
288.60747741776719
 11
413.51636891452261
 21
288.60747741776719
  0
LINE
  8
_f-0_
  6
CONTINUOUS
 62
    7
 10
15.516368914522615
 20
12.607477417767256
 11
413.51636891452261
 21
12.607477417767256
  0
LINE
  8
_f-0_
  6
CONTINUOUS
 62
    7
 10
15.516368914522615
 20
12.607477417767256
 11
15.516368914522615
 21
288.60747741776719
  0
TEXT
  8
_f-0_
 62
    7
 10
334.51636891452261
 20
21.357477417767242
 40
2.5
 41
0.64
 50
0
  1
ＣＨＥＣＫＥＤ
  0
TEXT
  8
_f-0_
 62
    7
 10
372.51636891452267
 20
21.357477417767242
 40
2.5
 41
0.64
 50
0
  1
ＳＨＥＥＴ　ＮＯ．
  0
TEXT
  8
_f-0_
 62
    7
 10
354.7163689145226
 20
21.357477417767242
 40
2.5
 41
0.64
 50
0
  1
ＤＲＡＷＩＮＧ
  0
LINE
  8
_f-0_
  6
CONTINUOUS
 62
    7
 10
17.516368914522615
 20
19.607477417767256
 11
61.516368914522615
 21
19.607477417767256
  0
TEXT
  8
_f-0_
 62
    7
 10
274.55376732306467
 20
21.354414717252211
 40
2.5
 41
0.64
 50
0
  1
ＳＣＡＬＥ
  0
TEXT
  8
_f-0_
 62
    7
 10
145.01636891452261
 20
21.357477417767242
 40
2.5
 41
0.8
 50
0
  1
図面名称
  0
TEXT
  8
_f-0_
 62
    7
 10
66.016368914522615
 20
21.357477417767242
 40
2.5
 41
0.8
 50
0
  1
名　称
  0
LINE
  8
_f-0_
  6
CONTINUOUS
 62
    7
 10
217.01636891452261
 20
289.80747741776724
 11
217.13136891452262
 21
290.00747741776729
  0
LINE
  8
_f-0_
  6
CONTINUOUS
 62
    7
 10
216.38036891452262
 20
290.30747741776724
 11
217.01636891452261
 21
289.20747741776722
  0
LINE
  8
_f-0_
  6
CONTINUOUS
 62
    7
 10
217.01636891452261
 20
289.20747741776722
 11
217.6513689145226
 21
290.30747741776724
  0
LINE
  8
_f-0_
  6
CONTINUOUS
 62
    7
 10
217.01636891452261
 20
288.60747741776719
 11
218.17036891452261
 21
290.60747741776719
  0
LINE
  8
_f-0_
  6
CONTINUOUS
 62
    7
 10
215.86136891452261
 20
290.60747741776719
 11
217.01636891452261
 21
288.60747741776719
  0
LINE
  8
_f-0_
  6
CONTINUOUS
 62
    7
 10
218.17036891452261
 20
290.60747741776719
 11
215.86136891452261
 21
290.60747741776719
  0
LINE
  8
_f-0_
  6
CONTINUOUS
 62
    7
 10
216.90036891452263
 20
290.00747741776729
 11
217.01636891452261
 21
289.80747741776724
  0
LINE
  8
_f-0_
  6
CONTINUOUS
 62
    7
 10
217.13136891452262
 20
290.00747741776729
 11
216.90036891452263
 21
290.00747741776729
  0
LINE
  8
_f-0_
  6
CONTINUOUS
 62
    7
 10
217.6513689145226
 20
290.30747741776724
 11
216.38036891452262
 21
290.30747741776724
  0
LINE
  8
_f-0_
  6
CONTINUOUS
 62
    7
 10
12.516368914522615
 20
148.87542661019836
 11
12.516368914522615
 21
152.33952822533612
  0
LINE
  8
_f-0_
  6
CONTINUOUS
 62
    7
 10
12.516368914522615
 20
152.33952822533612
 11
15.516368914522615
 21
150.60747741776725
  0
LINE
  8
_f-0_
  6
CONTINUOUS
 62
    7
 10
15.516368914522615
 20
150.60747741776725
 11
12.516368914522615
 21
148.87542661019836
  0
LINE
  8
_f-0_
  6
CONTINUOUS
 62
    7
 10
13.016368914522615
 20
149.74145201398278
 11
13.016368914522615
 21
151.47350282155167
  0
LINE
  8
_f-0_
  6
CONTINUOUS
 62
    7
 10
13.016368914522615
 20
151.47350282155167
 11
14.516368914522615
 21
150.60747741776725
  0
LINE
  8
_f-0_
  6
CONTINUOUS
 62
    7
 10
14.516368914522615
 20
150.60747741776725
 11
13.016368914522615
 21
149.74145201398278
  0
LINE
  8
_f-0_
  6
CONTINUOUS
 62
    7
 10
13.416368914522536
 20
150.43427233701032
 11
13.416368914522536
 21
150.78068249852412
  0
LINE
  8
_f-0_
  6
CONTINUOUS
 62
    7
 10
13.416368914522536
 20
150.78068249852412
 11
13.716368914522661
 21
150.60747741776725
  0
LINE
  8
_f-0_
  6
CONTINUOUS
 62
    7
 10
13.716368914522661
 20
150.60747741776725
 11
13.416368914522536
 21
150.43427233701032
  0
TEXT
  8
_f-0_
 62
    7
 10
15.514868914522594
 20
9.1074774177672566
 40
2
 41
1
 50
0
  1
%f
  0
TEXT
  8
_f-0_
 62
    7
 10
399.51636891452261
 20
9.1074777407702072
 40
2
 41
1
 50
0
  1
%y
  0
TEXT
  8
_f-0_
 62
    7
 10
402.51636891452267
 20
9.1074777407702072
 40
2
 41
1
 50
0
  1
．
  0
TEXT
  8
_f-0_
 62
    7
 10
405.51636891452261
 20
9.1074777407702072
 40
2
 41
1
 50
0
  1
%m
  0
TEXT
  8
_f-0_
 62
    7
 10
408.51636891452261
 20
9.1074777407702072
 40
2
 41
1
 50
0
  1
．
  0
TEXT
  8
_f-0_
 62
    7
 10
411.51636891452267
 20
9.1074777407702072
 40
2
 41
1
 50
0
  1
%d
  0
INSERT
  2
-004-33-108AX__39
  8
_f-0_
 10
1901.6599019556372
 20
2383.4099562044611
 41
2
 42
2
 50
0
  0
INSERT
  2
-007-33-108AX__42
  8
_f-0_
 10
1797.5235836179433
 20
2383.4099562044616
 41
2
 42
2
 50
0
  0
INSERT
  2
-008-87-63
  8
_f-0_
 10
1762.1673592743095
 20
2313.6243239605778
 41
2
 42
2
 50
0
  0
TEXT
  8
_f-0_
 62
    7
 10
304.51636891452261
 20
21.357477417767242
 40
2.5
 41
0.64
 50
0
  1
ＤＡＴＡ
  0
TEXT
  8
_0-1_
 62
    7
 10
306.76183511775832
 20
47.409676749672357
 40
6.1440002441406251
 41
0.6506851115847048
 50
0
  1
材　質
  0
LINE
  8
_0-1_
  6
CONTINUOUS
 62
    7
 10
302.59043511775837
 20
44.924076749672352
 11
396.04013484984875
 21
44.924076749672352
  0
LINE
  8
_0-1_
  6
CONTINUOUS
 62
    7
 10
302.59043511775837
 20
55.924076749672352
 11
396.04013484984875
 21
55.924076749672352
  0
LINE
  8
_0-1_
  6
CONTINUOUS
 62
    7
 10
302.59043511775837
 20
55.924076749672352
 11
302.59043511775837
 21
44.924076749672352
  0
LINE
  8
_0-1_
  6
CONTINUOUS
 62
    7
 10
322.59043511775837
 20
55.924076749672352
 11
322.59043511775837
 21
44.924076749672352
  0
LINE
  8
_0-1_
  6
CONTINUOUS
 62
    7
 10
396.04013484984875
 20
44.924076749672352
 11
396.04013484984875
 21
55.924076749672352
  0
LINE
  8
_0-0_
  6
CONTINUOUS
 62
    7
 10
134.34257907219742
 20
245.9892749572312
 11
135.2924790721974
 21
246.30187495723117
  0
LINE
  8
_0-0_
  6
CONTINUOUS
 62
    7
 10
98.466179072197434
 20
268.99427495723119
 11
98.466179072197434
 21
270.99427495723119
  0
LINE
  8
_0-0_
  6
CONTINUOUS
 62
    7
 10
96.966179072197434
 20
268.97627495723122
 11
96.966179072197434
 21
270.89247495723122
  0
LINE
  8
_0-0_
  6
CONTINUOUS
 62
    7
 10
74.951479072197429
 20
259.82977495723116
 11
73.598079072197407
 21
261.30237495723122
  0
LINE
  8
_0-0_
  6
CONTINUOUS
 62
    7
 10
72.880679072197409
 20
257.75907495723117
 11
71.408079072197409
 21
259.11237495723116
  0
LINE
  8
_0-0_
  6
CONTINUOUS
 62
    7
 10
64.416779072197442
 20
243.35187495723118
 11
62.964279072197399
 21
243.74037495723118
  0
LINE
  8
_0-0_
  6
CONTINUOUS
 62
    7
 10
64.993579072197434
 20
245.28507495723118
 11
63.565779072197443
 21
245.75607495723119
  0
LINE
  8
_0-0_
  6
CONTINUOUS
 62
    7
 10
66.042079072197424
 20
248.06427495723119
 11
64.658979072197411
 21
248.65377495723117
  0
LINE
  8
_0-0_
  6
CONTINUOUS
 62
    7
 10
66.885979072197443
 20
249.8967749572312
 11
65.538779072197399
 21
250.56447495723119
  0
LINE
  8
_0-0_
  6
CONTINUOUS
 62
    7
 10
68.316079072197425
 20
252.50027495723119
 11
67.029879072197417
 21
253.27907495723118
  0
LINE
  8
_0-0_
  6
CONTINUOUS
 62
    7
 10
69.409979072197444
 20
254.19537495723119
 11
68.170479072197423
 21
255.04647495723119
  0
LINE
  8
_0-0_
  6
CONTINUOUS
 62
    7
 10
71.192979072197402
 20
256.57107495723118
 11
70.029579072197435
 21
257.5234749572312
  0
LINE
  8
_0-0_
  6
CONTINUOUS
 62
    7
 10
76.139379072197442
 20
261.51747495723122
 11
75.186979072197431
 21
262.68087495723119
  0
LINE
  8
_0-0_
  6
CONTINUOUS
 62
    7
 10
78.515079072197437
 20
263.30047495723118
 11
77.663979072197406
 21
264.53997495723115
  0
LINE
  8
_0-0_
  6
CONTINUOUS
 62
    7
 10
80.210179072197433
 20
264.39447495723118
 11
79.431379072197444
 21
265.68057495723121
  0
LINE
  8
_0-0_
  6
CONTINUOUS
 62
    7
 10
82.813679072197416
 20
265.82447495723118
 11
82.14597907219742
 21
267.17167495723117
  0
LINE
  8
_0-0_
  6
CONTINUOUS
 62
    7
 10
84.646179072197426
 20
266.6683749572312
 11
84.056679072197439
 21
268.05147495723122
  0
LINE
  8
_0-0_
  6
CONTINUOUS
 62
    7
 10
87.425379072197429
 20
267.71687495723119
 11
86.954379072197426
 21
269.14467495723118
  0
LINE
  8
_0-0_
  6
CONTINUOUS
 62
    7
 10
89.358579072197429
 20
268.29367495723118
 11
88.970079072197435
 21
269.74617495723123
  0
LINE
  8
_0-0_
  6
CONTINUOUS
 62
    7
 10
98.466179072197434
 20
199.49427495723119
 11
98.466179072197434
 21
197.49427495723119
  0
LINE
  8
_0-0_
  6
CONTINUOUS
 62
    7
 10
96.966179072197434
 20
199.51227495723119
 11
96.966179072197434
 21
197.59607495723119
  0
LINE
  8
_0-0_
  6
CONTINUOUS
 62
    7
 10
74.951479072197429
 20
208.65877495723117
 11
73.598079072197407
 21
207.18617495723117
  0
LINE
  8
_0-0_
  6
CONTINUOUS
 62
    7
 10
72.880679072197409
 20
210.72957495723119
 11
71.408079072197409
 21
209.37617495723119
  0
LINE
  8
_0-0_
  6
CONTINUOUS
 62
    7
 10
64.416779072197442
 20
225.1366749572312
 11
62.964279072197399
 21
224.74817495723118
  0
LINE
  8
_0-0_
  6
CONTINUOUS
 62
    7
 10
64.993579072197434
 20
223.2034749572312
 11
63.565779072197443
 21
222.7324749572312
  0
LINE
  8
_0-0_
  6
CONTINUOUS
 62
    7
 10
66.042079072197424
 20
220.4242749572312
 11
64.658979072197411
 21
219.83477495723118
  0
LINE
  8
_0-0_
  6
CONTINUOUS
 62
    7
 10
66.885979072197443
 20
218.59177495723119
 11
65.538779072197399
 21
217.92407495723119
  0
LINE
  8
_0-0_
  6
CONTINUOUS
 62
    7
 10
68.316079072197425
 20
215.98827495723119
 11
67.029879072197417
 21
215.20947495723117
  0
LINE
  8
_0-0_
  6
CONTINUOUS
 62
    7
 10
69.409979072197444
 20
214.2931749572312
 11
68.170479072197423
 21
213.44207495723119
  0
LINE
  8
_0-0_
  6
CONTINUOUS
 62
    7
 10
71.192979072197402
 20
211.9174749572312
 11
70.029579072197435
 21
210.96507495723119
  0
LINE
  8
_0-0_
  6
CONTINUOUS
 62
    7
 10
76.139379072197442
 20
206.97107495723119
 11
75.186979072197431
 21
205.80767495723119
  0
LINE
  8
_0-0_
  6
CONTINUOUS
 62
    7
 10
78.515079072197437
 20
205.1880749572312
 11
77.663979072197406
 21
203.94857495723118
  0
LINE
  8
_0-0_
  6
CONTINUOUS
 62
    7
 10
80.210179072197433
 20
204.09407495723118
 11
79.431379072197444
 21
202.80797495723118
  0
LINE
  8
_0-0_
  6
CONTINUOUS
 62
    7
 10
82.813679072197416
 20
202.6640749572312
 11
82.14597907219742
 21
201.31687495723119
  0
LINE
  8
_0-0_
  6
CONTINUOUS
 62
    7
 10
84.646179072197426
 20
201.82017495723118
 11
84.056679072197439
 21
200.43707495723117
  0
LINE
  8
_0-0_
  6
CONTINUOUS
 62
    7
 10
87.425379072197429
 20
200.77167495723119
 11
86.954379072197426
 21
199.3438749572312
  0
LINE
  8
_0-0_
  6
CONTINUOUS
 62
    7
 10
89.358579072197429
 20
200.1948749572312
 11
88.970079072197435
 21
198.74237495723119
  0
LINE
  8
_0-0_
  6
CONTINUOUS
 62
    7
 10
98.466179072197434
 20
268.99427495723119
 11
98.466179072197434
 21
270.99427495723119
  0
LINE
  8
_0-0_
  6
CONTINUOUS
 62
    7
 10
99.966179072197434
 20
268.97627495723122
 11
99.966179072197434
 21
270.89247495723122
  0
LINE
  8
_0-0_
  6
CONTINUOUS
 62
    7
 10
121.98087907219741
 20
259.82977495723116
 11
123.33427907219743
 21
261.30237495723122
  0
LINE
  8
_0-0_
  6
CONTINUOUS
 62
    7
 10
124.05167907219743
 20
257.75907495723117
 11
125.52427907219743
 21
259.11237495723116
  0
LINE
  8
_0-0_
  6
CONTINUOUS
 62
    7
 10
132.51557907219742
 20
243.35187495723118
 11
133.96807907219741
 21
243.74037495723118
  0
LINE
  8
_0-0_
  6
CONTINUOUS
 62
    7
 10
131.9387790721974
 20
245.28507495723118
 11
133.36657907219742
 21
245.75607495723119
  0
LINE
  8
_0-0_
  6
CONTINUOUS
 62
    7
 10
130.89027907219741
 20
248.06427495723119
 11
132.27337907219742
 21
248.65377495723117
  0
LINE
  8
_0-0_
  6
CONTINUOUS
 62
    7
 10
130.04637907219742
 20
249.8967749572312
 11
131.39357907219741
 21
250.56447495723119
  0
LINE
  8
_0-0_
  6
CONTINUOUS
 62
    7
 10
128.61627907219741
 20
252.50027495723119
 11
129.90247907219742
 21
253.27907495723118
  0
LINE
  8
_0-0_
  6
CONTINUOUS
 62
    7
 10
127.52237907219742
 20
254.19537495723119
 11
128.76187907219741
 21
255.04647495723119
  0
LINE
  8
_0-0_
  6
CONTINUOUS
 62
    7
 10
125.73937907219743
 20
256.57107495723118
 11
126.90277907219743
 21
257.5234749572312
  0
LINE
  8
_0-0_
  6
CONTINUOUS
 62
    7
 10
120.79297907219742
 20
261.51747495723122
 11
121.74537907219743
 21
262.68087495723119
  0
LINE
  8
_0-0_
  6
CONTINUOUS
 62
    7
 10
118.41727907219743
 20
263.30047495723118
 11
119.26837907219743
 21
264.53997495723115
  0
LINE
  8
_0-0_
  6
CONTINUOUS
 62
    7
 10
116.72217907219743
 20
264.39447495723118
 11
117.50097907219742
 21
265.68057495723121
  0
LINE
  8
_0-0_
  6
CONTINUOUS
 62
    7
 10
114.11867907219743
 20
265.82447495723118
 11
114.78637907219743
 21
267.17167495723117
  0
LINE
  8
_0-0_
  6
CONTINUOUS
 62
    7
 10
112.28617907219742
 20
266.6683749572312
 11
112.87567907219741
 21
268.05147495723122
  0
LINE
  8
_0-0_
  6
CONTINUOUS
 62
    7
 10
109.50697907219742
 20
267.71687495723119
 11
109.97797907219742
 21
269.14467495723118
  0
LINE
  8
_0-0_
  6
CONTINUOUS
 62
    7
 10
107.57377907219742
 20
268.29367495723118
 11
107.96227907219741
 21
269.74617495723123
  0
LINE
  8
_0-0_
  6
CONTINUOUS
 62
    7
 10
98.466179072197434
 20
199.49427495723119
 11
98.466179072197434
 21
197.49427495723119
  0
LINE
  8
_0-0_
  6
CONTINUOUS
 62
    7
 10
99.966179072197434
 20
199.51227495723119
 11
99.966179072197434
 21
197.59607495723119
  0
LINE
  8
_0-0_
  6
CONTINUOUS
 62
    7
 10
121.98087907219741
 20
208.65877495723117
 11
123.33427907219743
 21
207.18617495723117
  0
LINE
  8
_0-0_
  6
CONTINUOUS
 62
    7
 10
124.05167907219743
 20
210.72957495723119
 11
125.52427907219743
 21
209.37617495723119
  0
LINE
  8
_0-0_
  6
CONTINUOUS
 62
    7
 10
132.51557907219742
 20
225.1366749572312
 11
133.96807907219741
 21
224.74817495723118
  0
LINE
  8
_0-0_
  6
CONTINUOUS
 62
    7
 10
131.9387790721974
 20
223.2034749572312
 11
133.36657907219742
 21
222.7324749572312
  0
LINE
  8
_0-0_
  6
CONTINUOUS
 62
    7
 10
130.89027907219741
 20
220.4242749572312
 11
132.27337907219742
 21
219.83477495723118
  0
LINE
  8
_0-0_
  6
CONTINUOUS
 62
    7
 10
130.04637907219742
 20
218.59177495723119
 11
131.39357907219741
 21
217.92407495723119
  0
LINE
  8
_0-0_
  6
CONTINUOUS
 62
    7
 10
128.61627907219741
 20
215.98827495723119
 11
129.90247907219742
 21
215.20947495723117
  0
LINE
  8
_0-0_
  6
CONTINUOUS
 62
    7
 10
127.52237907219742
 20
214.2931749572312
 11
128.76187907219741
 21
213.44207495723119
  0
LINE
  8
_0-0_
  6
CONTINUOUS
 62
    7
 10
125.73937907219743
 20
211.9174749572312
 11
126.90277907219743
 21
210.96507495723119
  0
LINE
  8
_0-0_
  6
CONTINUOUS
 62
    7
 10
120.79297907219742
 20
206.97107495723119
 11
121.74537907219743
 21
205.80767495723119
  0
LINE
  8
_0-0_
  6
CONTINUOUS
 62
    7
 10
118.41727907219743
 20
205.1880749572312
 11
119.26837907219743
 21
203.94857495723118
  0
LINE
  8
_0-0_
  6
CONTINUOUS
 62
    7
 10
116.72217907219743
 20
204.09407495723118
 11
117.50097907219742
 21
202.80797495723118
  0
LINE
  8
_0-0_
  6
CONTINUOUS
 62
    7
 10
114.11867907219743
 20
202.6640749572312
 11
114.78637907219743
 21
201.31687495723119
  0
LINE
  8
_0-0_
  6
CONTINUOUS
 62
    7
 10
112.28617907219742
 20
201.82017495723118
 11
112.87567907219741
 21
200.43707495723117
  0
LINE
  8
_0-0_
  6
CONTINUOUS
 62
    7
 10
109.50697907219742
 20
200.77167495723119
 11
109.97797907219742
 21
199.3438749572312
  0
LINE
  8
_0-0_
  6
CONTINUOUS
 62
    7
 10
107.57377907219742
 20
200.1948749572312
 11
107.96227907219741
 21
198.74237495723119
  0
LINE
  8
_0-0_
  6
CONTINUOUS
 62
    7
 10
94.466179072197419
 20
195.70127495723119
 11
94.466179072197419
 21
197.71257495723119
  0
LINE
  8
_0-0_
  6
CONTINUOUS
 62
    7
 10
102.46617907219743
 20
270.77597495723119
 11
102.46617907219743
 21
272.7872749572312
  0
LINE
  8
_0-0_
  6
CONTINUOUS
 62
    7
 10
94.466179072197419
 20
270.77597495723119
 11
94.466179072197419
 21
272.7872749572312
  0
LINE
  8
_0-0_
  6
CONTINUOUS
 62
    7
 10
102.46617907219743
 20
195.70127495723119
 11
102.46617907219743
 21
197.71257495723119
  0
LINE
  8
_0-0_
  6
CONTINUOUS
 62
    7
 10
62.628079072197436
 20
246.10557495723119
 11
61.678179072197423
 21
246.4182749572312
  0
LINE
  8
_0-0_
  6
CONTINUOUS
 62
    7
 10
62.608879072197424
 20
222.44107495723119
 11
61.658979072197411
 21
222.12847495723119
  0
LINE
  8
_0-0_
  6
CONTINUOUS
 62
    7
 10
134.34257907219742
 20
222.49927495723119
 11
135.2924790721974
 21
222.18657495723118
  0
ARC
  8
_0-0_
  6
CONTINUOUS
 62
    7
 10
98.466179072197434
 20
234.24427495723119
 40
36.5
 50
156.24400000000002
 51
156.26400000000001
  0
ARC
  8
_0-0_
  6
CONTINUOUS
 62
    7
 10
98.466179072197434
 20
234.24427495723119
 40
36.75
 50
104.97500000000002
 51
180.00000000000005
  0
ARC
  8
_0-0_
  6
CONTINUOUS
 62
    7
 10
98.466179072197434
 20
234.24427495723119
 40
34.75
 50
132.58500000000003
 51
137.41500000000002
  0
ARC
  8
_0-0_
  6
CONTINUOUS
 62
    7
 10
74.247379072197446
 20
259.85697495723115
 40
0.5
 50
248.26300000000009
 51
79.236000000000117
  0
ARC
  8
_0-0_
  6
CONTINUOUS
 62
    7
 10
72.853479072197416
 20
258.46307495723118
 40
0.5
 50
169.68400000000008
 51
349.50200000000012
  0
ARC
  8
_0-0_
  6
CONTINUOUS
 62
    7
 10
98.466179072197434
 20
234.24427495723119
 40
34.75
 50
165.83800000000002
 51
180.00000000000002
  0
ARC
  8
_0-0_
  6
CONTINUOUS
 62
    7
 10
64.287579072197416
 20
242.86887495723118
 40
0.5
 50
345.83800000000002
 51
75.025000000000048
  0
ARC
  8
_0-0_
  6
CONTINUOUS
 62
    7
 10
65.150279072197434
 20
245.75997495723117
 40
0.5
 50
251.74500000000008
 51
340.93200000000007
  0
ARC
  8
_0-0_
  6
CONTINUOUS
 62
    7
 10
98.466179072197434
 20
234.24427495723119
 40
34.75
 50
157.72800000000003
 51
160.93200000000001
  0
ARC
  8
_0-0_
  6
CONTINUOUS
 62
    7
 10
65.846079072197454
 20
247.60427495723118
 40
0.5
 50
337.72800000000006
 51
66.915000000000105
  0
ARC
  8
_0-0_
  6
CONTINUOUS
 62
    7
 10
67.107979072197423
 20
250.34477495723118
 40
0.5
 50
243.63500000000004
 51
332.82200000000005
  0
ARC
  8
_0-0_
  6
CONTINUOUS
 62
    7
 10
98.466179072197434
 20
234.24427495723119
 40
34.75
 50
149.61800000000002
 51
152.82200000000005
  0
ARC
  8
_0-0_
  6
CONTINUOUS
 62
    7
 10
68.05707907219741
 20
252.07257495723118
 40
0.5
 50
329.61800000000016
 51
58.805000000000148
  0
ARC
  8
_0-0_
  6
CONTINUOUS
 62
    7
 10
69.692979072197402
 20
254.60757495723117
 40
0.5
 50
235.52500000000003
 51
324.71200000000004
  0
ARC
  8
_0-0_
  6
CONTINUOUS
 62
    7
 10
98.466179072197434
 20
234.24427495723119
 40
34.75
 50
141.50800000000003
 51
144.71199999999998
  0
ARC
  8
_0-0_
  6
CONTINUOUS
 62
    7
 10
70.876279072197434
 20
256.18417495723122
 40
0.5
 50
321.50800000000003
 51
50.695000000000042
  0
ARC
  8
_0-0_
  6
CONTINUOUS
 62
    7
 10
76.526279072197411
 20
261.83417495723119
 40
0.5
 50
219.30500000000006
 51
308.49200000000007
  0
ARC
  8
_0-0_
  6
CONTINUOUS
 62
    7
 10
98.466179072197434
 20
234.24427495723119
 40
34.75
 50
125.28800000000002
 51
128.49200000000001
  0
ARC
  8
_0-0_
  6
CONTINUOUS
 62
    7
 10
78.102879072197453
 20
263.01747495723122
 40
0.5
 50
305.28800000000006
 51
34.475000000000079
  0
ARC
  8
_0-0_
  6
CONTINUOUS
 62
    7
 10
80.637879072197449
 20
264.65337495723122
 40
0.5
 50
211.19500000000005
 51
300.38200000000006
  0
ARC
  8
_0-0_
  6
CONTINUOUS
 62
    7
 10
98.466179072197434
 20
234.24427495723119
 40
34.75
 50
117.17800000000002
 51
120.38200000000003
  0
ARC
  8
_0-0_
  6
CONTINUOUS
 62
    7
 10
82.365679072197437
 20
265.60247495723115
 40
0.5
 50
297.17800000000005
 51
26.36500000000014
  0
ARC
  8
_0-0_
  6
CONTINUOUS
 62
    7
 10
85.106179072197434
 20
266.86437495723117
 40
0.5
 50
203.08500000000006
 51
292.27200000000004
  0
ARC
  8
_0-0_
  6
CONTINUOUS
 62
    7
 10
86.950479072197438
 20
267.56017495723119
 40
0.5
 50
289.06800000000009
 51
18.255000000000123
  0
ARC
  8
_0-0_
  6
CONTINUOUS
 62
    7
 10
98.466179072197434
 20
234.24427495723119
 40
34.75
 50
109.06800000000001
 51
112.27200000000001
  0
ARC
  8
_0-0_
  6
CONTINUOUS
 62
    7
 10
89.841579072197433
 20
268.42287495723121
 40
0.5
 50
194.97500000000002
 51
284.16200000000003
  0
ARC
  8
_0-0_
  6
CONTINUOUS
 62
    7
 10
98.466179072197434
 20
234.24427495723119
 40
36.5
 50
203.73600000000007
 51
203.75600000000002
  0
ARC
  8
_0-0_
  6
CONTINUOUS
 62
    7
 10
98.466179072197434
 20
234.24427495723119
 40
36.75
 50
180.00000000000005
 51
255.02500000000009
  0
ARC
  8
_0-0_
  6
CONTINUOUS
 62
    7
 10
98.466179072197434
 20
234.24427495723119
 40
34.75
 50
222.58500000000003
 51
227.41500000000002
  0
ARC
  8
_0-0_
  6
CONTINUOUS
 62
    7
 10
74.247379072197446
 20
208.63157495723118
 40
0.5
 50
280.76400000000001
 51
111.73700000000006
  0
ARC
  8
_0-0_
  6
CONTINUOUS
 62
    7
 10
72.853479072197416
 20
210.02547495723118
 40
0.5
 50
10.498000000000001
 51
190.31600000000003
  0
ARC
  8
_0-0_
  6
CONTINUOUS
 62
    7
 10
98.466179072197434
 20
234.24427495723119
 40
34.75
 50
180.00000000000005
 51
194.16200000000006
  0
ARC
  8
_0-0_
  6
CONTINUOUS
 62
    7
 10
64.287579072197416
 20
225.61967495723118
 40
0.5
 50
284.97500000000007
 51
14.162000000000016
  0
ARC
  8
_0-0_
  6
CONTINUOUS
 62
    7
 10
65.150279072197434
 20
222.72857495723118
 40
0.5
 50
19.068000000000004
 51
108.255
  0
ARC
  8
_0-0_
  6
CONTINUOUS
 62
    7
 10
98.466179072197434
 20
234.24427495723119
 40
34.75
 50
199.06800000000006
 51
202.27200000000004
  0
ARC
  8
_0-0_
  6
CONTINUOUS
 62
    7
 10
65.846079072197454
 20
220.88427495723118
 40
0.5
 50
293.08500000000003
 51
22.272000000000083
  0
ARC
  8
_0-0_
  6
CONTINUOUS
 62
    7
 10
67.107979072197423
 20
218.14377495723118
 40
0.5
 50
27.178000000000007
 51
116.365
  0
ARC
  8
_0-0_
  6
CONTINUOUS
 62
    7
 10
98.466179072197434
 20
234.24427495723119
 40
34.75
 50
207.17800000000008
 51
210.38200000000009
  0
ARC
  8
_0-0_
  6
CONTINUOUS
 62
    7
 10
68.05707907219741
 20
216.41597495723118
 40
0.5
 50
301.19500000000005
 51
30.38200000000014
  0
ARC
  8
_0-0_
  6
CONTINUOUS
 62
    7
 10
69.692979072197402
 20
213.88097495723118
 40
0.5
 50
35.288000000000003
 51
124.47500000000002
  0
ARC
  8
_0-0_
  6
CONTINUOUS
 62
    7
 10
98.466179072197434
 20
234.24427495723119
 40
34.75
 50
215.28800000000003
 51
218.49200000000001
  0
ARC
  8
_0-0_
  6
CONTINUOUS
 62
    7
 10
70.876279072197434
 20
212.30437495723117
 40
0.5
 50
309.30500000000006
 51
38.492000000000082
  0
ARC
  8
_0-0_
  6
CONTINUOUS
 62
    7
 10
76.526279072197411
 20
206.65437495723119
 40
0.5
 50
51.508000000000016
 51
140.69500000000002
  0
ARC
  8
_0-0_
  6
CONTINUOUS
 62
    7
 10
98.466179072197434
 20
234.24427495723119
 40
34.75
 50
231.50800000000012
 51
234.71200000000007
  0
ARC
  8
_0-0_
  6
CONTINUOUS
 62
    7
 10
78.102879072197453
 20
205.47107495723119
 40
0.5
 50
325.52500000000003
 51
54.712000000000038
  0
ARC
  8
_0-0_
  6
CONTINUOUS
 62
    7
 10
80.637879072197449
 20
203.83517495723117
 40
0.5
 50
59.618000000000009
 51
148.80500000000003
  0
ARC
  8
_0-0_
  6
CONTINUOUS
 62
    7
 10
98.466179072197434
 20
234.24427495723119
 40
34.75
 50
239.61800000000005
 51
242.82200000000005
  0
ARC
  8
_0-0_
  6
CONTINUOUS
 62
    7
 10
82.365679072197437
 20
202.88607495723118
 40
0.5
 50
333.6350000000001
 51
62.822000000000095
  0
ARC
  8
_0-0_
  6
CONTINUOUS
 62
    7
 10
85.106179072197434
 20
201.62417495723119
 40
0.5
 50
67.728000000000008
 51
156.91500000000004
  0
ARC
  8
_0-0_
  6
CONTINUOUS
 62
    7
 10
86.950479072197438
 20
200.92837495723119
 40
0.5
 50
341.74500000000011
 51
70.932000000000101
  0
ARC
  8
_0-0_
  6
CONTINUOUS
 62
    7
 10
98.466179072197434
 20
234.24427495723119
 40
34.75
 50
247.72800000000003
 51
250.93200000000001
  0
ARC
  8
_0-0_
  6
CONTINUOUS
 62
    7
 10
89.841579072197433
 20
200.06567495723118
 40
0.5
 50
75.838000000000008
 51
165.02500000000003
  0
ARC
  8
_0-0_
  6
CONTINUOUS
 62
    7
 10
98.466179072197434
 20
234.24427495723119
 40
34.75
 50
255.83800000000005
 51
270.00000000000005
  0
ARC
  8
_0-0_
  6
CONTINUOUS
 62
    7
 10
98.466179072197434
 20
234.24427495723119
 40
36.5
 50
23.736000000000007
 51
23.756000000000003
  0
ARC
  8
_0-0_
  6
CONTINUOUS
 62
    7
 10
98.466179072197434
 20
234.24427495723119
 40
36.75
 50
0
 51
75.025000000000034
  0
ARC
  8
_0-0_
  6
CONTINUOUS
 62
    7
 10
98.466179072197434
 20
234.24427495723119
 40
34.75
 50
42.585
 51
47.414999999999999
  0
ARC
  8
_0-0_
  6
CONTINUOUS
 62
    7
 10
122.68497907219742
 20
259.85697495723115
 40
0.5
 50
100.76400000000003
 51
291.73700000000013
  0
ARC
  8
_0-0_
  6
CONTINUOUS
 62
    7
 10
124.07887907219742
 20
258.46307495723118
 40
0.5
 50
190.49800000000004
 51
10.316000000000055
  0
ARC
  8
_0-0_
  6
CONTINUOUS
 62
    7
 10
98.466179072197434
 20
234.24427495723119
 40
34.75
 50
0
 51
14.162000000000004
  0
ARC
  8
_0-0_
  6
CONTINUOUS
 62
    7
 10
132.64477907219742
 20
242.86887495723118
 40
0.5
 50
104.97500000000002
 51
194.16200000000006
  0
ARC
  8
_0-0_
  6
CONTINUOUS
 62
    7
 10
131.7820790721974
 20
245.75997495723117
 40
0.5
 50
199.06800000000006
 51
288.25500000000005
  0
ARC
  8
_0-0_
  6
CONTINUOUS
 62
    7
 10
98.466179072197434
 20
234.24427495723119
 40
34.75
 50
19.068000000000004
 51
22.272000000000002
  0
ARC
  8
_0-0_
  6
CONTINUOUS
 62
    7
 10
131.08627907219741
 20
247.60427495723118
 40
0.5
 50
113.085
 51
202.27200000000001
  0
ARC
  8
_0-0_
  6
CONTINUOUS
 62
    7
 10
129.82437907219741
 20
250.34477495723118
 40
0.5
 50
207.17800000000008
 51
296.36500000000006
  0
ARC
  8
_0-0_
  6
CONTINUOUS
 62
    7
 10
98.466179072197434
 20
234.24427495723119
 40
34.75
 50
27.178000000000007
 51
30.382000000000008
  0
ARC
  8
_0-0_
  6
CONTINUOUS
 62
    7
 10
128.87527907219742
 20
252.07257495723118
 40
0.5
 50
121.19500000000002
 51
210.38200000000006
  0
ARC
  8
_0-0_
  6
CONTINUOUS
 62
    7
 10
127.23937907219743
 20
254.60757495723117
 40
0.5
 50
215.28800000000003
 51
304.47500000000007
  0
ARC
  8
_0-0_
  6
CONTINUOUS
 62
    7
 10
98.466179072197434
 20
234.24427495723119
 40
34.75
 50
35.288000000000003
 51
38.492000000000004
  0
ARC
  8
_0-0_
  6
CONTINUOUS
 62
    7
 10
126.05607907219743
 20
256.18417495723122
 40
0.5
 50
129.30500000000003
 51
218.49200000000001
  0
ARC
  8
_0-0_
  6
CONTINUOUS
 62
    7
 10
120.40607907219742
 20
261.83417495723119
 40
0.5
 50
231.50800000000012
 51
320.69500000000016
  0
ARC
  8
_0-0_
  6
CONTINUOUS
 62
    7
 10
98.466179072197434
 20
234.24427495723119
 40
34.75
 50
51.508000000000016
 51
54.712000000000017
  0
ARC
  8
_0-0_
  6
CONTINUOUS
 62
    7
 10
118.82947907219741
 20
263.01747495723122
 40
0.5
 50
145.52500000000003
 51
234.71200000000001
  0
ARC
  8
_0-0_
  6
CONTINUOUS
 62
    7
 10
116.29447907219741
 20
264.65337495723122
 40
0.5
 50
239.61800000000005
 51
328.80500000000006
  0
ARC
  8
_0-0_
  6
CONTINUOUS
 62
    7
 10
98.466179072197434
 20
234.24427495723119
 40
34.75
 50
59.618000000000009
 51
62.822000000000016
  0
ARC
  8
_0-0_
  6
CONTINUOUS
 62
    7
 10
114.56667907219741
 20
265.60247495723115
 40
0.5
 50
153.63500000000004
 51
242.82200000000008
  0
ARC
  8
_0-0_
  6
CONTINUOUS
 62
    7
 10
111.82617907219741
 20
266.86437495723117
 40
0.5
 50
247.72800000000003
 51
336.91500000000007
  0
ARC
  8
_0-0_
  6
CONTINUOUS
 62
    7
 10
109.98187907219741
 20
267.56017495723119
 40
0.5
 50
161.74500000000003
 51
250.93200000000004
  0
ARC
  8
_0-0_
  6
CONTINUOUS
 62
    7
 10
98.466179072197434
 20
234.24427495723119
 40
34.75
 50
67.728000000000008
 51
70.932000000000016
  0
ARC
  8
_0-0_
  6
CONTINUOUS
 62
    7
 10
107.09077907219742
 20
268.42287495723121
 40
0.5
 50
255.83800000000005
 51
345.02500000000003
  0
ARC
  8
_0-0_
  6
CONTINUOUS
 62
    7
 10
98.466179072197434
 20
234.24427495723119
 40
36.5
 50
336.24400000000008
 51
336.26400000000006
  0
ARC
  8
_0-0_
  6
CONTINUOUS
 62
    7
 10
98.466179072197434
 20
234.24427495723119
 40
36.75
 50
284.97500000000007
 51
0.0000000000000381
  0
ARC
  8
_0-0_
  6
CONTINUOUS
 62
    7
 10
98.466179072197434
 20
234.24427495723119
 40
34.75
 50
312.58500000000009
 51
317.41500000000013
  0
ARC
  8
_0-0_
  6
CONTINUOUS
 62
    7
 10
122.68497907219742
 20
208.63157495723118
 40
0.5
 50
68.263000000000019
 51
259.23600000000004
  0
ARC
  8
_0-0_
  6
CONTINUOUS
 62
    7
 10
124.07887907219742
 20
210.02547495723118
 40
0.5
 50
349.68400000000013
 51
169.50200000000006
  0
ARC
  8
_0-0_
  6
CONTINUOUS
 62
    7
 10
98.466179072197434
 20
234.24427495723119
 40
34.75
 50
345.83800000000002
 51
0.0000000000000238
  0
ARC
  8
_0-0_
  6
CONTINUOUS
 62
    7
 10
132.64477907219742
 20
225.61967495723118
 40
0.5
 50
165.83800000000002
 51
255.02500000000003
  0
ARC
  8
_0-0_
  6
CONTINUOUS
 62
    7
 10
131.7820790721974
 20
222.72857495723118
 40
0.5
 50
71.745000000000018
 51
160.93200000000004
  0
ARC
  8
_0-0_
  6
CONTINUOUS
 62
    7
 10
98.466179072197434
 20
234.24427495723119
 40
34.75
 50
337.72800000000006
 51
340.93200000000007
  0
ARC
  8
_0-0_
  6
CONTINUOUS
 62
    7
 10
131.08627907219741
 20
220.88427495723118
 40
0.5
 50
157.72800000000003
 51
246.91500000000004
  0
ARC
  8
_0-0_
  6
CONTINUOUS
 62
    7
 10
129.82437907219741
 20
218.14377495723118
 40
0.5
 50
63.635000000000012
 51
152.82200000000003
  0
ARC
  8
_0-0_
  6
CONTINUOUS
 62
    7
 10
98.466179072197434
 20
234.24427495723119
 40
34.75
 50
329.61800000000016
 51
332.82200000000011
  0
ARC
  8
_0-0_
  6
CONTINUOUS
 62
    7
 10
128.87527907219742
 20
216.41597495723118
 40
0.5
 50
149.61800000000002
 51
238.80500000000009
  0
ARC
  8
_0-0_
  6
CONTINUOUS
 62
    7
 10
127.23937907219743
 20
213.88097495723118
 40
0.5
 50
55.525000000000019
 51
144.71200000000001
  0
ARC
  8
_0-0_
  6
CONTINUOUS
 62
    7
 10
98.466179072197434
 20
234.24427495723119
 40
34.75
 50
321.50800000000003
 51
324.71200000000004
  0
ARC
  8
_0-0_
  6
CONTINUOUS
 62
    7
 10
126.05607907219743
 20
212.30437495723117
 40
0.5
 50
141.50800000000003
 51
230.69500000000002
  0
ARC
  8
_0-0_
  6
CONTINUOUS
 62
    7
 10
120.40607907219742
 20
206.65437495723119
 40
0.5
 50
39.305000000000013
 51
128.49200000000001
  0
ARC
  8
_0-0_
  6
CONTINUOUS
 62
    7
 10
98.466179072197434
 20
234.24427495723119
 40
34.75
 50
305.28800000000006
 51
308.49200000000007
  0
ARC
  8
_0-0_
  6
CONTINUOUS
 62
    7
 10
118.82947907219741
 20
205.47107495723119
 40
0.5
 50
125.28800000000002
 51
214.47500000000007
  0
ARC
  8
_0-0_
  6
CONTINUOUS
 62
    7
 10
116.29447907219741
 20
203.83517495723117
 40
0.5
 50
31.195000000000007
 51
120.38200000000003
  0
ARC
  8
_0-0_
  6
CONTINUOUS
 62
    7
 10
98.466179072197434
 20
234.24427495723119
 40
34.75
 50
297.17800000000005
 51
300.38200000000006
  0
ARC
  8
_0-0_
  6
CONTINUOUS
 62
    7
 10
114.56667907219741
 20
202.88607495723118
 40
0.5
 50
117.17800000000002
 51
206.36500000000006
  0
ARC
  8
_0-0_
  6
CONTINUOUS
 62
    7
 10
111.82617907219741
 20
201.62417495723119
 40
0.5
 50
23.085000000000004
 51
112.27200000000003
  0
ARC
  8
_0-0_
  6
CONTINUOUS
 62
    7
 10
109.98187907219741
 20
200.92837495723119
 40
0.5
 50
109.06800000000001
 51
198.25500000000005
  0
ARC
  8
_0-0_
  6
CONTINUOUS
 62
    7
 10
98.466179072197434
 20
234.24427495723119
 40
34.75
 50
289.06800000000009
 51
292.27200000000004
  0
ARC
  8
_0-0_
  6
CONTINUOUS
 62
    7
 10
107.09077907219742
 20
200.06567495723118
 40
0.5
 50
14.975000000000003
 51
104.16200000000003
  0
ARC
  8
_0-0_
  6
CONTINUOUS
 62
    7
 10
98.466179072197434
 20
234.24427495723119
 40
34.75
 50
270.00000000000005
 51
284.16200000000003
  0
ARC
  8
_0-0_
  6
CONTINUOUS
 62
    7
 10
98.466179072197434
 20
234.24427495723119
 40
36.75
 50
270.00000000000005
 51
276.24900000000008
  0
ARC
  8
_0-0_
  6
CONTINUOUS
 62
    7
 10
98.466179072197434
 20
234.24427495723119
 40
36.75
 50
263.75100000000003
 51
270.00000000000005
  0
ARC
  8
_0-0_
  6
CONTINUOUS
 62
    7
 10
98.466179072197434
 20
234.24427495723119
 40
36.75
 50
83.751000000000018
 51
90.000000000000014
  0
ARC
  8
_0-0_
  6
CONTINUOUS
 62
    7
 10
98.466179072197434
 20
234.24427495723119
 40
36.75
 50
90.000000000000028
 51
96.249000000000023
  0
ARC
  8
_0-0_
  6
CONTINUOUS
 62
    7
 10
98.466179072197434
 20
234.24427495723119
 40
34.75
 50
75.77800000000002
 51
104.16200000000003
  0
ARC
  8
_0-0_
  6
CONTINUOUS
 62
    7
 10
98.466179072197434
 20
234.24427495723119
 40
38.75
 50
95.925000000000011
 51
161.68900000000002
  0
ARC
  8
_0-0_
  6
CONTINUOUS
 62
    7
 10
98.466179072197434
 20
234.24427495723119
 40
37.75
 50
161.68700000000004
 51
180.00000000000002
  0
ARC
  8
_0-0_
  6
CONTINUOUS
 62
    7
 10
98.466179072197434
 20
234.24427495723119
 40
38.75
 50
198.21999999999999
 51
264.07500000000004
  0
ARC
  8
_0-0_
  6
CONTINUOUS
 62
    7
 10
98.466179072197434
 20
234.24427495723119
 40
37.75
 50
180.00000000000005
 51
198.22000000000002
  0
ARC
  8
_0-0_
  6
CONTINUOUS
 62
    7
 10
98.466179072197434
 20
234.24427495723119
 40
38.75
 50
18.129000000000004
 51
84.075000000000031
  0
ARC
  8
_0-0_
  6
CONTINUOUS
 62
    7
 10
98.466179072197434
 20
234.24427495723119
 40
37.75
 50
0
 51
18.127000000000002
  0
ARC
  8
_0-0_
  6
CONTINUOUS
 62
    7
 10
98.466179072197434
 20
234.24427495723119
 40
38.75
 50
275.92500000000006
 51
341.87100000000003
  0
ARC
  8
_0-0_
  6
CONTINUOUS
 62
    7
 10
98.466179072197434
 20
234.24427495723119
 40
37.75
 50
341.87299999999999
 51
0.0000000000000222
  0
LINE
  8
_0-0_
  6
CONTINUOUS
 62
    7
 10
95.231578810074225
 20
145.9849749572312
 11
95.231578810074225
 21
73.994274957231198
  0
LINE
  8
_0-0_
  6
CONTINUOUS
 62
    7
 10
92.731578810074225
 20
66.003674957231169
 11
92.731578810074225
 21
84.68037495723118
  0
LINE
  8
_0-0_
  6
CONTINUOUS
 62
    7
 10
92.731578810074225
 20
147.47607495723119
 11
92.731578810074225
 21
137.1733749572312
  0
LINE
  8
_0-0_
  6
CONTINUOUS
 62
    7
 10
95.231578810074225
 20
90.994274957231198
 11
95.231578810074225
 21
80.994274957231198
  0
LINE
  8
_0-0_
  6
CONTINUOUS
 62
    7
 10
93.981578810074225
 20
147.49427495723119
 11
91.481578810074225
 21
147.49427495723119
  0
LINE
  8
_0-0_
  6
CONTINUOUS
 62
    7
 10
93.981578810074225
 20
147.49427495723119
 11
94.231578810074225
 21
145.49427495723119
  0
LINE
  8
_0-0_
  6
CONTINUOUS
 62
    7
 10
93.981578810074225
 20
70.494274957231198
 11
91.481578810074225
 21
70.494274957231198
  0
LINE
  8
_0-0_
  6
CONTINUOUS
 62
    7
 10
91.481578810074225
 20
70.494274957231198
 11
91.231578810074225
 21
72.494274957231198
  0
LINE
  8
_0-0_
  6
CONTINUOUS
 62
    7
 10
93.981578810074225
 20
70.494274957231198
 11
94.231578810074225
 21
72.494274957231198
  0
LINE
  8
_0-0_
  6
CONTINUOUS
 62
    7
 10
91.481578810074225
 20
145.49427495723119
 11
91.481578810074225
 21
142.78687495723119
  0
LINE
  8
_0-0_
  6
CONTINUOUS
 62
    7
 10
93.981578810074225
 20
145.49427495723119
 11
93.981578810074225
 21
142.97127495723117
  0
LINE
  8
_0-0_
  6
CONTINUOUS
 62
    7
 10
93.981578810074225
 20
72.494274957231198
 11
93.981578810074225
 21
75.017274957231194
  0
LINE
  8
_0-0_
  6
CONTINUOUS
 62
    7
 10
91.481578810074225
 20
72.494274957231198
 11
91.481578810074225
 21
75.201674957231205
  0
LINE
  8
_0-0_
  6
CONTINUOUS
 62
    7
 10
91.231578810074225
 20
145.49427495723119
 11
94.231578810074225
 21
145.49427495723119
  0
LINE
  8
_0-0_
  6
CONTINUOUS
 62
    7
 10
91.481578810074225
 20
147.49427495723119
 11
91.231578810074225
 21
145.49427495723119
  0
LINE
  8
_0-0_
  6
CONTINUOUS
 62
    7
 10
91.253678810074219
 20
72.494274957231198
 11
94.231578810074225
 21
72.494274957231198
  0
LINE
  8
_0-0_
  6
CONTINUOUS
 62
    7
 10
118.23157881007422
 20
147.47607495723119
 11
118.23157881007422
 21
137.1733749572312
  0
LINE
  8
_0-0_
  6
CONTINUOUS
 62
    7
 10
118.23157881007422
 20
66.003674957231169
 11
118.23157881007422
 21
84.68037495723118
  0
LINE
  8
_0-0_
  6
CONTINUOUS
 62
    7
 10
119.48157881007422
 20
147.49427495723119
 11
116.98157881007422
 21
147.49427495723119
  0
LINE
  8
_0-0_
  6
CONTINUOUS
 62
    7
 10
116.98157881007422
 20
147.49427495723119
 11
116.73157881007422
 21
145.49427495723119
  0
LINE
  8
_0-0_
  6
CONTINUOUS
 62
    7
 10
119.48157881007422
 20
147.49427495723119
 11
119.73157881007422
 21
145.49427495723119
  0
LINE
  8
_0-0_
  6
CONTINUOUS
 62
    7
 10
119.48157881007422
 20
145.49427495723119
 11
119.48157881007422
 21
143.47097495723119
  0
LINE
  8
_0-0_
  6
CONTINUOUS
 62
    7
 10
116.23157881007422
 20
140.97097495723119
 11
120.23157881007422
 21
140.97097495723119
  0
LINE
  8
_0-0_
  6
CONTINUOUS
 62
    7
 10
116.98157881007422
 20
145.49427495723119
 11
116.98157881007422
 21
143.47097495723119
  0
LINE
  8
_0-0_
  6
CONTINUOUS
 62
    7
 10
119.48157881007422
 20
70.494274957231198
 11
116.98157881007422
 21
70.494274957231198
  0
LINE
  8
_0-0_
  6
CONTINUOUS
 62
    7
 10
119.48157881007422
 20
70.494274957231198
 11
119.73157881007422
 21
72.494274957231198
  0
LINE
  8
_0-0_
  6
CONTINUOUS
 62
    7
 10
119.48157881007422
 20
72.494274957231198
 11
119.48157881007422
 21
74.517574957231204
  0
LINE
  8
_0-0_
  6
CONTINUOUS
 62
    7
 10
116.23157881007422
 20
77.017574957231204
 11
120.23157881007422
 21
77.017574957231204
  0
LINE
  8
_0-0_
  6
CONTINUOUS
 62
    7
 10
116.98157881007422
 20
72.494274957231198
 11
116.98157881007422
 21
74.517574957231204
  0
LINE
  8
_0-0_
  6
CONTINUOUS
 62
    7
 10
116.23157881007422
 20
74.517574957231204
 11
120.23157881007422
 21
74.517574957231204
  0
LINE
  8
_0-0_
  6
CONTINUOUS
 62
    7
 10
116.23157881007422
 20
143.47097495723119
 11
116.23157881007422
 21
74.517574957231204
  0
LINE
  8
_0-0_
  6
CONTINUOUS
 62
    7
 10
120.23157881007422
 20
143.47097495723119
 11
120.23157881007422
 21
74.517574957231204
  0
LINE
  8
_0-0_
  6
CONTINUOUS
 62
    7
 10
116.23157881007422
 20
143.47097495723119
 11
120.23157881007422
 21
143.47097495723119
  0
LINE
  8
_0-0_
  6
CONTINUOUS
 62
    7
 10
116.73157881007422
 20
145.49427495723119
 11
119.73157881007422
 21
145.49427495723119
  0
LINE
  8
_0-0_
  6
CONTINUOUS
 62
    7
 10
116.73157881007422
 20
72.494274957231198
 11
119.73157881007422
 21
72.494274957231198
  0
LINE
  8
_0-0_
  6
CONTINUOUS
 62
    7
 10
116.98157881007422
 20
70.494274957231198
 11
116.73157881007422
 21
72.494274957231198
  0
ARC
  8
_0-0_
  6
CONTINUOUS
 62
    7
 10
93.981578810074225
 20
141.7203749572312
 40
1.2508999999999999
 50
270.00000000000005
 51
94.375000000000085
  0
ARC
  8
_0-0_
  6
CONTINUOUS
 62
    7
 10
95.231578810074225
 20
108.99427495723119
 40
31.5
 50
92.274000000000029
 51
267.72600000000005
  0
ARC
  8
_0-0_
  6
CONTINUOUS
 62
    7
 10
95.231578810074225
 20
108.99427495723119
 40
34
 50
92.268
 51
267.73200000000008
  0
ARC
  8
_0-0_
  6
CONTINUOUS
 62
    7
 10
93.981578810074225
 20
76.268174957231195
 40
1.2508999999999999
 50
265.62500000000011
 51
90.000000000000099
  0
LINE
  8
_0-0_
  6
CONTINUOUS
 62
    7
 10
367.36014568231053
 20
109.24427495723119
 11
367.36014568231053
 21
141.44427495723118
  0
LINE
  8
_0-0_
  6
CONTINUOUS
 62
    7
 10
367.36014568231053
 20
109.24427495723119
 11
367.36014568231053
 21
77.044274957231181
  0
LINE
  8
_0-0_
  6
CONTINUOUS
 62
    7
 10
214.36014568231055
 20
120.74427495723119
 11
262.86014568231053
 21
120.74427495723119
  0
LINE
  8
_0-0_
  6
CONTINUOUS
 62
    7
 10
272.36014568231053
 20
255.74427495723119
 11
305.36014568231053
 21
255.74427495723119
  0
LINE
  8
_0-0_
  6
CONTINUOUS
 62
    7
 10
272.36014568231053
 20
255.74427495723119
 11
269.86014568231053
 21
255.74427495723119
  0
LINE
  8
_0-0_
  6
CONTINUOUS
 62
    7
 10
269.36014568231053
 20
198.74427495723119
 11
269.36014568231053
 21
269.74427495723119
  0
LINE
  8
_0-0_
  6
CONTINUOUS
 62
    7
 10
269.36014568231053
 20
269.74427495723119
 11
272.36014568231053
 21
267.74427495723119
  0
LINE
  8
_0-0_
  6
CONTINUOUS
 62
    7
 10
227.86014568231055
 20
196.74427495723119
 11
227.86014568231055
 21
234.24427495723119
  0
LINE
  8
_0-0_
  6
CONTINUOUS
 62
    7
 10
213.86014568231055
 20
233.71477495723118
 11
213.86014568231055
 21
234.00777495723119
  0
LINE
  8
_0-0_
  6
CONTINUOUS
 62
    7
 10
213.86014568231055
 20
234.00777495723119
 11
213.86014568231055
 21
234.24427495723119
  0
LINE
  8
_0-0_
  6
CONTINUOUS
 62
    7
 10
207.86014568231055
 20
195.49427495723119
 11
213.86014568231055
 21
195.49427495723119
  0
LINE
  8
_0-0_
  6
CONTINUOUS
 62
    7
 10
213.86014568231055
 20
196.74427495723119
 11
227.86014568231055
 21
196.74427495723119
  0
LINE
  8
_0-0_
  6
CONTINUOUS
 62
    7
 10
227.86014568231055
 20
197.99427495723119
 11
269.36014568231053
 21
198.74427495723119
  0
LINE
  8
_0-0_
  6
CONTINUOUS
 62
    7
 10
269.36014568231053
 20
198.74427495723119
 11
272.36014568231053
 21
200.74427495723119
  0
LINE
  8
_0-0_
  6
CONTINUOUS
 62
    7
 10
272.36014568231053
 20
200.74427495723119
 11
367.36014568231053
 21
202.04427495723118
  0
LINE
  8
_0-0_
  6
CONTINUOUS
 62
    7
 10
207.86014568231055
 20
195.49427495723119
 11
207.86014568231055
 21
234.24427495723119
  0
LINE
  8
_0-0_
  6
CONTINUOUS
 62
    7
 10
207.86014568231055
 20
222.24427495723119
 11
213.86014568231055
 21
222.24427495723119
  0
LINE
  8
_0-0_
  6
CONTINUOUS
 62
    7
 10
213.86014568231055
 20
195.49427495723119
 11
213.86014568231055
 21
233.71477495723118
  0
LINE
  8
_0-0_
  6
CONTINUOUS
 62
    7
 10
213.86014568231055
 20
196.74427495723119
 11
213.86014568231055
 21
224.24427495723119
  0
LINE
  8
_0-0_
  6
CONTINUOUS
 62
    7
 10
272.36014568231053
 20
200.74427495723119
 11
272.36014568231053
 21
234.1177749572312
  0
LINE
  8
_0-0_
  6
CONTINUOUS
 62
    7
 10
207.86014568231055
 20
109.24427495723119
 11
207.86014568231055
 21
147.99427495723119
  0
LINE
  8
_0-0_
  6
CONTINUOUS
 62
    7
 10
272.36014568231053
 20
142.74427495723119
 11
269.36014568231053
 21
144.74427495723119
  0
LINE
  8
_0-0_
  6
CONTINUOUS
 62
    7
 10
307.36014568231053
 20
140.24427495723119
 11
367.36014568231053
 21
140.24427495723119
  0
LINE
  8
_0-0_
  6
CONTINUOUS
 62
    7
 10
307.36014568231053
 20
109.24427495723119
 11
307.36014568231053
 21
140.24427495723119
  0
LINE
  8
_0-0_
  6
CONTINUOUS
 62
    7
 10
207.86014568231055
 20
147.99427495723119
 11
213.86014568231055
 21
147.99427495723119
  0
LINE
  8
_0-0_
  6
CONTINUOUS
 62
    7
 10
213.86014568231055
 20
146.74427495723119
 11
227.86014568231055
 21
146.74427495723119
  0
LINE
  8
_0-0_
  6
CONTINUOUS
 62
    7
 10
227.86014568231055
 20
145.49427495723119
 11
227.86014568231055
 21
146.74427495723119
  0
LINE
  8
_0-0_
  6
CONTINUOUS
 62
    7
 10
213.86014568231055
 20
145.74727495723118
 11
213.86014568231055
 21
147.99427495723119
  0
LINE
  8
_0-0_
  6
CONTINUOUS
 62
    7
 10
272.36014568231053
 20
142.74427495723119
 11
367.36014568231053
 21
141.44427495723118
  0
LINE
  8
_0-0_
  6
CONTINUOUS
 62
    7
 10
207.86014568231055
 20
143.74427495723119
 11
272.36014568231053
 21
142.74427495723119
  0
LINE
  8
_0-0_
  6
CONTINUOUS
 62
    7
 10
269.36014568231053
 20
144.74427495723119
 11
207.86014568231055
 21
145.8556749572312
  0
LINE
  8
_0-0_
  6
CONTINUOUS
 62
    7
 10
262.86014568231053
 20
110.03167495723118
 11
262.86014568231053
 21
118.02147495723119
  0
LINE
  8
_0-0_
  6
CONTINUOUS
 62
    7
 10
209.36014568231055
 20
143.72097495723119
 11
209.36014568231055
 21
145.82857495723118
  0
LINE
  8
_0-0_
  6
CONTINUOUS
 62
    7
 10
212.36014568231055
 20
145.7743749572312
 11
212.36014568231055
 21
143.67447495723118
  0
LINE
  8
_0-0_
  6
CONTINUOUS
 62
    7
 10
207.86014568231055
 20
109.24427495723119
 11
207.86014568231055
 21
70.494274957231198
  0
LINE
  8
_0-0_
  6
CONTINUOUS
 62
    7
 10
272.36014568231053
 20
75.744274957231198
 11
269.36014568231053
 21
73.744274957231198
  0
LINE
  8
_0-0_
  6
CONTINUOUS
 62
    7
 10
307.36014568231053
 20
78.244274957231198
 11
367.36014568231053
 21
78.244274957231198
  0
LINE
  8
_0-0_
  6
CONTINUOUS
 62
    7
 10
307.36014568231053
 20
109.24427495723119
 11
307.36014568231053
 21
78.244274957231198
  0
LINE
  8
_0-0_
  6
CONTINUOUS
 62
    7
 10
207.86014568231055
 20
70.494274957231198
 11
213.86014568231055
 21
70.494274957231198
  0
LINE
  8
_0-0_
  6
CONTINUOUS
 62
    7
 10
213.86014568231055
 20
71.744274957231198
 11
227.86014568231055
 21
71.744274957231198
  0
LINE
  8
_0-0_
  6
CONTINUOUS
 62
    7
 10
227.86014568231055
 20
72.994274957231198
 11
227.86014568231055
 21
71.744274957231198
  0
LINE
  8
_0-0_
  6
CONTINUOUS
 62
    7
 10
213.86014568231055
 20
72.741274957231183
 11
213.86014568231055
 21
70.494274957231198
  0
LINE
  8
_0-0_
  6
CONTINUOUS
 62
    7
 10
272.36014568231053
 20
75.744274957231198
 11
367.36014568231053
 21
77.044274957231181
  0
LINE
  8
_0-0_
  6
CONTINUOUS
 62
    7
 10
207.86014568231055
 20
74.744274957231198
 11
272.36014568231053
 21
75.744274957231198
  0
LINE
  8
_0-0_
  6
CONTINUOUS
 62
    7
 10
269.36014568231053
 20
73.744274957231198
 11
207.86014568231055
 21
72.632874957231194
  0
LINE
  8
_0-0_
  6
CONTINUOUS
 62
    7
 10
209.36014568231055
 20
74.767574957231204
 11
209.36014568231055
 21
72.659974957231185
  0
LINE
  8
_0-0_
  6
CONTINUOUS
 62
    7
 10
212.36014568231055
 20
72.714174957231193
 11
212.36014568231055
 21
74.814074957231184
  0
LINE
  8
_0-0_
  6
CONTINUOUS
 62
    7
 10
305.36014568231053
 20
109.24427495723119
 11
305.36014568231053
 21
140.2323749572312
  0
LINE
  8
_0-0_
  6
CONTINUOUS
 62
    7
 10
305.36014568231053
 20
109.24427495723119
 11
305.36014568231053
 21
78.256174957231195
  0
LINE
  8
_0-0_
  6
CONTINUOUS
 62
    7
 10
212.11014568231055
 20
70.744274957231198
 11
209.61014568231055
 21
70.744274957231198
  0
LINE
  8
_0-0_
  6
CONTINUOUS
 62
    7
 10
212.11014568231055
 20
70.744274957231198
 11
212.36014568231055
 21
72.744274957231198
  0
LINE
  8
_0-0_
  6
CONTINUOUS
 62
    7
 10
212.11014568231055
 20
72.744274957231198
 11
212.11014568231055
 21
75.267274957231194
  0
LINE
  8
_0-0_
  6
CONTINUOUS
 62
    7
 10
209.61014568231055
 20
72.744274957231198
 11
209.61014568231055
 21
75.451674957231205
  0
LINE
  8
_0-0_
  6
CONTINUOUS
 62
    7
 10
212.11014568231055
 20
145.74427495723119
 11
212.11014568231055
 21
143.2212749572312
  0
LINE
  8
_0-0_
  6
CONTINUOUS
 62
    7
 10
209.61014568231055
 20
145.74427495723119
 11
209.61014568231055
 21
143.03687495723119
  0
LINE
  8
_0-0_
  6
CONTINUOUS
 62
    7
 10
212.11014568231055
 20
147.74427495723119
 11
209.61014568231055
 21
147.74427495723119
  0
LINE
  8
_0-0_
  6
CONTINUOUS
 62
    7
 10
212.11014568231055
 20
147.74427495723119
 11
212.36014568231055
 21
145.74427495723119
  0
LINE
  8
_0-0_
  6
CONTINUOUS
 62
    7
 10
209.36014568231055
 20
72.744274957231198
 11
212.36014568231055
 21
72.744274957231198
  0
LINE
  8
_0-0_
  6
CONTINUOUS
 62
    7
 10
209.61014568231055
 20
70.744274957231198
 11
209.36014568231055
 21
72.744274957231198
  0
LINE
  8
_0-0_
  6
CONTINUOUS
 62
    7
 10
209.36014568231055
 20
145.74427495723119
 11
212.36014568231055
 21
145.74427495723119
  0
LINE
  8
_0-0_
  6
CONTINUOUS
 62
    7
 10
209.61014568231055
 20
147.74427495723119
 11
209.36014568231055
 21
145.74427495723119
  0
LINE
  8
_0-0_
  6
CONTINUOUS
 62
    7
 10
367.36014568231053
 20
202.04427495723118
 11
367.36014568231053
 21
234.24427495723119
  0
LINE
  8
_0-0_
  6
CONTINUOUS
 62
    7
 10
213.86014568231055
 20
234.77377495723118
 11
213.86014568231055
 21
234.48087495723117
  0
LINE
  8
_0-0_
  6
CONTINUOUS
 62
    7
 10
213.86014568231055
 20
234.48087495723117
 11
213.86014568231055
 21
234.24427495723119
  0
LINE
  8
_0-0_
  6
CONTINUOUS
 62
    7
 10
207.86014568231055
 20
272.99427495723119
 11
213.86014568231055
 21
272.99427495723119
  0
LINE
  8
_0-0_
  6
CONTINUOUS
 62
    7
 10
213.86014568231055
 20
271.74427495723119
 11
227.86014568231055
 21
271.74427495723119
  0
LINE
  8
_0-0_
  6
CONTINUOUS
 62
    7
 10
272.36014568231053
 20
267.74427495723119
 11
367.36014568231053
 21
266.44427495723118
  0
LINE
  8
_0-0_
  6
CONTINUOUS
 62
    7
 10
207.86014568231055
 20
272.99427495723119
 11
207.86014568231055
 21
234.24427495723119
  0
LINE
  8
_0-0_
  6
CONTINUOUS
 62
    7
 10
207.86014568231055
 20
246.24427495723119
 11
213.86014568231055
 21
246.24427495723119
  0
LINE
  8
_0-0_
  6
CONTINUOUS
 62
    7
 10
272.36014568231053
 20
267.74427495723119
 11
272.36014568231053
 21
234.37077495723119
  0
LINE
  8
_0-0_
  6
CONTINUOUS
 62
    7
 10
367.36014568231053
 20
266.44427495723118
 11
367.36014568231053
 21
234.24427495723119
  0
LINE
  8
_0-0_
  6
CONTINUOUS
 62
    7
 10
227.86014568231055
 20
270.49427495723119
 11
269.36014568231053
 21
269.74427495723119
  0
LINE
  8
_0-0_
  6
CONTINUOUS
 62
    7
 10
210.86014568231055
 20
79.83137495723119
 11
210.86014568231055
 21
69.474774957231204
  0
LINE
  8
_0-0_
  6
CONTINUOUS
 62
    7
 10
210.86014568231055
 20
138.71667495723119
 11
210.86014568231055
 21
150.6244749572312
  0
LINE
  8
_0-0_
  6
CONTINUOUS
 62
    7
 10
210.70094568231056
 20
267.36977495723118
 11
210.70094568231056
 21
275.89007495723114
  0
LINE
  8
_0-0_
  6
CONTINUOUS
 62
    7
 10
210.86014568231055
 20
193.81837495723118
 11
210.86014568231055
 21
198.43777495723119
  0
LINE
  8
_0-0_
  6
CONTINUOUS
 62
    7
 10
213.86014568231055
 20
271.74427495723119
 11
207.86014568231055
 21
271.74427495723119
  0
LINE
  8
_0-0_
  6
CONTINUOUS
 62
    7
 10
213.86014568231055
 20
196.74427495723119
 11
207.86014568231055
 21
196.74427495723119
  0
LINE
  8
_0-0_
  6
CONTINUOUS
 62
    7
 10
227.86014568231055
 20
145.49427495723119
 11
227.86014568231055
 21
141.43397495723118
  0
LINE
  8
_0-0_
  6
CONTINUOUS
 62
    7
 10
272.36014568231053
 20
142.74427495723119
 11
272.36014568231053
 21
138.74427495723119
  0
LINE
  8
_0-0_
  6
CONTINUOUS
 62
    7
 10
272.36014568231053
 20
79.744274957231198
 11
272.36014568231053
 21
75.744274957231198
  0
LINE
  8
_0-0_
  6
CONTINUOUS
 62
    7
 10
227.86014568231055
 20
72.994274957231198
 11
227.86014568231055
 21
77.054574957231181
  0
LINE
  8
_0-0_
  6
CONTINUOUS
 62
    7
 10
227.86014568231055
 20
140.74427495723119
 11
227.86014568231055
 21
142.74427495723119
  0
LINE
  8
_0-0_
  6
CONTINUOUS
 62
    7
 10
227.86014568231055
 20
120.74427495723119
 11
227.86014568231055
 21
118.74427495723119
  0
LINE
  8
_0-0_
  6
CONTINUOUS
 62
    7
 10
227.86014568231055
 20
222.74427495723119
 11
262.86014568231053
 21
222.74427495723119
  0
LINE
  8
_0-0_
  6
CONTINUOUS
 62
    7
 10
227.86014568231055
 20
217.74427495723119
 11
262.86014568231053
 21
217.74427495723119
  0
LINE
  8
_0-0_
  6
CONTINUOUS
 62
    7
 10
227.86014568231055
 20
212.74427495723119
 11
262.86014568231053
 21
212.74427495723119
  0
LINE
  8
_0-0_
  6
CONTINUOUS
 62
    7
 10
227.86014568231055
 20
207.74427495723119
 11
262.86014568231053
 21
207.74427495723119
  0
LINE
  8
_0-0_
  6
CONTINUOUS
 62
    7
 10
227.86014568231055
 20
202.74427495723119
 11
262.86014568231053
 21
202.74427495723119
  0
LINE
  8
_0-0_
  6
CONTINUOUS
 62
    7
 10
227.86014568231055
 20
245.74427495723119
 11
262.86014568231053
 21
245.74427495723119
  0
LINE
  8
_0-0_
  6
CONTINUOUS
 62
    7
 10
227.86014568231055
 20
250.74427495723119
 11
262.86014568231053
 21
250.74427495723119
  0
LINE
  8
_0-0_
  6
CONTINUOUS
 62
    7
 10
227.86014568231055
 20
255.74427495723119
 11
262.86014568231053
 21
255.74427495723119
  0
LINE
  8
_0-0_
  6
CONTINUOUS
 62
    7
 10
227.86014568231055
 20
260.74427495723119
 11
262.86014568231053
 21
260.74427495723119
  0
LINE
  8
_0-0_
  6
CONTINUOUS
 62
    7
 10
227.86014568231055
 20
265.74427495723119
 11
262.86014568231053
 21
265.74427495723119
  0
LINE
  8
_0-0_
  6
CONTINUOUS
 62
    7
 10
272.36014568231053
 20
222.74427495723119
 11
305.36014568231053
 21
222.74427495723119
  0
LINE
  8
_0-0_
  6
CONTINUOUS
 62
    7
 10
272.36014568231053
 20
202.74427495723119
 11
305.36014568231053
 21
202.74427495723119
  0
LINE
  8
_0-0_
  6
CONTINUOUS
 62
    7
 10
272.36014568231053
 20
207.74427495723119
 11
305.36014568231053
 21
207.74427495723119
  0
LINE
  8
_0-0_
  6
CONTINUOUS
 62
    7
 10
272.36014568231053
 20
212.74427495723119
 11
305.36014568231053
 21
212.74427495723119
  0
LINE
  8
_0-0_
  6
CONTINUOUS
 62
    7
 10
272.36014568231053
 20
217.74427495723119
 11
305.36014568231053
 21
217.74427495723119
  0
LINE
  8
_0-0_
  6
CONTINUOUS
 62
    7
 10
272.36014568231053
 20
202.74427495723119
 11
270.36014568231053
 21
202.74427495723119
  0
LINE
  8
_0-0_
  6
CONTINUOUS
 62
    7
 10
214.86014568231055
 20
118.74427495723119
 11
262.86014568231053
 21
118.74427495723119
  0
LINE
  8
_0-0_
  6
CONTINUOUS
 62
    7
 10
270.36014568231053
 20
118.74427495723119
 11
305.36014568231053
 21
118.74427495723119
  0
LINE
  8
_0-0_
  6
CONTINUOUS
 62
    7
 10
272.36014568231053
 20
120.74427495723119
 11
272.36014568231053
 21
118.74427495723119
  0
LINE
  8
_0-0_
  6
CONTINUOUS
 62
    7
 10
213.86014568231055
 20
110.03167495723118
 11
213.86014568231055
 21
120.44667495723118
  0
LINE
  8
_0-0_
  6
CONTINUOUS
 62
    7
 10
215.36014568231055
 20
135.74427495723119
 11
262.86014568231053
 21
135.74427495723119
  0
LINE
  8
_0-0_
  6
CONTINUOUS
 62
    7
 10
215.36014568231055
 20
130.74427495723119
 11
262.86014568231053
 21
130.74427495723119
  0
LINE
  8
_0-0_
  6
CONTINUOUS
 62
    7
 10
215.36014568231055
 20
125.74427495723119
 11
262.86014568231053
 21
125.74427495723119
  0
LINE
  8
_0-0_
  6
CONTINUOUS
 62
    7
 10
227.86014568231055
 20
202.74427495723119
 11
215.36014568231055
 21
202.74427495723119
  0
LINE
  8
_0-0_
  6
CONTINUOUS
 62
    7
 10
227.86014568231055
 20
207.74427495723119
 11
215.36014568231055
 21
207.74427495723119
  0
LINE
  8
_0-0_
  6
CONTINUOUS
 62
    7
 10
227.86014568231055
 20
212.74427495723119
 11
215.36014568231055
 21
212.74427495723119
  0
LINE
  8
_0-0_
  6
CONTINUOUS
 62
    7
 10
227.86014568231055
 20
217.74427495723119
 11
215.36014568231055
 21
217.74427495723119
  0
LINE
  8
_0-0_
  6
CONTINUOUS
 62
    7
 10
227.86014568231055
 20
255.74427495723119
 11
215.36014568231055
 21
255.74427495723119
  0
LINE
  8
_0-0_
  6
CONTINUOUS
 62
    7
 10
227.86014568231055
 20
250.74427495723119
 11
215.36014568231055
 21
250.74427495723119
  0
LINE
  8
_0-0_
  6
CONTINUOUS
 62
    7
 10
227.86014568231055
 20
260.74427495723119
 11
215.36014568231055
 21
260.74427495723119
  0
LINE
  8
_0-0_
  6
CONTINUOUS
 62
    7
 10
227.86014568231055
 20
265.74427495723119
 11
215.36014568231055
 21
265.74427495723119
  0
LINE
  8
_0-0_
  6
CONTINUOUS
 62
    7
 10
227.86014568231055
 20
245.74427495723119
 11
214.36014568231055
 21
245.74427495723119
  0
LINE
  8
_0-0_
  6
CONTINUOUS
 62
    7
 10
227.86014568231055
 20
222.74427495723119
 11
214.36014568231055
 21
222.74427495723119
  0
LINE
  8
_0-0_
  6
CONTINUOUS
 62
    7
 10
272.36014568231053
 20
222.74427495723119
 11
269.86014568231053
 21
222.74427495723119
  0
LINE
  8
_0-0_
  6
CONTINUOUS
 62
    7
 10
272.36014568231053
 20
217.74427495723119
 11
269.86014568231053
 21
217.74427495723119
  0
LINE
  8
_0-0_
  6
CONTINUOUS
 62
    7
 10
272.36014568231053
 20
212.74427495723119
 11
269.86014568231053
 21
212.74427495723119
  0
LINE
  8
_0-0_
  6
CONTINUOUS
 62
    7
 10
272.36014568231053
 20
207.74427495723119
 11
269.86014568231053
 21
207.74427495723119
  0
LINE
  8
_0-0_
  6
CONTINUOUS
 62
    7
 10
213.86014568231055
 20
225.74427495723119
 11
213.86014568231055
 21
242.74427495723119
  0
LINE
  8
_0-0_
  6
CONTINUOUS
 62
    7
 10
269.36014568231053
 20
225.74427495723119
 11
269.36014568231053
 21
242.74427495723119
  0
LINE
  8
_0-0_
  6
CONTINUOUS
 62
    7
 10
214.86014568231055
 20
243.74427495723119
 11
227.86014568231055
 21
243.74427495723119
  0
LINE
  8
_0-0_
  6
CONTINUOUS
 62
    7
 10
214.86014568231055
 20
224.74427495723119
 11
227.86014568231055
 21
224.74427495723119
  0
LINE
  8
_0-0_
  6
CONTINUOUS
 62
    7
 10
270.36014568231053
 20
224.74427495723119
 11
272.36014568231053
 21
224.74427495723119
  0
LINE
  8
_0-0_
  6
CONTINUOUS
 62
    7
 10
227.86014568231055
 20
243.74427495723119
 11
262.86014568231053
 21
243.74427495723119
  0
LINE
  8
_0-0_
  6
CONTINUOUS
 62
    7
 10
262.86014568231053
 20
243.74427495723119
 11
262.86014568231053
 21
245.74427495723119
  0
LINE
  8
_0-0_
  6
CONTINUOUS
 62
    7
 10
227.86014568231055
 20
248.74427495723119
 11
262.86014568231053
 21
248.74427495723119
  0
LINE
  8
_0-0_
  6
CONTINUOUS
 62
    7
 10
227.86014568231055
 20
248.74427495723119
 11
214.36014568231055
 21
248.74427495723119
  0
LINE
  8
_0-0_
  6
CONTINUOUS
 62
    7
 10
213.86014568231055
 20
248.24427495723119
 11
213.86014568231055
 21
246.24427495723119
  0
LINE
  8
_0-0_
  6
CONTINUOUS
 62
    7
 10
262.86014568231053
 20
248.74427495723119
 11
262.86014568231053
 21
250.74427495723119
  0
LINE
  8
_0-0_
  6
CONTINUOUS
 62
    7
 10
227.86014568231055
 20
271.74427495723119
 11
227.86014568231055
 21
234.24427495723119
  0
LINE
  8
_0-0_
  6
CONTINUOUS
 62
    7
 10
213.86014568231055
 20
272.99427495723119
 11
213.86014568231055
 21
234.77377495723118
  0
LINE
  8
_0-0_
  6
CONTINUOUS
 62
    7
 10
227.86014568231055
 20
253.74427495723119
 11
215.36014568231055
 21
253.74427495723119
  0
LINE
  8
_0-0_
  6
CONTINUOUS
 62
    7
 10
227.86014568231055
 20
253.74427495723119
 11
262.86014568231053
 21
253.74427495723119
  0
LINE
  8
_0-0_
  6
CONTINUOUS
 62
    7
 10
214.86014568231055
 20
253.24427495723119
 11
214.86014568231055
 21
251.24427495723119
  0
LINE
  8
_0-0_
  6
CONTINUOUS
 62
    7
 10
262.86014568231053
 20
255.74427495723119
 11
262.86014568231053
 21
253.74427495723119
  0
LINE
  8
_0-0_
  6
CONTINUOUS
 62
    7
 10
227.86014568231055
 20
258.74427495723119
 11
262.86014568231053
 21
258.74427495723119
  0
LINE
  8
_0-0_
  6
CONTINUOUS
 62
    7
 10
227.86014568231055
 20
258.74427495723119
 11
215.36014568231055
 21
258.74427495723119
  0
LINE
  8
_0-0_
  6
CONTINUOUS
 62
    7
 10
214.86014568231055
 20
258.24427495723119
 11
214.86014568231055
 21
256.24427495723119
  0
LINE
  8
_0-0_
  6
CONTINUOUS
 62
    7
 10
262.86014568231053
 20
258.74427495723119
 11
262.86014568231053
 21
260.74427495723119
  0
LINE
  8
_0-0_
  6
CONTINUOUS
 62
    7
 10
227.86014568231055
 20
263.74427495723119
 11
262.86014568231053
 21
263.74427495723119
  0
LINE
  8
_0-0_
  6
CONTINUOUS
 62
    7
 10
227.86014568231055
 20
263.74427495723119
 11
215.36014568231055
 21
263.74427495723119
  0
LINE
  8
_0-0_
  6
CONTINUOUS
 62
    7
 10
214.86014568231055
 20
263.24427495723119
 11
214.86014568231055
 21
261.24427495723119
  0
LINE
  8
_0-0_
  6
CONTINUOUS
 62
    7
 10
262.86014568231053
 20
263.74427495723119
 11
262.86014568231053
 21
265.74427495723119
  0
LINE
  8
_0-0_
  6
CONTINUOUS
 62
    7
 10
227.86014568231055
 20
224.74427495723119
 11
262.86014568231053
 21
224.74427495723119
  0
LINE
  8
_0-0_
  6
CONTINUOUS
 62
    7
 10
262.86014568231053
 20
222.74427495723119
 11
262.86014568231053
 21
224.74427495723119
  0
LINE
  8
_0-0_
  6
CONTINUOUS
 62
    7
 10
227.86014568231055
 20
199.74427495723119
 11
215.36014568231055
 21
199.74427495723119
  0
LINE
  8
_0-0_
  6
CONTINUOUS
 62
    7
 10
227.86014568231055
 20
204.74427495723119
 11
215.36014568231055
 21
204.74427495723119
  0
LINE
  8
_0-0_
  6
CONTINUOUS
 62
    7
 10
227.86014568231055
 20
209.74427495723119
 11
215.36014568231055
 21
209.74427495723119
  0
LINE
  8
_0-0_
  6
CONTINUOUS
 62
    7
 10
227.86014568231055
 20
214.74427495723119
 11
215.36014568231055
 21
214.74427495723119
  0
LINE
  8
_0-0_
  6
CONTINUOUS
 62
    7
 10
227.86014568231055
 20
219.74427495723119
 11
214.36014568231055
 21
219.74427495723119
  0
LINE
  8
_0-0_
  6
CONTINUOUS
 62
    7
 10
213.86014568231055
 20
222.24427495723119
 11
213.86014568231055
 21
220.24427495723119
  0
LINE
  8
_0-0_
  6
CONTINUOUS
 62
    7
 10
214.86014568231055
 20
217.24427495723119
 11
214.86014568231055
 21
215.24427495723119
  0
LINE
  8
_0-0_
  6
CONTINUOUS
 62
    7
 10
214.86014568231055
 20
212.24427495723119
 11
214.86014568231055
 21
210.24427495723119
  0
LINE
  8
_0-0_
  6
CONTINUOUS
 62
    7
 10
227.86014568231055
 20
219.74427495723119
 11
262.86014568231053
 21
219.74427495723119
  0
LINE
  8
_0-0_
  6
CONTINUOUS
 62
    7
 10
262.86014568231053
 20
219.74427495723119
 11
262.86014568231053
 21
217.74427495723119
  0
LINE
  8
_0-0_
  6
CONTINUOUS
 62
    7
 10
227.86014568231055
 20
214.74427495723119
 11
262.86014568231053
 21
214.74427495723119
  0
LINE
  8
_0-0_
  6
CONTINUOUS
 62
    7
 10
262.86014568231053
 20
214.74427495723119
 11
262.86014568231053
 21
212.74427495723119
  0
LINE
  8
_0-0_
  6
CONTINUOUS
 62
    7
 10
227.86014568231055
 20
209.74427495723119
 11
262.86014568231053
 21
209.74427495723119
  0
LINE
  8
_0-0_
  6
CONTINUOUS
 62
    7
 10
262.86014568231053
 20
209.74427495723119
 11
262.86014568231053
 21
207.74427495723119
  0
LINE
  8
_0-0_
  6
CONTINUOUS
 62
    7
 10
227.86014568231055
 20
204.74427495723119
 11
262.86014568231053
 21
204.74427495723119
  0
LINE
  8
_0-0_
  6
CONTINUOUS
 62
    7
 10
262.86014568231053
 20
204.74427495723119
 11
262.86014568231053
 21
202.74427495723119
  0
LINE
  8
_0-0_
  6
CONTINUOUS
 62
    7
 10
227.86014568231055
 20
199.74427495723119
 11
262.86014568231053
 21
199.74427495723119
  0
LINE
  8
_0-0_
  6
CONTINUOUS
 62
    7
 10
227.86014568231055
 20
268.74427495723119
 11
262.86014568231053
 21
268.74427495723119
  0
LINE
  8
_0-0_
  6
CONTINUOUS
 62
    7
 10
227.86014568231055
 20
268.74427495723119
 11
215.36014568231055
 21
268.74427495723119
  0
LINE
  8
_0-0_
  6
CONTINUOUS
 62
    7
 10
214.86014568231055
 20
268.24427495723119
 11
214.86014568231055
 21
266.24427495723119
  0
LINE
  8
_0-0_
  6
CONTINUOUS
 62
    7
 10
272.36014568231053
 20
224.74427495723119
 11
305.36014568231053
 21
224.74427495723119
  0
LINE
  8
_0-0_
  6
CONTINUOUS
 62
    7
 10
305.36014568231053
 20
222.74427495723119
 11
305.36014568231053
 21
224.74427495723119
  0
LINE
  8
_0-0_
  6
CONTINUOUS
 62
    7
 10
272.36014568231053
 20
219.74427495723119
 11
305.36014568231053
 21
219.74427495723119
  0
LINE
  8
_0-0_
  6
CONTINUOUS
 62
    7
 10
272.36014568231053
 20
204.74427495723119
 11
305.36014568231053
 21
204.74427495723119
  0
LINE
  8
_0-0_
  6
CONTINUOUS
 62
    7
 10
272.36014568231053
 20
209.74427495723119
 11
305.36014568231053
 21
209.74427495723119
  0
LINE
  8
_0-0_
  6
CONTINUOUS
 62
    7
 10
272.36014568231053
 20
214.74427495723119
 11
305.36014568231053
 21
214.74427495723119
  0
LINE
  8
_0-0_
  6
CONTINUOUS
 62
    7
 10
272.36014568231053
 20
219.74427495723119
 11
269.86014568231053
 21
219.74427495723119
  0
LINE
  8
_0-0_
  6
CONTINUOUS
 62
    7
 10
272.36014568231053
 20
214.74427495723119
 11
269.86014568231053
 21
214.74427495723119
  0
LINE
  8
_0-0_
  6
CONTINUOUS
 62
    7
 10
272.36014568231053
 20
209.74427495723119
 11
269.86014568231053
 21
209.74427495723119
  0
LINE
  8
_0-0_
  6
CONTINUOUS
 62
    7
 10
272.36014568231053
 20
204.74427495723119
 11
269.86014568231053
 21
204.74427495723119
  0
LINE
  8
_0-0_
  6
CONTINUOUS
 62
    7
 10
305.36014568231053
 20
219.74427495723119
 11
305.36014568231053
 21
217.74427495723119
  0
LINE
  8
_0-0_
  6
CONTINUOUS
 62
    7
 10
305.36014568231053
 20
214.74427495723119
 11
305.36014568231053
 21
212.74427495723119
  0
LINE
  8
_0-0_
  6
CONTINUOUS
 62
    7
 10
305.36014568231053
 20
209.74427495723119
 11
305.36014568231053
 21
207.74427495723119
  0
LINE
  8
_0-0_
  6
CONTINUOUS
 62
    7
 10
305.36014568231053
 20
204.74427495723119
 11
305.36014568231053
 21
202.74427495723119
  0
LINE
  8
_0-0_
  6
CONTINUOUS
 62
    7
 10
269.36014568231053
 20
207.24427495723119
 11
269.36014568231053
 21
205.24427495723119
  0
LINE
  8
_0-0_
  6
CONTINUOUS
 62
    7
 10
269.36014568231053
 20
212.24427495723119
 11
269.36014568231053
 21
210.24427495723119
  0
LINE
  8
_0-0_
  6
CONTINUOUS
 62
    7
 10
269.36014568231053
 20
217.24427495723119
 11
269.36014568231053
 21
215.24427495723119
  0
LINE
  8
_0-0_
  6
CONTINUOUS
 62
    7
 10
269.36014568231053
 20
222.24427495723119
 11
269.36014568231053
 21
220.24427495723119
  0
LINE
  8
_0-0_
  6
CONTINUOUS
 62
    7
 10
272.36014568231053
 20
245.74427495723119
 11
305.36014568231053
 21
245.74427495723119
  0
LINE
  8
_0-0_
  6
CONTINUOUS
 62
    7
 10
272.36014568231053
 20
265.74427495723119
 11
305.36014568231053
 21
265.74427495723119
  0
LINE
  8
_0-0_
  6
CONTINUOUS
 62
    7
 10
272.36014568231053
 20
260.74427495723119
 11
305.36014568231053
 21
260.74427495723119
  0
LINE
  8
_0-0_
  6
CONTINUOUS
 62
    7
 10
272.36014568231053
 20
250.74427495723119
 11
305.36014568231053
 21
250.74427495723119
  0
LINE
  8
_0-0_
  6
CONTINUOUS
 62
    7
 10
272.36014568231053
 20
260.74427495723119
 11
269.86014568231053
 21
260.74427495723119
  0
LINE
  8
_0-0_
  6
CONTINUOUS
 62
    7
 10
272.36014568231053
 20
245.74427495723119
 11
269.86014568231053
 21
245.74427495723119
  0
LINE
  8
_0-0_
  6
CONTINUOUS
 62
    7
 10
272.36014568231053
 20
250.74427495723119
 11
269.86014568231053
 21
250.74427495723119
  0
LINE
  8
_0-0_
  6
CONTINUOUS
 62
    7
 10
270.36014568231053
 20
243.74427495723119
 11
272.36014568231053
 21
243.74427495723119
  0
LINE
  8
_0-0_
  6
CONTINUOUS
 62
    7
 10
272.36014568231053
 20
265.74427495723119
 11
269.86014568231053
 21
265.74427495723119
  0
LINE
  8
_0-0_
  6
CONTINUOUS
 62
    7
 10
272.36014568231053
 20
243.74427495723119
 11
305.36014568231053
 21
243.74427495723119
  0
LINE
  8
_0-0_
  6
CONTINUOUS
 62
    7
 10
305.36014568231053
 20
245.74427495723119
 11
305.36014568231053
 21
243.74427495723119
  0
LINE
  8
_0-0_
  6
CONTINUOUS
 62
    7
 10
272.36014568231053
 20
248.74427495723119
 11
305.36014568231053
 21
248.74427495723119
  0
LINE
  8
_0-0_
  6
CONTINUOUS
 62
    7
 10
272.36014568231053
 20
248.74427495723119
 11
269.86014568231053
 21
248.74427495723119
  0
LINE
  8
_0-0_
  6
CONTINUOUS
 62
    7
 10
272.36014568231053
 20
253.74427495723119
 11
305.36014568231053
 21
253.74427495723119
  0
LINE
  8
_0-0_
  6
CONTINUOUS
 62
    7
 10
272.36014568231053
 20
253.74427495723119
 11
269.86014568231053
 21
253.74427495723119
  0
LINE
  8
_0-0_
  6
CONTINUOUS
 62
    7
 10
272.36014568231053
 20
263.74427495723119
 11
305.36014568231053
 21
263.74427495723119
  0
LINE
  8
_0-0_
  6
CONTINUOUS
 62
    7
 10
272.36014568231053
 20
258.74427495723119
 11
305.36014568231053
 21
258.74427495723119
  0
LINE
  8
_0-0_
  6
CONTINUOUS
 62
    7
 10
272.36014568231053
 20
263.74427495723119
 11
269.86014568231053
 21
263.74427495723119
  0
LINE
  8
_0-0_
  6
CONTINUOUS
 62
    7
 10
272.36014568231053
 20
258.74427495723119
 11
269.86014568231053
 21
258.74427495723119
  0
LINE
  8
_0-0_
  6
CONTINUOUS
 62
    7
 10
269.36014568231053
 20
263.24427495723119
 11
269.36014568231053
 21
261.24427495723119
  0
LINE
  8
_0-0_
  6
CONTINUOUS
 62
    7
 10
269.36014568231053
 20
258.24427495723119
 11
269.36014568231053
 21
256.24427495723119
  0
LINE
  8
_0-0_
  6
CONTINUOUS
 62
    7
 10
269.36014568231053
 20
253.24427495723119
 11
269.36014568231053
 21
251.24427495723119
  0
LINE
  8
_0-0_
  6
CONTINUOUS
 62
    7
 10
269.36014568231053
 20
248.24427495723119
 11
269.36014568231053
 21
246.24427495723119
  0
LINE
  8
_0-0_
  6
CONTINUOUS
 62
    7
 10
305.36014568231053
 20
248.74427495723119
 11
305.36014568231053
 21
250.74427495723119
  0
LINE
  8
_0-0_
  6
CONTINUOUS
 62
    7
 10
305.36014568231053
 20
253.74427495723119
 11
305.36014568231053
 21
255.74427495723119
  0
LINE
  8
_0-0_
  6
CONTINUOUS
 62
    7
 10
305.36014568231053
 20
258.74427495723119
 11
305.36014568231053
 21
260.74427495723119
  0
LINE
  8
_0-0_
  6
CONTINUOUS
 62
    7
 10
305.36014568231053
 20
263.74427495723119
 11
305.36014568231053
 21
265.74427495723119
  0
LINE
  8
_0-0_
  6
CONTINUOUS
 62
    7
 10
214.86014568231055
 20
202.24427495723119
 11
214.86014568231055
 21
200.24427495723119
  0
LINE
  8
_0-0_
  6
CONTINUOUS
 62
    7
 10
214.86014568231055
 20
207.24427495723119
 11
214.86014568231055
 21
205.24427495723119
  0
LINE
  8
_0-0_
  6
CONTINUOUS
 62
    7
 10
272.36014568231053
 20
123.74427495723119
 11
272.36014568231053
 21
125.74427495723119
  0
LINE
  8
_0-0_
  6
CONTINUOUS
 62
    7
 10
272.36014568231053
 20
123.74427495723119
 11
272.36014568231053
 21
120.74427495723119
  0
LINE
  8
_0-0_
  6
CONTINUOUS
 62
    7
 10
214.86014568231055
 20
142.24427495723119
 11
214.86014568231055
 21
141.24427495723119
  0
LINE
  8
_0-0_
  6
CONTINUOUS
 62
    7
 10
215.36014568231055
 20
138.74427495723119
 11
262.86014568231053
 21
138.74427495723119
  0
LINE
  8
_0-0_
  6
CONTINUOUS
 62
    7
 10
215.36014568231055
 20
133.74427495723119
 11
262.86014568231053
 21
133.74427495723119
  0
LINE
  8
_0-0_
  6
CONTINUOUS
 62
    7
 10
215.36014568231055
 20
128.74427495723119
 11
262.86014568231053
 21
128.74427495723119
  0
LINE
  8
_0-0_
  6
CONTINUOUS
 62
    7
 10
213.86014568231055
 20
123.24427495723119
 11
213.86014568231055
 21
121.24427495723119
  0
LINE
  8
_0-0_
  6
CONTINUOUS
 62
    7
 10
214.36014568231055
 20
123.74427495723119
 11
262.86014568231053
 21
123.74427495723119
  0
LINE
  8
_0-0_
  6
CONTINUOUS
 62
    7
 10
214.86014568231055
 20
128.24427495723119
 11
214.86014568231055
 21
126.24427495723119
  0
LINE
  8
_0-0_
  6
CONTINUOUS
 62
    7
 10
214.86014568231055
 20
133.24427495723119
 11
214.86014568231055
 21
131.24427495723119
  0
LINE
  8
_0-0_
  6
CONTINUOUS
 62
    7
 10
214.86014568231055
 20
138.24427495723119
 11
214.86014568231055
 21
136.24427495723119
  0
LINE
  8
_0-0_
  6
CONTINUOUS
 62
    7
 10
215.36014568231055
 20
140.74427495723119
 11
262.86014568231053
 21
140.74427495723119
  0
LINE
  8
_0-0_
  6
CONTINUOUS
 62
    7
 10
269.36014568231053
 20
128.24427495723119
 11
269.36014568231053
 21
126.24427495723119
  0
LINE
  8
_0-0_
  6
CONTINUOUS
 62
    7
 10
269.36014568231053
 20
133.24427495723119
 11
269.36014568231053
 21
131.24427495723119
  0
LINE
  8
_0-0_
  6
CONTINUOUS
 62
    7
 10
269.36014568231053
 20
138.24427495723119
 11
269.36014568231053
 21
136.24427495723119
  0
LINE
  8
_0-0_
  6
CONTINUOUS
 62
    7
 10
269.86074568231055
 20
140.78277495723119
 11
305.36014568231053
 21
140.2323749572312
  0
LINE
  8
_0-0_
  6
CONTINUOUS
 62
    7
 10
269.86014568231053
 20
138.74427495723119
 11
305.36014568231053
 21
138.74427495723119
  0
LINE
  8
_0-0_
  6
CONTINUOUS
 62
    7
 10
269.86014568231053
 20
135.74427495723119
 11
305.35974568231057
 21
135.74427495723119
  0
LINE
  8
_0-0_
  6
CONTINUOUS
 62
    7
 10
269.86014568231053
 20
133.74427495723119
 11
305.35974568231057
 21
133.74427495723119
  0
LINE
  8
_0-0_
  6
CONTINUOUS
 62
    7
 10
269.86014568231053
 20
130.74427495723119
 11
305.35974568231057
 21
130.74427495723119
  0
LINE
  8
_0-0_
  6
CONTINUOUS
 62
    7
 10
269.86014568231053
 20
128.74427495723119
 11
305.36014568231053
 21
128.74427495723119
  0
LINE
  8
_0-0_
  6
CONTINUOUS
 62
    7
 10
269.86014568231053
 20
125.74427495723119
 11
305.35974568231057
 21
125.74427495723119
  0
LINE
  8
_0-0_
  6
CONTINUOUS
 62
    7
 10
269.36014568231053
 20
123.24427495723119
 11
269.36014568231053
 21
121.24427495723119
  0
LINE
  8
_0-0_
  6
CONTINUOUS
 62
    7
 10
269.86014568231053
 20
123.74427495723119
 11
305.36014568231053
 21
123.74427495723119
  0
LINE
  8
_0-0_
  6
CONTINUOUS
 62
    7
 10
269.86014568231053
 20
120.74427495723119
 11
305.36014568231053
 21
120.74427495723119
  0
LINE
  8
_0-0_
  6
CONTINUOUS
 62
    7
 10
272.36014568231053
 20
128.74427495723119
 11
272.36014568231053
 21
130.74427495723119
  0
LINE
  8
_0-0_
  6
CONTINUOUS
 62
    7
 10
272.36014568231053
 20
128.74427495723119
 11
272.36014568231053
 21
125.74427495723119
  0
LINE
  8
_0-0_
  6
CONTINUOUS
 62
    7
 10
272.36014568231053
 20
133.74427495723119
 11
272.36014568231053
 21
135.74427495723119
  0
LINE
  8
_0-0_
  6
CONTINUOUS
 62
    7
 10
272.36014568231053
 20
133.74427495723119
 11
272.36014568231053
 21
130.74427495723119
  0
LINE
  8
_0-0_
  6
CONTINUOUS
 62
    7
 10
272.36014568231053
 20
138.74427495723119
 11
272.36014568231053
 21
140.74427495723119
  0
LINE
  8
_0-0_
  6
CONTINUOUS
 62
    7
 10
272.36014568231053
 20
138.74427495723119
 11
272.36014568231053
 21
135.74427495723119
  0
LINE
  8
_0-0_
  6
CONTINUOUS
 62
    7
 10
269.36014568231053
 20
142.28427495723119
 11
269.36014568231053
 21
141.28427495723119
  0
LINE
  8
_0-0_
  6
CONTINUOUS
 62
    7
 10
227.86014568231055
 20
138.74427495723119
 11
227.86014568231055
 21
140.74427495723119
  0
LINE
  8
_0-0_
  6
CONTINUOUS
 62
    7
 10
227.86014568231055
 20
135.74427495723119
 11
227.86014568231055
 21
138.74427495723119
  0
LINE
  8
_0-0_
  6
CONTINUOUS
 62
    7
 10
227.86014568231055
 20
133.74427495723119
 11
227.86014568231055
 21
135.74427495723119
  0
LINE
  8
_0-0_
  6
CONTINUOUS
 62
    7
 10
227.86014568231055
 20
130.74427495723119
 11
227.86014568231055
 21
133.74427495723119
  0
LINE
  8
_0-0_
  6
CONTINUOUS
 62
    7
 10
227.86014568231055
 20
128.74427495723119
 11
227.86014568231055
 21
130.74427495723119
  0
LINE
  8
_0-0_
  6
CONTINUOUS
 62
    7
 10
227.86014568231055
 20
125.74427495723119
 11
227.86014568231055
 21
128.74427495723119
  0
LINE
  8
_0-0_
  6
CONTINUOUS
 62
    7
 10
227.86014568231055
 20
123.74427495723119
 11
227.86014568231055
 21
125.74427495723119
  0
LINE
  8
_0-0_
  6
CONTINUOUS
 62
    7
 10
227.86014568231055
 20
120.74427495723119
 11
227.86014568231055
 21
123.74427495723119
  0
LINE
  8
_0-0_
  6
CONTINUOUS
 62
    7
 10
214.36014568231055
 20
97.744274957231198
 11
262.86014568231053
 21
97.744274957231198
  0
LINE
  8
_0-0_
  6
CONTINUOUS
 62
    7
 10
272.36014568231053
 20
75.744274957231198
 11
272.36014568231053
 21
79.744274957231198
  0
LINE
  8
_0-0_
  6
CONTINUOUS
 62
    7
 10
227.86014568231055
 20
77.744274957231198
 11
227.86014568231055
 21
75.744274957231198
  0
LINE
  8
_0-0_
  6
CONTINUOUS
 62
    7
 10
227.86014568231055
 20
97.744274957231198
 11
227.86014568231055
 21
99.744274957231198
  0
LINE
  8
_0-0_
  6
CONTINUOUS
 62
    7
 10
214.86014568231055
 20
99.744274957231198
 11
262.86014568231053
 21
99.744274957231198
  0
LINE
  8
_0-0_
  6
CONTINUOUS
 62
    7
 10
270.36014568231053
 20
99.744274957231198
 11
305.36014568231053
 21
99.744274957231198
  0
LINE
  8
_0-0_
  6
CONTINUOUS
 62
    7
 10
272.36014568231053
 20
97.744274957231198
 11
272.36014568231053
 21
99.744274957231198
  0
LINE
  8
_0-0_
  6
CONTINUOUS
 62
    7
 10
215.36014568231055
 20
82.744274957231198
 11
262.86014568231053
 21
82.744274957231198
  0
LINE
  8
_0-0_
  6
CONTINUOUS
 62
    7
 10
215.36014568231055
 20
87.744274957231198
 11
262.86014568231053
 21
87.744274957231198
  0
LINE
  8
_0-0_
  6
CONTINUOUS
 62
    7
 10
215.36014568231055
 20
92.744274957231198
 11
262.86014568231053
 21
92.744274957231198
  0
LINE
  8
_0-0_
  6
CONTINUOUS
 62
    7
 10
272.36014568231053
 20
94.744274957231198
 11
272.36014568231053
 21
92.744274957231198
  0
LINE
  8
_0-0_
  6
CONTINUOUS
 62
    7
 10
272.36014568231053
 20
94.744274957231198
 11
272.36014568231053
 21
97.744274957231198
  0
LINE
  8
_0-0_
  6
CONTINUOUS
 62
    7
 10
214.86014568231055
 20
76.244274957231198
 11
214.86014568231055
 21
77.244274957231198
  0
LINE
  8
_0-0_
  6
CONTINUOUS
 62
    7
 10
215.36014568231055
 20
79.744274957231198
 11
262.86014568231053
 21
79.744274957231198
  0
LINE
  8
_0-0_
  6
CONTINUOUS
 62
    7
 10
215.36014568231055
 20
84.744274957231198
 11
262.86014568231053
 21
84.744274957231198
  0
LINE
  8
_0-0_
  6
CONTINUOUS
 62
    7
 10
215.36014568231055
 20
89.744274957231198
 11
262.86014568231053
 21
89.744274957231198
  0
LINE
  8
_0-0_
  6
CONTINUOUS
 62
    7
 10
213.86014568231055
 20
95.244274957231198
 11
213.86014568231055
 21
97.244274957231198
  0
LINE
  8
_0-0_
  6
CONTINUOUS
 62
    7
 10
214.36014568231055
 20
94.744274957231198
 11
262.86014568231053
 21
94.744274957231198
  0
LINE
  8
_0-0_
  6
CONTINUOUS
 62
    7
 10
214.86014568231055
 20
90.244274957231198
 11
214.86014568231055
 21
92.244274957231198
  0
LINE
  8
_0-0_
  6
CONTINUOUS
 62
    7
 10
214.86014568231055
 20
85.244274957231198
 11
214.86014568231055
 21
87.244274957231198
  0
LINE
  8
_0-0_
  6
CONTINUOUS
 62
    7
 10
214.86014568231055
 20
80.244274957231198
 11
214.86014568231055
 21
82.244274957231198
  0
LINE
  8
_0-0_
  6
CONTINUOUS
 62
    7
 10
215.36014568231055
 20
77.744274957231198
 11
262.86014568231053
 21
77.744274957231198
  0
LINE
  8
_0-0_
  6
CONTINUOUS
 62
    7
 10
269.36014568231053
 20
90.244274957231198
 11
269.36014568231053
 21
92.244274957231198
  0
LINE
  8
_0-0_
  6
CONTINUOUS
 62
    7
 10
269.36014568231053
 20
85.244274957231198
 11
269.36014568231053
 21
87.244274957231198
  0
LINE
  8
_0-0_
  6
CONTINUOUS
 62
    7
 10
269.36014568231053
 20
80.244274957231198
 11
269.36014568231053
 21
82.244274957231198
  0
LINE
  8
_0-0_
  6
CONTINUOUS
 62
    7
 10
269.86014568231053
 20
79.744274957231198
 11
305.36014568231053
 21
79.744274957231198
  0
LINE
  8
_0-0_
  6
CONTINUOUS
 62
    7
 10
269.86014568231053
 20
82.744274957231198
 11
305.35974568231057
 21
82.744274957231198
  0
LINE
  8
_0-0_
  6
CONTINUOUS
 62
    7
 10
269.86014568231053
 20
84.744274957231198
 11
305.35974568231057
 21
84.744274957231198
  0
LINE
  8
_0-0_
  6
CONTINUOUS
 62
    7
 10
269.86014568231053
 20
87.744274957231198
 11
305.35974568231057
 21
87.744274957231198
  0
LINE
  8
_0-0_
  6
CONTINUOUS
 62
    7
 10
269.86014568231053
 20
89.744274957231198
 11
305.36014568231053
 21
89.744274957231198
  0
LINE
  8
_0-0_
  6
CONTINUOUS
 62
    7
 10
269.86014568231053
 20
92.744274957231198
 11
305.35974568231057
 21
92.744274957231198
  0
LINE
  8
_0-0_
  6
CONTINUOUS
 62
    7
 10
269.36014568231053
 20
95.244274957231198
 11
269.36014568231053
 21
97.244274957231198
  0
LINE
  8
_0-0_
  6
CONTINUOUS
 62
    7
 10
269.86014568231053
 20
94.744274957231198
 11
305.36014568231053
 21
94.744274957231198
  0
LINE
  8
_0-0_
  6
CONTINUOUS
 62
    7
 10
269.86014568231053
 20
97.744274957231198
 11
305.36014568231053
 21
97.744274957231198
  0
LINE
  8
_0-0_
  6
CONTINUOUS
 62
    7
 10
272.36014568231053
 20
89.744274957231198
 11
272.36014568231053
 21
87.744274957231198
  0
LINE
  8
_0-0_
  6
CONTINUOUS
 62
    7
 10
272.36014568231053
 20
89.744274957231198
 11
272.36014568231053
 21
92.744274957231198
  0
LINE
  8
_0-0_
  6
CONTINUOUS
 62
    7
 10
272.36014568231053
 20
84.744274957231198
 11
272.36014568231053
 21
82.744274957231198
  0
LINE
  8
_0-0_
  6
CONTINUOUS
 62
    7
 10
272.36014568231053
 20
84.744274957231198
 11
272.36014568231053
 21
87.744274957231198
  0
LINE
  8
_0-0_
  6
CONTINUOUS
 62
    7
 10
272.36014568231053
 20
79.744274957231198
 11
272.36014568231053
 21
77.744274957231198
  0
LINE
  8
_0-0_
  6
CONTINUOUS
 62
    7
 10
272.36014568231053
 20
79.744274957231198
 11
272.36014568231053
 21
82.744274957231198
  0
LINE
  8
_0-0_
  6
CONTINUOUS
 62
    7
 10
227.86014568231055
 20
79.744274957231198
 11
227.86014568231055
 21
77.744274957231198
  0
LINE
  8
_0-0_
  6
CONTINUOUS
 62
    7
 10
227.86014568231055
 20
82.744274957231198
 11
227.86014568231055
 21
79.744274957231198
  0
LINE
  8
_0-0_
  6
CONTINUOUS
 62
    7
 10
227.86014568231055
 20
84.744274957231198
 11
227.86014568231055
 21
82.744274957231198
  0
LINE
  8
_0-0_
  6
CONTINUOUS
 62
    7
 10
227.86014568231055
 20
87.744274957231198
 11
227.86014568231055
 21
84.744274957231198
  0
LINE
  8
_0-0_
  6
CONTINUOUS
 62
    7
 10
227.86014568231055
 20
89.744274957231198
 11
227.86014568231055
 21
87.744274957231198
  0
LINE
  8
_0-0_
  6
CONTINUOUS
 62
    7
 10
227.86014568231055
 20
92.744274957231198
 11
227.86014568231055
 21
89.744274957231198
  0
LINE
  8
_0-0_
  6
CONTINUOUS
 62
    7
 10
227.86014568231055
 20
94.744274957231198
 11
227.86014568231055
 21
92.744274957231198
  0
LINE
  8
_0-0_
  6
CONTINUOUS
 62
    7
 10
227.86014568231055
 20
97.744274957231198
 11
227.86014568231055
 21
94.744274957231198
  0
LINE
  8
_0-0_
  6
CONTINUOUS
 62
    7
 10
213.86014568231055
 20
117.74427495723119
 11
213.86014568231055
 21
100.74427495723119
  0
LINE
  8
_0-0_
  6
CONTINUOUS
 62
    7
 10
269.36014568231053
 20
117.74427495723119
 11
269.36014568231053
 21
100.74427495723119
  0
LINE
  8
_0-0_
  6
CONTINUOUS
 62
    7
 10
227.86014568231055
 20
118.74427495723119
 11
227.86014568231055
 21
99.744274957231198
  0
LINE
  8
_0-0_
  6
CONTINUOUS
 62
    7
 10
272.36014568231053
 20
99.744274957231198
 11
272.36014568231053
 21
118.74427495723119
  0
LINE
  8
_0-0_
  6
CONTINUOUS
 62
    7
 10
269.36014568231053
 20
77.204274957231177
 11
269.36014568231053
 21
76.204274957231177
  0
LINE
  8
_0-0_
  6
CONTINUOUS
 62
    7
 10
269.86074568231055
 20
77.705774957231199
 11
305.36014568231053
 21
78.256174957231195
  0
LINE
  8
_0-0_
  6
CONTINUOUS
 62
    7
 10
262.86014568231053
 20
75.596974957231196
 11
262.86014568231053
 21
142.89157495723119
  0
LINE
  8
_0-0_
  6
CONTINUOUS
 62
    7
 10
262.86014568231053
 20
199.74427495723119
 11
262.86014568231053
 21
198.66017495723119
  0
LINE
  8
_0-0_
  6
CONTINUOUS
 62
    7
 10
262.86014568231053
 20
268.74427495723119
 11
262.86014568231053
 21
269.86007495723117
  0
ARC
  8
_0-0_
  6
CONTINUOUS
 62
    7
 10
213.36014568231055
 20
109.24427495723119
 40
34
 50
92.268
 51
267.73200000000008
  0
ARC
  8
_0-0_
  6
CONTINUOUS
 62
    7
 10
212.11014568231055
 20
76.518174957231195
 40
1.2508999999999999
 50
265.62500000000011
 51
90.000000000000099
  0
ARC
  8
_0-0_
  6
CONTINUOUS
 62
    7
 10
213.36014568231055
 20
109.24427495723119
 40
31.5
 50
92.274000000000029
 51
267.72600000000005
  0
ARC
  8
_0-0_
  6
CONTINUOUS
 62
    7
 10
212.11014568231055
 20
141.9703749572312
 40
1.2508999999999999
 50
270.00000000000005
 51
94.375000000000085
  0
ARC
  8
_0-0_
  6
CONTINUOUS
 62
    7
 10
270.36014568231053
 20
201.74427495723119
 40
1
 50
90.000000000000028
 51
166.64900000000002
  0
ARC
  8
_0-0_
  6
CONTINUOUS
 62
    7
 10
214.86014568231055
 20
117.74427495723119
 40
1
 50
90.000000000000028
 51
180.00000000000005
  0
ARC
  8
_0-0_
  6
CONTINUOUS
 62
    7
 10
270.36014568231053
 20
117.74427495723119
 40
1
 50
90.000000000000028
 51
180.00000000000005
  0
ARC
  8
_0-0_
  6
CONTINUOUS
 62
    7
 10
215.36014568231055
 20
136.24427495723119
 40
0.5
 50
180.00000000000005
 51
270.00000000000005
  0
ARC
  8
_0-0_
  6
CONTINUOUS
 62
    7
 10
215.36014568231055
 20
131.24427495723119
 40
0.5
 50
180.00000000000005
 51
270.00000000000005
  0
ARC
  8
_0-0_
  6
CONTINUOUS
 62
    7
 10
215.36014568231055
 20
126.24427495723119
 40
0.5
 50
180.00000000000005
 51
270.00000000000005
  0
ARC
  8
_0-0_
  6
CONTINUOUS
 62
    7
 10
215.36014568231055
 20
202.24427495723119
 40
0.5
 50
90.000000000000028
 51
180.00000000000005
  0
ARC
  8
_0-0_
  6
CONTINUOUS
 62
    7
 10
215.36014568231055
 20
207.24427495723119
 40
0.5
 50
90.000000000000028
 51
180.00000000000005
  0
ARC
  8
_0-0_
  6
CONTINUOUS
 62
    7
 10
215.36014568231055
 20
212.24427495723119
 40
0.5
 50
90.000000000000028
 51
180.00000000000005
  0
ARC
  8
_0-0_
  6
CONTINUOUS
 62
    7
 10
215.36014568231055
 20
217.24427495723119
 40
0.5
 50
90.000000000000028
 51
180.00000000000005
  0
ARC
  8
_0-0_
  6
CONTINUOUS
 62
    7
 10
214.36014568231055
 20
222.24427495723119
 40
0.5
 50
90.000000000000028
 51
180.00000000000005
  0
ARC
  8
_0-0_
  6
CONTINUOUS
 62
    7
 10
214.36014568231055
 20
246.24427495723119
 40
0.5
 50
180.00000000000005
 51
270.00000000000005
  0
ARC
  8
_0-0_
  6
CONTINUOUS
 62
    7
 10
215.36014568231055
 20
256.24427495723119
 40
0.5
 50
180.00000000000005
 51
270.00000000000005
  0
ARC
  8
_0-0_
  6
CONTINUOUS
 62
    7
 10
215.36014568231055
 20
251.24427495723119
 40
0.5
 50
180.00000000000005
 51
270.00000000000005
  0
ARC
  8
_0-0_
  6
CONTINUOUS
 62
    7
 10
215.36014568231055
 20
261.24427495723119
 40
0.5
 50
180.00000000000005
 51
270.00000000000005
  0
ARC
  8
_0-0_
  6
CONTINUOUS
 62
    7
 10
215.36014568231055
 20
266.24427495723119
 40
0.5
 50
180.00000000000005
 51
270.00000000000005
  0
ARC
  8
_0-0_
  6
CONTINUOUS
 62
    7
 10
269.86014568231053
 20
217.24427495723119
 40
0.5
 50
90.000000000000028
 51
180.00000000000005
  0
ARC
  8
_0-0_
  6
CONTINUOUS
 62
    7
 10
269.86014568231053
 20
222.24427495723119
 40
0.5
 50
90.000000000000028
 51
180.00000000000005
  0
ARC
  8
_0-0_
  6
CONTINUOUS
 62
    7
 10
269.86014568231053
 20
207.24427495723119
 40
0.5
 50
90.000000000000028
 51
180.00000000000005
  0
ARC
  8
_0-0_
  6
CONTINUOUS
 62
    7
 10
269.86014568231053
 20
212.24427495723119
 40
0.5
 50
90.000000000000028
 51
180.00000000000005
  0
ARC
  8
_0-0_
  6
CONTINUOUS
 62
    7
 10
214.86014568231055
 20
242.74427495723119
 40
1
 50
90.000000000000028
 51
180.00000000000005
  0
ARC
  8
_0-0_
  6
CONTINUOUS
 62
    7
 10
214.86014568231055
 20
225.74427495723119
 40
1
 50
180.00000000000005
 51
270.00000000000005
  0
ARC
  8
_0-0_
  6
CONTINUOUS
 62
    7
 10
270.36014568231053
 20
225.74427495723119
 40
1
 50
180.00000000000005
 51
270.00000000000005
  0
ARC
  8
_0-0_
  6
CONTINUOUS
 62
    7
 10
214.36014568231055
 20
248.24427495723119
 40
0.5
 50
90.000000000000028
 51
180.00000000000005
  0
ARC
  8
_0-0_
  6
CONTINUOUS
 62
    7
 10
215.36014568231055
 20
253.24427495723119
 40
0.5
 50
90.000000000000028
 51
180.00000000000005
  0
ARC
  8
_0-0_
  6
CONTINUOUS
 62
    7
 10
215.36014568231055
 20
258.24427495723119
 40
0.5
 50
90.000000000000028
 51
180.00000000000005
  0
ARC
  8
_0-0_
  6
CONTINUOUS
 62
    7
 10
215.36014568231055
 20
263.24427495723119
 40
0.5
 50
90.000000000000028
 51
180.00000000000005
  0
ARC
  8
_0-0_
  6
CONTINUOUS
 62
    7
 10
215.36014568231055
 20
200.24427495723119
 40
0.5
 50
180.00000000000005
 51
270.00000000000005
  0
ARC
  8
_0-0_
  6
CONTINUOUS
 62
    7
 10
215.36014568231055
 20
210.24427495723119
 40
0.5
 50
180.00000000000005
 51
270.00000000000005
  0
ARC
  8
_0-0_
  6
CONTINUOUS
 62
    7
 10
215.36014568231055
 20
215.24427495723119
 40
0.5
 50
180.00000000000005
 51
270.00000000000005
  0
ARC
  8
_0-0_
  6
CONTINUOUS
 62
    7
 10
214.36014568231055
 20
220.24427495723119
 40
0.5
 50
180.00000000000005
 51
270.00000000000005
  0
ARC
  8
_0-0_
  6
CONTINUOUS
 62
    7
 10
215.36014568231055
 20
268.24427495723119
 40
0.5
 50
90.000000000000028
 51
180.00000000000005
  0
ARC
  8
_0-0_
  6
CONTINUOUS
 62
    7
 10
269.86014568231053
 20
215.24427495723119
 40
0.5
 50
180.00000000000005
 51
270.00000000000005
  0
ARC
  8
_0-0_
  6
CONTINUOUS
 62
    7
 10
269.86014568231053
 20
220.24427495723119
 40
0.5
 50
180.00000000000005
 51
270.00000000000005
  0
ARC
  8
_0-0_
  6
CONTINUOUS
 62
    7
 10
269.86014568231053
 20
210.24427495723119
 40
0.5
 50
180.00000000000005
 51
270.00000000000005
  0
ARC
  8
_0-0_
  6
CONTINUOUS
 62
    7
 10
269.86014568231053
 20
205.24427495723119
 40
0.5
 50
180.00000000000005
 51
270.00000000000005
  0
ARC
  8
_0-0_
  6
CONTINUOUS
 62
    7
 10
269.86014568231053
 20
261.24427495723119
 40
0.5
 50
180.00000000000005
 51
270.00000000000005
  0
ARC
  8
_0-0_
  6
CONTINUOUS
 62
    7
 10
269.86014568231053
 20
256.24427495723119
 40
0.5
 50
180.00000000000005
 51
270.00000000000005
  0
ARC
  8
_0-0_
  6
CONTINUOUS
 62
    7
 10
269.86014568231053
 20
251.24427495723119
 40
0.5
 50
180.00000000000005
 51
270.00000000000005
  0
ARC
  8
_0-0_
  6
CONTINUOUS
 62
    7
 10
269.86014568231053
 20
246.24427495723119
 40
0.5
 50
180.00000000000005
 51
270.00000000000005
  0
ARC
  8
_0-0_
  6
CONTINUOUS
 62
    7
 10
270.36014568231053
 20
242.74427495723119
 40
1
 50
90.000000000000028
 51
180.00000000000005
  0
ARC
  8
_0-0_
  6
CONTINUOUS
 62
    7
 10
269.86014568231053
 20
266.24427495723119
 40
0.5
 50
180.00000000000005
 51
270.00000000000005
  0
ARC
  8
_0-0_
  6
CONTINUOUS
 62
    7
 10
269.86014568231053
 20
248.24427495723119
 40
0.5
 50
90.000000000000028
 51
180.00000000000005
  0
ARC
  8
_0-0_
  6
CONTINUOUS
 62
    7
 10
269.86014568231053
 20
253.24427495723119
 40
0.5
 50
90.000000000000028
 51
180.00000000000005
  0
ARC
  8
_0-0_
  6
CONTINUOUS
 62
    7
 10
269.86014568231053
 20
263.24427495723119
 40
0.5
 50
90.000000000000028
 51
180.00000000000005
  0
ARC
  8
_0-0_
  6
CONTINUOUS
 62
    7
 10
269.86014568231053
 20
258.24427495723119
 40
0.5
 50
90.000000000000028
 51
180.00000000000005
  0
ARC
  8
_0-0_
  6
CONTINUOUS
 62
    7
 10
215.36014568231055
 20
205.24427495723119
 40
0.5
 50
180.00000000000005
 51
270.00000000000005
  0
ARC
  8
_0-0_
  6
CONTINUOUS
 62
    7
 10
215.36014568231055
 20
142.24427495723119
 40
0.5
 50
90.000000000000028
 51
180.00000000000005
  0
ARC
  8
_0-0_
  6
CONTINUOUS
 62
    7
 10
214.36014568231055
 20
121.24427495723119
 40
0.5
 50
180.00000000000005
 51
270.00000000000005
  0
ARC
  8
_0-0_
  6
CONTINUOUS
 62
    7
 10
214.36014568231055
 20
123.24427495723119
 40
0.5
 50
90.000000000000028
 51
180.00000000000005
  0
ARC
  8
_0-0_
  6
CONTINUOUS
 62
    7
 10
215.36014568231055
 20
128.24427495723119
 40
0.5
 50
90.000000000000028
 51
180.00000000000005
  0
ARC
  8
_0-0_
  6
CONTINUOUS
 62
    7
 10
215.36014568231055
 20
133.24427495723119
 40
0.5
 50
90.000000000000028
 51
180.00000000000005
  0
ARC
  8
_0-0_
  6
CONTINUOUS
 62
    7
 10
215.36014568231055
 20
138.24427495723119
 40
0.5
 50
90.000000000000028
 51
180.00000000000005
  0
ARC
  8
_0-0_
  6
CONTINUOUS
 62
    7
 10
215.36014568231055
 20
141.24427495723119
 40
0.5
 50
180.00000000000005
 51
270.00000000000005
  0
ARC
  8
_0-0_
  6
CONTINUOUS
 62
    7
 10
269.86014568231053
 20
138.24427495723119
 40
0.5
 50
90.000000000000028
 51
180.00000000000005
  0
ARC
  8
_0-0_
  6
CONTINUOUS
 62
    7
 10
269.86014568231053
 20
136.24427495723119
 40
0.5
 50
180.00000000000005
 51
270.00000000000005
  0
ARC
  8
_0-0_
  6
CONTINUOUS
 62
    7
 10
269.86014568231053
 20
133.24427495723119
 40
0.5
 50
90.000000000000028
 51
180.00000000000005
  0
ARC
  8
_0-0_
  6
CONTINUOUS
 62
    7
 10
269.86014568231053
 20
131.24427495723119
 40
0.5
 50
180.00000000000005
 51
270.00000000000005
  0
ARC
  8
_0-0_
  6
CONTINUOUS
 62
    7
 10
269.86014568231053
 20
128.24427495723119
 40
0.5
 50
90.000000000000028
 51
180.00000000000005
  0
ARC
  8
_0-0_
  6
CONTINUOUS
 62
    7
 10
269.86014568231053
 20
126.24427495723119
 40
0.5
 50
180.00000000000005
 51
270.00000000000005
  0
ARC
  8
_0-0_
  6
CONTINUOUS
 62
    7
 10
269.86014568231053
 20
123.24427495723119
 40
0.5
 50
90.000000000000028
 51
180.00000000000005
  0
ARC
  8
_0-0_
  6
CONTINUOUS
 62
    7
 10
269.86014568231053
 20
121.24427495723119
 40
0.5
 50
180.00000000000005
 51
270.00000000000005
  0
ARC
  8
_0-0_
  6
CONTINUOUS
 62
    7
 10
269.86014568231053
 20
141.28427495723119
 40
0.5
 50
180.00000000000005
 51
270.00000000000005
  0
ARC
  8
_0-0_
  6
CONTINUOUS
 62
    7
 10
269.86014568231053
 20
142.28427495723119
 40
0.5
 50
90.000000000000028
 51
180.00000000000005
  0
ARC
  8
_0-0_
  6
CONTINUOUS
 62
    7
 10
214.86014568231055
 20
100.74427495723119
 40
1
 50
180.00000000000005
 51
270.00000000000005
  0
ARC
  8
_0-0_
  6
CONTINUOUS
 62
    7
 10
270.36014568231053
 20
100.74427495723119
 40
1
 50
180.00000000000005
 51
270.00000000000005
  0
ARC
  8
_0-0_
  6
CONTINUOUS
 62
    7
 10
215.36014568231055
 20
82.244274957231198
 40
0.5
 50
90.000000000000028
 51
180.00000000000005
  0
ARC
  8
_0-0_
  6
CONTINUOUS
 62
    7
 10
215.36014568231055
 20
87.244274957231198
 40
0.5
 50
90.000000000000028
 51
180.00000000000005
  0
ARC
  8
_0-0_
  6
CONTINUOUS
 62
    7
 10
215.36014568231055
 20
92.244274957231198
 40
0.5
 50
90.000000000000028
 51
180.00000000000005
  0
ARC
  8
_0-0_
  6
CONTINUOUS
 62
    7
 10
215.36014568231055
 20
76.244274957231198
 40
0.5
 50
180.00000000000005
 51
270.00000000000005
  0
ARC
  8
_0-0_
  6
CONTINUOUS
 62
    7
 10
214.36014568231055
 20
97.244274957231198
 40
0.5
 50
90.000000000000028
 51
180.00000000000005
  0
ARC
  8
_0-0_
  6
CONTINUOUS
 62
    7
 10
214.36014568231055
 20
95.244274957231198
 40
0.5
 50
180.00000000000005
 51
270.00000000000005
  0
ARC
  8
_0-0_
  6
CONTINUOUS
 62
    7
 10
215.36014568231055
 20
90.244274957231198
 40
0.5
 50
180.00000000000005
 51
270.00000000000005
  0
ARC
  8
_0-0_
  6
CONTINUOUS
 62
    7
 10
215.36014568231055
 20
85.244274957231198
 40
0.5
 50
180.00000000000005
 51
270.00000000000005
  0
ARC
  8
_0-0_
  6
CONTINUOUS
 62
    7
 10
215.36014568231055
 20
80.244274957231198
 40
0.5
 50
180.00000000000005
 51
270.00000000000005
  0
ARC
  8
_0-0_
  6
CONTINUOUS
 62
    7
 10
215.36014568231055
 20
77.244274957231198
 40
0.5
 50
90.000000000000028
 51
180.00000000000005
  0
ARC
  8
_0-0_
  6
CONTINUOUS
 62
    7
 10
269.86014568231053
 20
80.244274957231198
 40
0.5
 50
180.00000000000005
 51
270.00000000000005
  0
ARC
  8
_0-0_
  6
CONTINUOUS
 62
    7
 10
269.86014568231053
 20
82.244274957231198
 40
0.5
 50
90.000000000000028
 51
180.00000000000005
  0
ARC
  8
_0-0_
  6
CONTINUOUS
 62
    7
 10
269.86014568231053
 20
85.244274957231198
 40
0.5
 50
180.00000000000005
 51
270.00000000000005
  0
ARC
  8
_0-0_
  6
CONTINUOUS
 62
    7
 10
269.86014568231053
 20
87.244274957231198
 40
0.5
 50
90.000000000000028
 51
180.00000000000005
  0
ARC
  8
_0-0_
  6
CONTINUOUS
 62
    7
 10
269.86014568231053
 20
90.244274957231198
 40
0.5
 50
180.00000000000005
 51
270.00000000000005
  0
ARC
  8
_0-0_
  6
CONTINUOUS
 62
    7
 10
269.86014568231053
 20
92.244274957231198
 40
0.5
 50
90.000000000000028
 51
180.00000000000005
  0
ARC
  8
_0-0_
  6
CONTINUOUS
 62
    7
 10
269.86014568231053
 20
95.244274957231198
 40
0.5
 50
180.00000000000005
 51
270.00000000000005
  0
ARC
  8
_0-0_
  6
CONTINUOUS
 62
    7
 10
269.86014568231053
 20
97.244274957231198
 40
0.5
 50
90.000000000000028
 51
180.00000000000005
  0
ARC
  8
_0-0_
  6
CONTINUOUS
 62
    7
 10
269.86014568231053
 20
76.204274957231177
 40
0.5
 50
180.00000000000005
 51
270.00000000000005
  0
ARC
  8
_0-0_
  6
CONTINUOUS
 62
    7
 10
269.86014568231053
 20
77.204274957231177
 40
0.5
 50
90.000000000000028
 51
180.00000000000005
  0
TEXT
  8
_0-0_
 62
    7
 10
88.619921363040631
 20
51.021274957231184
 40
4
 41
1
 50
0
  1
取っ手部詳細
  0
POINT
  8
_0-2_
 62
    3
 10
187.86014568231055
 20
272.99427495723119
  0
POINT
  8
_0-2_
 62
    3
 10
187.86014568231055
 20
195.49427495723119
  0
LINE
  8
_0-2_
  6
CONTINUOUS
 62
    4
 10
186.86014568231055
 20
272.99427495723119
 11
205.86014568231055
 21
272.99427495723119
  0
LINE
  8
_0-2_
  6
CONTINUOUS
 62
    4
 10
186.86014568231055
 20
195.49427495723119
 11
205.86014568231055
 21
195.49427495723119
  0
LINE
  8
_0-2_
  6
CONTINUOUS
 62
    4
 10
187.86014568231055
 20
272.99427495723119
 11
187.86014568231055
 21
195.49427495723119
  0
TEXT
  8
_0-2_
 62
    7
 10
187.36014568231055
 20
230.38177495723118
 40
3.5
 41
0.6285714285714286
 50
90
  1
７７.５
  0
POINT
  8
_0-2_
 62
    3
 10
207.86014568231055
 20
175.49427495723119
  0
POINT
  8
_0-2_
 62
    3
 10
367.36014568231053
 20
175.49427495723119
  0
LINE
  8
_0-2_
  6
CONTINUOUS
 62
    4
 10
207.86014568231055
 20
174.49427495723119
 11
207.86014568231055
 21
193.49427495723119
  0
LINE
  8
_0-2_
  6
CONTINUOUS
 62
    4
 10
367.36014568231053
 20
174.49427495723119
 11
367.36014568231053
 21
193.49427495723119
  0
LINE
  8
_0-2_
  6
CONTINUOUS
 62
    4
 10
207.86014568231055
 20
175.49427495723119
 11
367.36014568231053
 21
175.49427495723119
  0
TEXT
  8
_0-2_
 62
    7
 10
282.64264568231055
 20
175.99427495723119
 40
3.5
 41
0.6285714285714286
 50
0
  1
１５９.５
  0
POINT
  8
_0-2_
 62
    3
 10
387.36014568231053
 20
141.44427495723118
  0
POINT
  8
_0-2_
 62
    3
 10
387.36014568231053
 20
77.044274957231181
  0
LINE
  8
_0-2_
  6
CONTINUOUS
 62
    4
 10
388.36014568231053
 20
141.44427495723118
 11
369.36014568231053
 21
141.44427495723118
  0
LINE
  8
_0-2_
  6
CONTINUOUS
 62
    4
 10
388.36014568231053
 20
77.044274957231181
 11
369.36014568231053
 21
77.044274957231181
  0
LINE
  8
_0-2_
  6
CONTINUOUS
 62
    4
 10
387.36014568231053
 20
141.44427495723118
 11
387.36014568231053
 21
77.044274957231181
  0
TEXT
  8
_0-2_
 62
    7
 10
386.86014568231053
 20
105.38177495723118
 40
3.5
 41
0.6285714285714286
 50
90
  1
６４.４
  0
TEXT
  8
_0-1_
 62
    7
 10
325.78609342665669
 20
47.407376749672337
 40
6.1440002441406251
 41
0.7600629134633195
 50
0
  1
ＰＰ(ポリプロピレン)
  0
LINE
  8
_0-0_
  6
CENTER1
 62
    7
 10
100.23157881007423
 20
108.99427495723119
 11
55.231578810074239
 21
108.99427495723119
  0
LINE
  8
_0-0_
  6
CENTER1
 62
    7
 10
114.60257881007422
 20
108.99427495723119
 11
122.18997881007422
 21
108.99427495723119
  0
LINE
  8
_0-0_
  6
CENTER1
 62
    7
 10
171.36014568231055
 20
109.24427495723119
 11
272.21784568231055
 21
109.24427495723119
  0
LINE
  8
_0-0_
  6
CENTER1
 62
    7
 10
272.21784568231055
 20
109.24427495723119
 11
370.13994568231055
 21
109.24427495723119
  0
LINE
  8
_0-0_
  6
CENTER1
 62
    7
 10
272.21784568231055
 20
234.24427495723119
 11
370.13994568231055
 21
234.24427495723119
  0
LINE
  8
_0-0_
  6
CENTER1
 62
    7
 10
203.08444568231055
 20
234.24427495723119
 11
272.21784568231055
 21
234.24427495723119
  0
LINE
  8
_0-0_
  6
CENTER1
 62
    7
 10
98.466179072197434
 20
191.22237495723118
 11
98.466179072197434
 21
276.76407495723117
  0
LINE
  8
_0-0_
  6
CENTER1
 62
    7
 10
141.7272790721974
 20
234.24427495723119
 11
56.966179072197434
 21
234.24427495723119
  0
LINE
  8
_e-0_
  6
CONTINUOUS
 62
    7
 10
224.89496194143126
 20
22.559442898127812
 11
227.8097617615079
 21
23.620343271480194
  0
LINE
  8
_e-0_
  6
CONTINUOUS
 62
    7
 10
224.27973506505128
 20
21.803429741566972
 11
229.27166396158926
 21
23.620343271480109
  0
LINE
  8
_e-0_
  6
CONTINUOUS
 62
    7
 10
223.93704267242137
 20
21.146611024902469
 11
226.90280321503627
 21
22.226059584375477
  0
LINE
  8
_e-0_
  6
CONTINUOUS
 62
    7
 10
223.73756461823958
 20
20.541918064553001
 11
225.91223474161566
 21
21.333433258809876
  0
LINE
  8
_e-0_
  6
CONTINUOUS
 62
    7
 10
223.63661405569695
 20
19.973086178417077
 11
225.46211479408728
 21
20.637514109822134
  0
LINE
  8
_e-0_
  6
CONTINUOUS
 62
    7
 10
223.61285980327798
 20
19.432351451361
 11
225.4538499384065
 21
20.102417062125539
  0
LINE
  8
_e-0_
  6
CONTINUOUS
 62
    7
 10
223.65474388890888
 20
18.915507125582166
 11
225.49923532220543
 21
19.586847104661103
  0
LINE
  8
_e-0_
  6
CONTINUOUS
 62
    7
 10
223.75586960394016
 20
18.420224989534688
 11
225.64332579634933
 21
19.107202862053043
  0
LINE
  8
_e-0_
  6
CONTINUOUS
 62
    7
 10
223.91312442017226
 20
17.945372175600198
 11
225.8826205913096
 21
18.662210158395453
  0
LINE
  8
_e-0_
  6
CONTINUOUS
 62
    7
 10
224.12592193471445
 20
17.490735250581451
 11
226.22635996333283
 21
18.255232171919317
  0
LINE
  8
_e-0_
  6
CONTINUOUS
 62
    7
 10
224.39606980716561
 20
17.056972148766021
 11
226.70438051479627
 21
17.897128537781554
  0
LINE
  8
_e-0_
  6
CONTINUOUS
 62
    7
 10
224.72818768877962
 20
16.645764285703137
 11
227.41105280437514
 21
17.622247330331049
  0
LINE
  8
_e-0_
  6
CONTINUOUS
 62
    7
 10
225.13092583276619
 20
16.260260096079889
 11
228.97288296980465
 21
17.658618135288463
  0
LINE
  8
_e-0_
  6
CONTINUOUS
 62
    7
 10
225.61987939155056
 20
15.906135751178169
 11
228.43481714028754
 21
16.93068930303076
  0
LINE
  8
_e-0_
  6
CONTINUOUS
 62
    7
 10
228.47486213635934
 20
22.798242238249727
 11
230.73356616167063
 21
23.62034327148028
  0
LINE
  8
_e-0_
  6
CONTINUOUS
 62
    7
 10
226.57261434539557
 20
21.573791777902314
 11
231.82148190616896
 21
23.484223333629259
  0
LINE
  8
_e-0_
  6
CONTINUOUS
 62
    7
 10
227.82333079946997
 20
21.496926452454388
 11
231.82148190616896
 21
22.952134447391316
  0
LINE
  8
_e-0_
  6
CONTINUOUS
 62
    7
 10
229.28523299955151
 20
21.496926452454388
 11
231.82148190616896
 21
22.420045561153372
  0
LINE
  8
_e-0_
  6
CONTINUOUS
 62
    7
 10
229.70388354877749
 20
21.117213904693883
 11
231.82148190616896
 21
21.887956674915429
  0
LINE
  8
_e-0_
  6
CONTINUOUS
 62
    7
 10
229.70388354877749
 20
20.58512501845594
 11
231.82148190616896
 21
21.355867788677429
  0
LINE
  8
_e-0_
  6
CONTINUOUS
 62
    7
 10
229.70388354877749
 20
20.053036132217982
 11
231.82148190616896
 21
20.823778902439485
  0
LINE
  8
_e-0_
  6
CONTINUOUS
 62
    7
 10
229.70388354877749
 20
19.520947245980039
 11
231.82148190616896
 21
20.291690016201528
  0
LINE
  8
_e-0_
  6
CONTINUOUS
 62
    7
 10
229.69645367148712
 20
18.986154105564139
 11
231.82148190616896
 21
19.759601129963584
  0
LINE
  8
_e-0_
  6
CONTINUOUS
 62
    7
 10
229.5817680081563
 20
18.412323051576663
 11
231.82148190616896
 21
19.227512243725641
  0
LINE
  8
_e-0_
  6
CONTINUOUS
 62
    7
 10
229.35586854310082
 20
17.798013484121895
 11
231.82148190616896
 21
18.695423357487698
  0
LINE
  8
_e-0_
  6
CONTINUOUS
 62
    7
 10
228.95640753279892
 20
17.120532680384144
 11
231.70245557819438
 21
18.120012430772987
  0
LINE
  8
_e-0_
  6
CONTINUOUS
 62
    7
 10
228.09100360317412
 20
16.273462523145724
 11
231.42024604365911
 21
17.485207674138052
  0
LINE
  8
_e-0_
  6
CONTINUOUS
 62
    7
 10
227.21428092930469
 20
15.422272679913021
 11
230.93340672274078
 21
16.775923766215441
  0
LINE
  8
_e-0_
  6
CONTINUOUS
 62
    7
 10
228.73013306021925
 20
15.441908848876948
 11
229.78881475325437
 21
15.827237472704268
  0
LINE
  8
_e-0_
  6
CONTINUOUS
 62
    3
 10
227.16101564187161
 20
22.364090237445466
 11
226.74881626045512
 21
22.083158082147321
  0
LINE
  8
_e-0_
  6
CONTINUOUS
 62
    3
 10
228.75505313371695
 20
15.42227267991285
 11
227.20840901853964
 21
15.42227267991285
  0
ARC
  8
_e-0_
  6
CONTINUOUS
 62
    3
 10
228.75505313371695
 20
15.92227267991285
 40
0.5
 50
270
 51
286.20399351045659
  0
LINE
  8
_e-0_
  6
CONTINUOUS
 62
    3
 10
231.83925499864875
 20
23.620343271480109
 11
231.83925499864875
 21
18.584824148334121
  0
ARC
  8
_e-0_
  6
CONTINUOUS
 62
    3
 10
227.70858549218709
 20
19.523301071252035
 40
4.25
 50
286.20399351045648
 51
345.50707147989851
  0
ARC
  8
_e-0_
  6
CONTINUOUS
 62
    3
 10
231.33925499864875
 20
18.584824148334121
 40
0.5
 50
345.50707147989879
 51
0.0000000000000159
  0
ARC
  8
_e-0_
  6
CONTINUOUS
 62
    3
 10
225.52564278829467
 20
19.65703826405678
 40
4
 50
279.71265316664215
 51
332.69093929010892
  0
ARC
  8
_e-0_
  6
CONTINUOUS
 62
    3
 10
226.1161174900198
 20
16.207206438210391
 40
0.5
 50
241.9452628118
 51
279.71265316664221
  0
ARC
  8
_e-0_
  6
CONTINUOUS
 62
    3
 10
226.84280014418442
 20
23.120343271480109
 40
0.5
 50
90
 51
106.05338143786269
  0
LINE
  8
_e-0_
  6
CONTINUOUS
 62
    3
 10
229.35971880604481
 20
23.620343271480081
 11
228.33818881004171
 21
23.131545108989257
  0
LINE
  8
_e-0_
  6
CONTINUOUS
 62
    3
 10
228.33818881004171
 20
23.131545108989257
 11
227.74631474828078
 21
22.75192639675123
  0
LINE
  8
_e-0_
  6
CONTINUOUS
 62
    3
 10
227.16101564187161
 20
22.364090237445466
 11
227.74631474828078
 21
22.751926396751244
  0
ARC
  8
_e-0_
  6
CONTINUOUS
 62
    3
 10
226.84280014418442
 20
23.120343271480109
 40
0.5
 50
90
 51
106.05338143786269
  0
ARC
  8
_e-0_
  6
CONTINUOUS
 62
    3
 10
226.84280014418442
 20
23.120343271480109
 40
0.5
 50
90
 51
106.05338143786269
  0
LINE
  8
_e-0_
  6
CONTINUOUS
 62
    3
 10
229.35971880604483
 20
23.620343271480109
 11
226.84280014418442
 21
23.620343271480109
  0
ARC
  8
_e-0_
  6
CONTINUOUS
 62
    3
 10
227.87979824217902
 20
19.516576499787504
 40
4.25
 50
106.05338143786271
 51
241.94526281180051
  0
ARC
  8
_e-0_
  6
CONTINUOUS
 62
    3
 10
226.84280014418442
 20
23.120343271480109
 40
0.5
 50
90
 51
106.05338143786269
  0
LINE
  8
_e-0_
  6
CONTINUOUS
 62
    3
 10
230.43356720910816
 20
23.620343271480109
 11
231.83925499864875
 21
23.620343271480109
  0
ARC
  8
_e-0_
  6
CONTINUOUS
 62
    3
 10
230.43356720910816
 20
23.120343271480109
 40
0.5
 50
90
 51
112.84552721528329
  0
LINE
  8
_e-0_
  6
CONTINUOUS
 62
    3
 10
229.72165664125728
 20
21.496926452454218
 11
227.41810437481933
 21
21.496926452454218
  0
ARC
  8
_e-0_
  6
CONTINUOUS
 62
    3
 10
227.41810437481933
 20
20.996926452454218
 40
0.5
 50
90
 51
110.93110431809542
  0
ARC
  8
_e-0_
  6
CONTINUOUS
 62
    3
 10
225.93929554254836
 20
20.377863869984594
 40
0.05
 50
165.368776721252
 51
224.67319701305797
  0
LINE
  8
_e-0_
  6
CONTINUOUS
 62
    3
 10
225.90373912032887
 20
20.34271076430457
 11
225.88474474191534
 21
20.361923067900647
  0
ARC
  8
_e-0_
  6
CONTINUOUS
 62
    3
 10
228.13259457660137
 20
19.12890510579956
 40
2.5
 50
110.93110431809527
 51
150.17701829297226
  0
ARC
  8
_e-0_
  6
CONTINUOUS
 62
    3
 10
225.92030116413479
 20
20.397076173580671
 40
0.05
 50
224.67319701305652
 51
330.17701829297561
  0
LINE
  8
_e-0_
  6
CONTINUOUS
 62
    3
 10
230.2394432209482
 20
23.58112074187214
 11
228.8687083260981
 21
23.003634771753198
  0
LINE
  8
_e-0_
  6
CONTINUOUS
 62
    3
 10
228.8687083260981
 20
23.003634771753198
 11
228.22782175306693
 21
22.653614209573234
  0
ARC
  8
_e-0_
  6
CONTINUOUS
 62
    3
 10
228.30984611408007
 20
19.759002021256947
 40
2.5
 50
126.05682261028304
 51
165.36877672125814
  0
ARC
  8
_e-0_
  6
CONTINUOUS
 62
    3
 10
232.7192481497305
 20
13.719013551269938
 40
10
 50
116.6886898974924
 51
126.03335467187628
  0
LINE
  8
_e-0_
  6
CONTINUOUS
 62
    3
 10
226.74881626045512
 20
22.083158082147321
 11
225.95197305863649
 21
21.357663311702637
  0
LINE
  8
_e-0_
  6
CONTINUOUS
 62
    3
 10
225.95197305863649
 20
21.357663311702637
 11
225.76745851498802
 21
21.144341182042694
  0
ARC
  8
_e-0_
  6
CONTINUOUS
 62
    3
 10
227.97130721195708
 20
20.062680493268089
 40
2.5
 50
169.07329675873063
 51
296.32138326661799
  0
LINE
  8
_e-0_
  6
CONTINUOUS
 62
    3
 10
225.76745851498802
 20
21.144341182042708
 11
225.51663102113391
 21
20.536563177279575
  0
LINE
  8
_e-0_
  6
CONTINUOUS
 62
    3
 10
229.72165664125728
 20
21.496926452454218
 11
229.72165664125728
 21
19.049903303598853
  0
ARC
  8
_e-0_
  6
CONTINUOUS
 62
    3
 10
228.2447781668277
 20
17.020568401074399
 40
0.5
 50
311.4163090429962
 51
326.13300916724881
  0
ARC
  8
_e-0_
  6
CONTINUOUS
 62
    3
 10
225.7449630233759
 20
19.481073652187035
 40
4
 50
316.78132524618342
 51
353.81191653224226
  0
ARC
  8
_e-0_
  6
CONTINUOUS
 62
    3
 10
224.60638871422315
 20
21.145143796333414
 40
6
 50
294.69555798319504
 51
311.41630904299643
  0
ARC
  8
_e-0_
  6
CONTINUOUS
 62
    3
 10
227.70905044770961
 20
22.905544568558823
 40
7.5
 50
264.68313230529076
 51
266.17253517307824
  0
ARC
  8
_e-0_
  6
CONTINUOUS
 62
    3
 10
227.01870572168419
 20
15.48759848091106
 40
0.05
 50
174.02086603460466
 51
264.68313230528985
  0
ARC
  8
_e-0_
  6
CONTINUOUS
 62
    3
 10
227.21761770102369
 20
15.466765226839072
 40
0.25
 50
114.69555798319522
 51
174.02086603461154
  0
LINE
  8
_e-0_
  6
CONTINUOUS
 62
    7
 10
238.20536810548207
 20
19.550509441829262
 11
239.34255801200222
 21
19.964412718510573
  0
LINE
  8
_e-0_
  6
CONTINUOUS
 62
    3
 10
244.14222125916532
 20
18.870789910286589
 11
244.14222125916532
 21
16.256496040596744
  0
CIRCLE
  8
_e-0_
  6
CONTINUOUS
 62
    3
 10
237.06804321962647
 20
18.853770866897718
 40
1.333773795583065
  0
CIRCLE
  8
_e-0_
  6
CONTINUOUS
 62
    3
 10
237.03967147488896
 20
18.825399122160206
 40
2.5691707563897665
  0
LINE
  8
_e-0_
  6
CONTINUOUS
 62
    3
 10
240.46576508704839
 20
21.433727799882191
 11
240.46576508704839
 21
16.256496040596744
  0
LINE
  8
_e-0_
  6
CONTINUOUS
 62
    3
 10
240.46576508704839
 20
16.256496040596744
 11
242.00206198988951
 21
16.256496040596744
  0
LINE
  8
_e-0_
  6
CONTINUOUS
 62
    3
 10
242.00206198988951
 20
16.256496040596744
 11
242.00206198988951
 21
19.870789910286589
  0
LINE
  8
_e-0_
  6
CONTINUOUS
 62
    3
 10
245.63411651741569
 20
16.256496040596744
 11
244.14222125916532
 21
16.256496040596744
  0
LINE
  8
_e-0_
  6
CONTINUOUS
 62
    3
 10
243.14222125916532
 20
19.870789910286589
 11
242.00206198988951
 21
19.870789910286589
  0
ARC
  8
_e-0_
  6
CONTINUOUS
 62
    3
 10
243.14222125916532
 20
18.870789910286589
 40
1
 50
0
 51
90
  0
LINE
  8
_e-0_
  6
CONTINUOUS
 62
    3
 10
243.13411651741566
 20
21.433727799882191
 11
240.46576508704839
 21
21.433727799882191
  0
LINE
  8
_e-0_
  6
CONTINUOUS
 62
    3
 10
245.63411651741569
 20
18.933727799882205
 11
245.63411651741569
 21
16.256496040596744
  0
ARC
  8
_e-0_
  6
CONTINUOUS
 62
    3
 10
243.13411651741566
 20
18.933727799882205
 40
2.5
 50
0
 51
90
  0
ARC
  8
_e-0_
  6
CONTINUOUS
 62
    3
 10
249.14089497627497
 20
18.825131180173627
 40
1.333773795583065
 50
23.422555400004949
 51
97.191484740792631
  0
LINE
  8
_e-0_
  6
CONTINUOUS
 62
    3
 10
247.91702652762893
 20
19.355318466132871
 11
250.36476342492096
 21
19.355318466132871
  0
ARC
  8
_e-0_
  6
CONTINUOUS
 62
    3
 10
249.14089497627497
 20
18.825131180173627
 40
1.333773795583065
 50
92.530763017635251
 51
156.57744459999506
  0
ARC
  8
_e-0_
  6
CONTINUOUS
 62
    3
 10
249.14089497627497
 20
18.825131180173627
 40
1.333773795583065
 50
204.21097500392608
 51
316.0067678116265
  0
LINE
  8
_e-0_
  6
CONTINUOUS
 62
    3
 10
247.9244378181213
 20
18.278153557083953
 11
251.66837645014646
 21
18.278153557083953
  0
LINE
  8
_e-0_
  6
CONTINUOUS
 62
    3
 10
250.10044098614889
 20
17.898727384456492
 11
251.3872930355115
 21
17.586420890431725
  0
ARC
  8
_e-0_
  6
CONTINUOUS
 62
    3
 10
249.17292759130117
 20
18.88919641022602
 40
2.5691707563897665
 50
346.24110979921471
 51
329.53046432565099
  0
ARC
  8
_e-0_
  6
CONTINUOUS
 62
    3
 10
255.16772481875665
 20
18.821787263121109
 40
1.1089756641867942
 50
94.502189492040685
 51
357.22978420280037
  0
LINE
  8
_e-0_
  6
CONTINUOUS
 62
    3
 10
256.17540452963731
 20
19.927340999672765
 11
255.08067334343763
 21
19.927340999672765
  0
LINE
  8
_e-0_
  6
CONTINUOUS
 62
    3
 10
256.27540452963728
 20
19.827340999672799
 11
256.27540452963728
 21
18.768189857755942
  0
ARC
  8
_e-0_
  6
CONTINUOUS
 62
    3
 10
256.17540452963731
 20
19.827340999672799
 40
0.1
 50
0
 51
90
  0
LINE
  8
_e-0_
  6
CONTINUOUS
 62
    3
 10
255.41340348807779
 20
21.436536160503308
 11
256.25567666910433
 21
21.436536160503308
  0
ARC
  8
_e-0_
  6
CONTINUOUS
 62
    3
 10
255.21299748064302
 20
18.875193581371718
 40
2.5691707563897665
 50
85.526146014136969
 51
347.40557840019874
  0
LINE
  8
_e-0_
  6
CONTINUOUS
 62
    3
 10
256.25567666910433
 20
23.520343271480115
 11
256.25567666910433
 21
21.436536160503308
  0
ARC
  8
_e-0_
  6
CONTINUOUS
 62
    3
 10
256.35567666910435
 20
23.520343271480115
 40
0.1
 50
90
 51
180
  0
LINE
  8
_e-0_
  6
CONTINUOUS
 62
    3
 10
257.72034884015874
 20
23.520343271480115
 11
257.72034884015874
 21
18.314990461581317
  0
LINE
  8
_e-0_
  6
CONTINUOUS
 62
    3
 10
257.62034884015878
 20
23.620343271480109
 11
256.35567666910435
 21
23.620343271480109
  0
ARC
  8
_e-0_
  6
CONTINUOUS
 62
    3
 10
257.62034884015878
 20
23.520343271480115
 40
0.1
 50
0
 51
90
  0
CIRCLE
  8
_e-0_
  6
CONTINUOUS
 62
    3
 10
261.26569737248098
 20
18.869336188909812
 40
1.333773795583065
  0
CIRCLE
  8
_e-0_
  6
CONTINUOUS
 62
    3
 10
261.23732562774347
 20
18.8409644441723
 40
2.5691707563897665
  0
ARC
  8
_e-0_
  6
CONTINUOUS
 62
    3
 10
236.64693337240947
 20
20.963586378279629
 40
0.5
 50
90
 51
106.05338143786269
  0
ARC
  8
_e-0_
  6
CONTINUOUS
 62
    3
 10
236.64693337240947
 20
20.963586378279629
 40
0.5
 50
90
 51
106.05338143786269
  0
ARC
  8
_e-0_
  6
CONTINUOUS
 62
    3
 10
236.64693337240947
 20
20.963586378279629
 40
0.5
 50
90
 51
106.05338143786269
  0
ARC
  8
_e-0_
  6
CONTINUOUS
 62
    3
 10
236.64693337240947
 20
20.963586378279629
 40
0.5
 50
90
 51
106.05338143786269
  0
LINE
  8
_e-0_
  6
CONTINUOUS
 62
    7
 10
235.15107695783277
 20
20.567193922253991
 11
237.36681469386815
 21
21.373656505111242
  0
LINE
  8
_e-0_
  6
CONTINUOUS
 62
    7
 10
236.64051954528406
 20
20.577217803496708
 11
238.16842737065564
 21
21.13333077263438
  0
LINE
  8
_e-0_
  6
CONTINUOUS
 62
    7
 10
234.69148442437094
 20
19.867827033944934
 11
236.64051954528406
 21
20.577217803496708
  0
LINE
  8
_e-0_
  6
CONTINUOUS
 62
    7
 10
234.50915297888352
 20
19.269374928778802
 11
236.23993560685426
 21
19.899328287345213
  0
LINE
  8
_e-0_
  6
CONTINUOUS
 62
    7
 10
234.47250458004532
 20
18.723947116230249
 11
235.77994159004077
 21
19.199815271046588
  0
LINE
  8
_e-0_
  6
CONTINUOUS
 62
    7
 10
234.54341421300136
 20
18.217667225711011
 11
235.74894688763922
 21
18.6564452357145
  0
LINE
  8
_e-0_
  6
CONTINUOUS
 62
    7
 10
234.70841714951203
 20
17.745634496929483
 11
235.91431462987958
 21
18.184545285359831
  0
LINE
  8
_e-0_
  6
CONTINUOUS
 62
    7
 10
234.96678181193331
 20
17.307582657399109
 11
236.27286328163975
 21
17.782957435898879
  0
LINE
  8
_e-0_
  6
CONTINUOUS
 62
    7
 10
235.3299853912627
 20
16.907689063015993
 11
237.01516846109061
 21
17.521045539722649
  0
LINE
  8
_e-0_
  6
CONTINUOUS
 62
    7
 10
235.83138183506326
 20
16.558093557888355
 11
238.04171645401385
 21
17.362589566954511
  0
LINE
  8
_e-0_
  6
CONTINUOUS
 62
    7
 10
236.57854471253526
 20
16.297949719198868
 11
238.04707921602098
 21
16.832452566460574
  0
LINE
  8
_e-0_
  6
CONTINUOUS
 62
    7
 10
238.04707921602098
 20
16.832452566460574
 11
239.01752822909665
 21
17.18566712109316
  0
LINE
  8
_e-0_
  6
CONTINUOUS
 62
    7
 10
237.95638429650605
 20
17.331531201595964
 11
239.422670963243
 21
17.865215903189607
  0
LINE
  8
_e-0_
  6
CONTINUOUS
 62
    7
 10
237.96520696200769
 20
17.866831275463368
 11
239.58204726371789
 21
18.455313018847846
  0
LINE
  8
_e-0_
  6
CONTINUOUS
 62
    7
 10
238.36549199813288
 20
18.544612000073072
 11
239.60323069972162
 21
18.995112045250664
  0
LINE
  8
_e-0_
  6
CONTINUOUS
 62
    7
 10
238.38202050656738
 20
19.082716771397997
 11
239.5195752188172
 21
19.496752826506167
  0
LINE
  8
_e-0_
  6
CONTINUOUS
 62
    7
 10
237.03033909961567
 20
20.18701163177036
 11
238.69277895946873
 21
20.792090257014578
  0
LINE
  8
_e-0_
  6
CONTINUOUS
 62
    7
 10
237.83235325975482
 20
19.946832027283107
 11
239.07144750163257
 21
20.397825448777211
  0
LINE
  8
_e-0_
  6
CONTINUOUS
 62
    7
 10
240.46576508704839
 20
20.905315546982492
 11
241.91756582005348
 21
21.433727799882191
  0
LINE
  8
_e-0_
  6
CONTINUOUS
 62
    7
 10
240.46576508704839
 20
20.373226660744535
 11
243.35307334324386
 21
21.424120923150738
  0
LINE
  8
_e-0_
  6
CONTINUOUS
 62
    7
 10
240.46576508704839
 20
19.841137774506591
 11
244.19379989432931
 21
21.198031476665178
  0
LINE
  8
_e-0_
  6
CONTINUOUS
 62
    7
 10
240.46576508704839
 20
19.309048888268648
 11
244.72746923533318
 21
20.860182345493072
  0
LINE
  8
_e-0_
  6
CONTINUOUS
 62
    7
 10
240.46576508704839
 20
18.776960002030705
 11
242.00206198988951
 21
19.336126345660204
  0
LINE
  8
_e-0_
  6
CONTINUOUS
 62
    7
 10
243.38726974238502
 20
19.840300735843356
 11
245.10880977654846
 21
20.466890065376389
  0
LINE
  8
_e-0_
  6
CONTINUOUS
 62
    7
 10
240.46576508704839
 20
18.244871115792761
 11
242.00206198988951
 21
18.804037459422261
  0
LINE
  8
_e-0_
  6
CONTINUOUS
 62
    7
 10
240.8503582668672
 20
16.256496040596744
 11
242.00206198988951
 21
16.67568191447043
  0
LINE
  8
_e-0_
  6
CONTINUOUS
 62
    7
 10
240.46576508704839
 20
16.648604457078874
 11
242.00206198988951
 21
17.207770800708431
  0
LINE
  8
_e-0_
  6
CONTINUOUS
 62
    7
 10
240.46576508704839
 20
17.180693343316875
 11
242.00206198988951
 21
17.739859686946374
  0
LINE
  8
_e-0_
  6
CONTINUOUS
 62
    7
 10
240.46576508704839
 20
17.712782229554818
 11
242.00206198988951
 21
18.271948573184317
  0
LINE
  8
_e-0_
  6
CONTINUOUS
 62
    7
 10
244.14222125916532
 20
18.518813957551628
 11
245.63411651741569
 21
19.061819424197608
  0
LINE
  8
_e-0_
  6
CONTINUOUS
 62
    7
 10
244.14222125916532
 20
17.986725071313685
 11
245.63411651741569
 21
18.529730537959665
  0
LINE
  8
_e-0_
  6
CONTINUOUS
 62
    7
 10
244.12687367106173
 20
19.045316778552091
 11
245.5532407082851
 21
19.564471923239864
  0
LINE
  8
_e-0_
  6
CONTINUOUS
 62
    7
 10
244.14222125916532
 20
17.454636185075742
 11
245.63411651741569
 21
17.997641651721721
  0
LINE
  8
_e-0_
  6
CONTINUOUS
 62
    7
 10
244.14222125916532
 20
16.922547298837798
 11
245.63411651741569
 21
17.465552765483778
  0
LINE
  8
_e-0_
  6
CONTINUOUS
 62
    7
 10
244.14222125916532
 20
16.390458412599798
 11
245.63411651741569
 21
16.933463879245834
  0
LINE
  8
_e-0_
  6
CONTINUOUS
 62
    7
 10
245.23606486711193
 20
16.256496040596744
 11
245.63411651741569
 21
16.401374993007834
  0
LINE
  8
_e-0_
  6
CONTINUOUS
 62
    7
 10
243.91825915508417
 20
19.501476190538369
 11
245.37933753883709
 21
20.033265232154178
  0
LINE
  8
_e-0_
  6
CONTINUOUS
 62
    7
 10
247.43520734015601
 20
20.781540645361005
 11
249.28772310577977
 21
21.455801242556859
  0
LINE
  8
_e-0_
  6
CONTINUOUS
 62
    7
 10
246.87953280390087
 20
20.047202767986505
 11
250.18541778536052
 21
21.250446499145468
  0
LINE
  8
_e-0_
  6
CONTINUOUS
 62
    7
 10
246.6626588231818
 20
19.436178208179967
 11
250.74431190940526
 21
20.921778438166072
  0
LINE
  8
_e-0_
  6
CONTINUOUS
 62
    7
 10
246.66629311322896
 20
18.905412095341887
 11
247.91531563172287
 21
19.360019114001886
  0
LINE
  8
_e-0_
  6
CONTINUOUS
 62
    7
 10
249.73145207762803
 20
20.021038721677314
 11
251.14522571029147
 21
20.535610241957229
  0
LINE
  8
_e-0_
  6
CONTINUOUS
 62
    7
 10
250.18564170047511
 20
19.654261338868309
 11
251.43421810211515
 21
20.108705984272489
  0
LINE
  8
_e-0_
  6
CONTINUOUS
 62
    7
 10
246.83730318489176
 20
18.435565784948948
 11
249.36430290792753
 21
19.355318466132871
  0
LINE
  8
_e-0_
  6
CONTINUOUS
 62
    7
 10
246.8052568604852
 20
17.891812990509379
 11
251.62777430207887
 21
19.647065793478986
  0
LINE
  8
_e-0_
  6
CONTINUOUS
 62
    7
 10
247.04639808766586
 20
17.447492333219599
 11
248.20920322083208
 21
17.870718789944021
  0
LINE
  8
_e-0_
  6
CONTINUOUS
 62
    7
 10
249.32862104344985
 20
18.278153557083953
 11
251.72865321822382
 21
19.151693829982832
  0
LINE
  8
_e-0_
  6
CONTINUOUS
 62
    7
 10
250.79052324353142
 20
18.278153557083953
 11
251.72788512579222
 21
18.619325380962607
  0
LINE
  8
_e-0_
  6
CONTINUOUS
 62
    7
 10
247.38918632342313
 20
17.040168161453891
 11
248.77187032427667
 21
17.543423981160685
  0
LINE
  8
_e-0_
  6
CONTINUOUS
 62
    7
 10
247.86145472216554
 20
16.679970914942771
 11
250.76610506004709
 21
17.737177178882859
  0
LINE
  8
_e-0_
  6
CONTINUOUS
 62
    7
 10
248.54706387050532
 20
16.397423351041084
 11
251.25404786536131
 21
17.38268494980366
  0
LINE
  8
_e-0_
  6
CONTINUOUS
 62
    7
 10
255.7786858237398
 20
16.369074056294607
 11
256.39055764798956
 21
16.591777187507659
  0
LINE
  8
_e-0_
  6
CONTINUOUS
 62
    7
 10
254.45649567467091
 20
16.419925084231465
 11
257.37072765373284
 21
17.480618780356678
  0
LINE
  8
_e-0_
  6
CONTINUOUS
 62
    7
 10
253.81613692356995
 20
16.718942445816821
 11
257.66906626150819
 21
18.121294039557255
  0
LINE
  8
_e-0_
  6
CONTINUOUS
 62
    7
 10
252.72455535000011
 20
19.514172562191674
 11
257.72034884015874
 21
21.332492689150214
  0
LINE
  8
_e-0_
  6
CONTINUOUS
 62
    7
 10
252.97533721247867
 20
20.137538581665637
 11
257.72034884015874
 21
21.864581575388157
  0
LINE
  8
_e-0_
  6
CONTINUOUS
 62
    7
 10
256.25567666910433
 20
23.459840047118134
 11
256.69665565378858
 21
23.620343271480109
  0
LINE
  8
_e-0_
  6
CONTINUOUS
 62
    7
 10
256.25567666910433
 20
22.927751160880191
 11
257.72034884015874
 21
23.460848234102016
  0
LINE
  8
_e-0_
  6
CONTINUOUS
 62
    7
 10
256.25567666910433
 20
22.395662274642219
 11
257.72034884015874
 21
22.928759347864072
  0
LINE
  8
_e-0_
  6
CONTINUOUS
 62
    7
 10
256.25567666910433
 20
21.863573388404248
 11
257.72034884015874
 21
22.396670461626129
  0
LINE
  8
_e-0_
  6
CONTINUOUS
 62
    7
 10
253.65237211254827
 20
20.916048019088307
 11
255.09666992592457
 21
21.44172943257304
  0
LINE
  8
_e-0_
  6
CONTINUOUS
 62
    7
 10
255.3216285024925
 20
19.927340999672765
 11
257.72034884015874
 21
20.800403802912271
  0
LINE
  8
_e-0_
  6
CONTINUOUS
 62
    7
 10
252.64500914358598
 20
18.953131224570142
 11
254.35388975869346
 21
19.575112902383807
  0
LINE
  8
_e-0_
  6
CONTINUOUS
 62
    7
 10
252.68190999188595
 20
18.434473148732593
 11
254.06483582777616
 21
18.937816989194288
  0
LINE
  8
_e-0_
  6
CONTINUOUS
 62
    7
 10
252.81577006061786
 20
17.951105343069855
 11
254.13041409438028
 21
18.429596640015006
  0
LINE
  8
_e-0_
  6
CONTINUOUS
 62
    7
 10
253.04200327240306
 20
17.50135861192416
 11
254.41991775213659
 21
18.002878467911557
  0
LINE
  8
_e-0_
  6
CONTINUOUS
 62
    7
 10
253.3675420378006
 20
17.087756146390688
 11
255.09198262184347
 21
17.715401189742919
  0
LINE
  8
_e-0_
  6
CONTINUOUS
 62
    7
 10
255.93691796730888
 20
18.022932505371727
 11
257.72034884015874
 21
18.672048257960454
  0
LINE
  8
_e-0_
  6
CONTINUOUS
 62
    7
 10
256.26696269369011
 20
18.675147847988966
 11
257.72034884015874
 21
19.204137144198398
  0
LINE
  8
_e-0_
  6
CONTINUOUS
 62
    7
 10
256.27540452963728
 20
19.210309311234254
 11
257.72034884015874
 21
19.736226030436341
  0
LINE
  8
_e-0_
  6
CONTINUOUS
 62
    7
 10
256.27540452963728
 20
19.742398197472198
 11
257.72034884015874
 21
20.268314916674285
  0
LINE
  8
_e-0_
  6
CONTINUOUS
 62
    7
 10
260.03104519640862
 20
21.109339610776615
 11
260.70330659779682
 21
21.354022750527988
  0
LINE
  8
_e-0_
  6
CONTINUOUS
 62
    7
 10
259.07573351886549
 20
20.229545709466037
 11
262.00063841866568
 21
21.294124031052618
  0
LINE
  8
_e-0_
  6
CONTINUOUS
 62
    7
 10
261.36818066425871
 20
16.275128257876133
 11
262.78637256320337
 21
16.791307895569389
  0
LINE
  8
_e-0_
  6
CONTINUOUS
 62
    7
 10
260.34081652935424
 20
16.433287179256183
 11
263.47171655478211
 21
17.572841594975216
  0
LINE
  8
_e-0_
  6
CONTINUOUS
 62
    7
 10
258.77967812713791
 20
19.58970147294525
 11
262.63871395371887
 21
20.994275646787528
  0
LINE
  8
_e-0_
  6
CONTINUOUS
 62
    7
 10
259.74605077257666
 20
16.748899033666305
 11
263.72446216823408
 21
18.196922361351028
  0
LINE
  8
_e-0_
  6
CONTINUOUS
 62
    7
 10
259.32332387365102
 20
17.127127911471632
 11
260.74098010855021
 21
17.643112583396884
  0
LINE
  8
_e-0_
  6
CONTINUOUS
 62
    7
 10
259.0173118527179
 20
17.547837530762308
 11
260.25546226568081
 21
17.998487426625217
  0
LINE
  8
_e-0_
  6
CONTINUOUS
 62
    7
 10
258.8083519128919
 20
18.003871218749566
 11
260.0033207151597
 21
18.438804293651742
  0
LINE
  8
_e-0_
  6
CONTINUOUS
 62
    7
 10
258.69175640144169
 20
18.493522809370574
 11
259.93411161540279
 21
18.945703127637841
  0
LINE
  8
_e-0_
  6
CONTINUOUS
 62
    7
 10
258.67435016112364
 20
19.019276342242278
 11
260.11490282603074
 21
19.543594633161319
  0
LINE
  8
_e-0_
  6
CONTINUOUS
 62
    7
 10
261.71385216626941
 20
20.125564599107747
 11
263.08606206305881
 21
20.625008156704566
  0
LINE
  8
_e-0_
  6
CONTINUOUS
 62
    7
 10
262.23666352022297
 20
19.783763483845291
 11
263.41067596606643
 21
20.211069068790379
  0
LINE
  8
_e-0_
  6
CONTINUOUS
 62
    7
 10
262.50947456379174
 20
19.350969697045456
 11
263.63610059794183
 21
19.761028038625454
  0
LINE
  8
_e-0_
  6
CONTINUOUS
 62
    7
 10
262.59935315659629
 20
18.851593943286104
 11
263.7691608014415
 21
19.277369105826778
  0
LINE
  8
_e-0_
  6
CONTINUOUS
 62
    7
 10
262.4558554570525
 20
18.26727616572856
 11
263.80516892383406
 21
18.758386104331577
  0
TEXT
  8
_e-0_
 62
    7
 10
264.80223717202437
 20
20.663724475216767
 40
3.5
 41
0.5714285714285713
 50
0
  1
ワンド
  0
TEXT
  8
_e-0_
 62
    7
 10
265.48681991601301
 20
17.309269029672179
 40
3
 41
0.6666666666666666
 50
0
  1
株式
  0
TEXT
  8
_e-0_
 62
    7
 10
265.41836164161418
 20
14.502479779318605
 40
3
 41
0.6666666666666666
 50
0
  1
会社
  0
TEXT
  8
_f-1_
 62
    7
 10
170.48497854077254
 20
15.933476394849776
 40
4.5
 41
0.6666666666666666
 50
0
  1
ゴミカゴ（小）
  0
TEXT
  8
_f-1_
 62
    7
 10
304.93890205959127
 20
16.857477417767256
 40
3.5
 41
0.5714285714285713
 50
0
  1
２０２３．０５．０１
  0
TEXT
  8
_f-1_
 62
    7
 10
357.72095497071984
 20
16.857477417767256
 40
3.5
 41
0.5714285714285713
 50
0
  1
Ｔ．Ｋ
  0
ENDSEC
  0
EOF
