  0
SECTION
  2
HEADER
  9
$ACADVER
  1
AC1009
  9
$INSBASE
 10
0
 20
0
 30
0
  9
$EXTMIN
 10
0
 20
0
  9
$EXTMAX
 10
3360
 20
2376
  9
$LIMMIN
 10
0
 20
0
  9
$LIMMAX
 10
3360
 20
2376
  9
$LTSCALE
 40
8
  0
ENDSEC
  0
SECTION
  2
TABLES
  0
TABLE
  2
LTYPE
 70
     9
  0
LTYPE
  2
CONTINUOUS
 70
    64
  3
実線
 72
    65
 73
     0
 40
0.0
  0
LTYPE
  2
DASHED1
 70
    64
  3
--  --  --  --  --  --  --  --  
 72
    65
 73
     2
 40
2.5
 49
1.25
 49
-1.25
  0
LTYPE
  2
DASHED2
 70
    64
  3
----    ----    ----    ----    
 72
    65
 73
     2
 40
5.0
 49
2.5
 49
-2.5
  0
LTYPE
  2
DASHED3
 70
    64
  3
------  ------  ------  ------  
 72
    65
 73
     2
 40
5.0
 49
3.75
 49
-1.25
  0
LTYPE
  2
CENTER1
 70
    64
  3
----- - ----- - ----- - ----- - 
 72
    65
 73
     4
 40
10.0
 49
6.25
 49
-1.25
 49
1.25
 49
-1.25
  0
LTYPE
  2
CENTER2
 70
    64
  3
----------  --  ----------  --  
 72
    65
 73
     4
 40
20.0
 49
12.5
 49
-2.5
 49
2.5
 49
-2.5
  0
LTYPE
  2
PHANTOM1
 70
    64
  3
--- - - --- - - --- - - --- - - 
 72
    65
 73
     6
 40
10.0
 49
3.25
 49
-1.25
 49
1.25
 49
-1.25
 49
1.25
 49
-1.25
  0
LTYPE
  2
PHANTOM2
 70
    64
  3
--------  -  -  --------  -  -  
 72
    65
 73
     6
 40
20.0
 49
10.0
 49
-2.5
 49
1.25
 49
-2.5
 49
1.25
 49
-2.5
  0
LTYPE
  2
DOT
 70
    64
  3
-   -   -   -   -   -   -   -   
 72
    65
 73
     2
 40
2.5
 49
0.625
 49
-1.875
  0
LTYPE
  2
DUMMY
 70
    64
  3
ダミー
 72
    65
 73
     0
 40
0.0
  0
LTYPE
  2
RAND1
 70
    64
  3
ランダム線1
 72
    65
 73
     4
 40
10.0
 49
1.0
 49
-2.0
 49
3.0
 49
-4.0
  0
LTYPE
  2
RAND2
 70
    64
  3
ランダム線2
 72
    65
 73
     4
 40
14.0
 49
2.0
 49
-3.0
 49
4.0
 49
-5.0
  0
LTYPE
  2
RAND3
 70
    64
  3
ランダム線3
 72
    65
 73
     4
 40
18.0
 49
3.0
 49
-4.0
 49
5.0
 49
-6.0
  0
LTYPE
  2
RAND4
 70
    64
  3
ランダム線4
 72
    65
 73
     4
 40
22.0
 49
4.0
 49
-5.0
 49
6.0
 49
-7.0
  0
LTYPE
  2
RAND5
 70
    64
  3
ランダム線5
 72
    65
 73
     4
 40
26.0
 49
5.0
 49
-6.0
 49
7.0
 49
-8.0
  0
LTYPE
  2
LONG1
 70
    64
  3
----------  --  ----------  --  
 72
    65
 73
     4
 40
40.0
 49
32.5
 49
-2.5
 49
2.5
 49
-2.5
  0
LTYPE
  2
LONG2
 70
    64
  3
--------  -  -  --------  -  -  
 72
    65
 73
     6
 40
40.0
 49
30.0
 49
-2.5
 49
1.25
 49
-2.5
 49
1.25
 49
-2.5
  0
LTYPE
  2
LONG3
 70
    64
  3
+++++++++++++++..+++++++++++++++
 72
    65
 73
     2
 40
40.0
 49
37.5
 49
-2.5
  0
LTYPE
  2
LONG4
 70
    64
  3
+++++++++++++++..+++++++++++++++
 72
    65
 73
     2
 40
80.0
 49
75.0
 49
-5.0
  0
LTYPE
  2
LONG5
 70
    64
  3
----------  --  ----------  --  
 72
    65
 73
     4
 40
60.0
 49
37.5
 49
-7.5
 49
7.5
 49
-7.5
  0
LTYPE
  2
dashed
 70
   64
  3
-------   -------------   ------
 72
   65
 73
    2
 40
7.5
 49
6
 49
-1.5
  0
LTYPE
  2
dashed_spaced
 70
   64
  3
----        --------        ----
 72
   65
 73
    2
 40
12
 49
6
 49
-6
  0
LTYPE
  2
long_dashed_dotted
 70
   64
  3
------------- --- --------------
 72
   65
 73
    4
 40
15.25
 49
12
 49
-1.5
 49
0.25
 49
-1.5
  0
LTYPE
  2
long_dashed_double-dotted
 70
   64
  3
----------- --- --- ------------
 72
   65
 73
    6
 40
17
 49
12
 49
-1.5
 49
0.25
 49
-1.5
 49
0.25
 49
-1.5
  0
LTYPE
  2
long_dashed_triplicate-dotted
 70
   64
  3
--------- --- --- --- ----------
 72
   65
 73
    8
 40
18.75
 49
12
 49
-1.5
 49
0.25
 49
-1.5
 49
0.25
 49
-1.5
 49
0.25
 49
-1.5
  0
LTYPE
  2
dotted
 70
   64
  3
   -       -       -       -    
 72
   65
 73
    2
 40
1.75
 49
0.25
 49
-1.5
  0
LTYPE
  2
chain
 70
   64
  3
-------------- -- --------------
 72
   65
 73
    4
 40
18.5
 49
12
 49
-1.5
 49
3.5
 49
-1.5
  0
LTYPE
  2
chain_double_dash
 70
   64
  3
------------ -- -- -------------
 72
   65
 73
    6
 40
23.5
 49
12
 49
-1.5
 49
3.5
 49
-1.5
 49
3.5
 49
-1.5
  0
LTYPE
  2
dashed_dotted
 70
   64
  3
-----------     -     ----------
 72
   65
 73
    4
 40
9.25
 49
6
 49
-1.5
 49
0.25
 49
-1.5
  0
LTYPE
  2
double-dashed_dotted
 70
   64
  3
------   -----------   -   -----
 72
   65
 73
    6
 40
16.75
 49
6
 49
-1.5
 49
6
 49
-1.5
 49
0.25
 49
-1.5
  0
LTYPE
  2
dashed_double-dotted
 70
   64
  3
---------    -    -    ---------
 72
   65
 73
    6
 40
11
 49
6
 49
-1.5
 49
0.25
 49
-1.5
 49
0.25
 49
-1.5
  0
LTYPE
  2
double-dashed_double-dotted
 70
   64
  3
-----   ---------   -   -   ----
 72
   65
 73
    8
 40
18.5
 49
6
 49
-1.5
 49
6
 49
-1.5
 49
0.25
 49
-1.5
 49
0.25
 49
-1.5
  0
LTYPE
  2
dashed_triplicate-dotted
 70
   64
  3
-------    -    -    -    ------
 72
   65
 73
    8
 40
12.75
 49
6
 49
-1.5
 49
0.25
 49
-1.5
 49
0.25
 49
-1.5
 49
0.25
 49
-1.5
  0
LTYPE
  2
double-dashed_triplicate-dotted
 70
   64
  3
-----  ---------  -  -  -  -----
 72
   65
 73
   10
 40
20.25
 49
6
 49
-1.5
 49
6
 49
-1.5
 49
0.25
 49
-1.5
 49
0.25
 49
-1.5
 49
0.25
 49
-1.5
  0
LTYPE
  2
undefined
 70
   64
  3
--------------------------------
 72
   65
 73
    0
 40
0
  0
LTYPE
  2
_
 70
   64
  3
                                
 72
   65
 73
    0
 40
0
  0
LTYPE
  2
__18
 70
   64
  3
                                
 72
   65
 73
    0
 40
0
  0
LTYPE
  2
__19
 70
   64
  3
                                
 72
   65
 73
    0
 40
0
  0
LTYPE
  2
__20
 70
   64
  3
                                
 72
   65
 73
    0
 40
0
  0
LTYPE
  2
__21
 70
   64
  3
                                
 72
   65
 73
    0
 40
0
  0
LTYPE
  2
__22
 70
   64
  3
                                
 72
   65
 73
    0
 40
0
  0
LTYPE
  2
__23
 70
   64
  3
                                
 72
   65
 73
    0
 40
0
  0
LTYPE
  2
__24
 70
   64
  3
                                
 72
   65
 73
    0
 40
0
  0
LTYPE
  2
__25
 70
   64
  3
                                
 72
   65
 73
    0
 40
0
  0
LTYPE
  2
__26
 70
   64
  3
                                
 72
   65
 73
    0
 40
0
  0
LTYPE
  2
__27
 70
   64
  3
                                
 72
   65
 73
    0
 40
0
  0
LTYPE
  2
__28
 70
   64
  3
                                
 72
   65
 73
    0
 40
0
  0
LTYPE
  2
__29
 70
   64
  3
                                
 72
   65
 73
    0
 40
0
  0
LTYPE
  2
__30
 70
   64
  3
                                
 72
   65
 73
    0
 40
0
  0
LTYPE
  2
__31
 70
   64
  3
                                
 72
   65
 73
    0
 40
0
  0
LTYPE
  2
__32
 70
   64
  3
                                
 72
   65
 73
    0
 40
0
  0
ENDTAB
  0
TABLE
  2
STYLE
  5
3
100
AcDbSymbolTable
 70
     1
  0
STYLE
  5
10
100
AcDbSymbolTableRecord
100
AcDbTextStyleTableRecord
  2
STANDARD
 70
     0
 40
0.0
 41
1.0
 50
0.0
 71
     0
 42
0.2
  3
txt
  4
bigfont.shx
  0
STYLE
  5
26
100
AcDbSymbolTableRecord
100
AcDbTextStyleTableRecord
  2
TATEGAKI
 70
    68
 40
0.0
 41
1.0
 50
0.0
 71
     0
 42
1.0
  3
txt
  4
bigfont.shx
  0
ENDTAB
  0
TABLE
  2
LAYER
 70
    6
  0
LAYER
  2
_0-0_
 70
   64
 62
    7
  6
CONTINUOUS
  0
LAYER
  2
_1-0_
 70
   64
 62
    7
  6
CONTINUOUS
  0
LAYER
  2
_e-0_
 70
   64
 62
    7
  6
CONTINUOUS
  0
LAYER
  2
_f-0_
 70
   64
 62
    7
  6
CONTINUOUS
  0
LAYER
  2
_f-1_
 70
   64
 62
    7
  6
CONTINUOUS
  0
LAYER
  2
ADD_LINE
 70
   64
 62
    7
  6
CONTINUOUS
  0
ENDTAB
  0
ENDSEC
  0
SECTION
  2
BLOCKS
  0
BLOCK
  2
-000-33-108X-2__35
 70
   64
 10
0
 20
0
 30
0
  0
ENDBLK
  0
BLOCK
  2
-001-33-108X-2__36
 70
   64
 10
0
 20
0
 30
0
  0
ENDBLK
  0
BLOCK
  2
-002-33-108X-2__37
 70
   64
 10
0
 20
0
 30
0
  0
ENDBLK
  0
BLOCK
  2
-003-33-108X-1__38
 70
   64
 10
0
 20
0
 30
0
  0
ENDBLK
  0
BLOCK
  2
-004-33-108AX__39
 70
   64
 10
0
 20
0
 30
0
  0
INSERT
  2
-000-33-108X-2__35
  8
_0-0_
 10
1351.3280407312272
 20
254.27143387645347
 41
1
 42
1
 50
0
  0
INSERT
  2
-001-33-108X-2__36
  8
_0-0_
 10
1059.3280407312272
 20
4207.90330463612
 41
1
 42
1
 50
0
  0
INSERT
  2
-002-33-108X-2__37
  8
_0-0_
 10
1013.2388964125376
 20
254.27143387645347
 41
1
 42
1
 50
0
  0
INSERT
  2
-003-33-108X-1__38
  8
_0-0_
 10
1150.2654685718828
 20
1557.4471479583023
 41
1
 42
1
 50
0
  0
ENDBLK
  0
BLOCK
  2
-005-33-108X-1__40
 70
   64
 10
0
 20
0
 30
0
  0
ENDBLK
  0
BLOCK
  2
-006-33-108X-2__41
 70
   64
 10
0
 20
0
 30
0
  0
ENDBLK
  0
BLOCK
  2
-007-33-108AX__42
 70
   64
 10
0
 20
0
 30
0
  0
INSERT
  2
-005-33-108X-1__40
  8
_0-0_
 10
1214.3014685718824
 20
1557.4471479583023
 41
1
 42
1
 50
0
  0
INSERT
  2
-006-33-108X-2__41
  8
_0-0_
 10
1351.3280407312272
 20
254.27143387645347
 41
1
 42
1
 50
0
  0
ENDBLK
  0
BLOCK
  2
-008-87-63
 70
   64
 10
0
 20
0
 30
0
  0
ENDBLK
  0
ENDSEC
  0
SECTION
  2
ENTITIES
  0
LINE
  8
_f-0_
  6
CONTINUOUS
 62
    7
 10
508.13095131618092
 20
196.85981934213771
 11
1772.1309513161809
 21
196.85981934213771
  0
LINE
  8
_f-0_
  6
CONTINUOUS
 62
    7
 10
508.13095131618092
 20
116.85981934213805
 11
508.13095131618092
 21
196.85981934213771
  0
LINE
  8
_f-0_
  6
CONTINUOUS
 62
    7
 10
140.13095131618092
 20
116.85981934213805
 11
492.13095131618092
 21
116.85981934213805
  0
LINE
  8
_f-0_
  6
CONTINUOUS
 62
    7
 10
140.13095131618092
 20
196.85981934213771
 11
492.13095131618092
 21
196.85981934213771
  0
LINE
  8
_f-0_
  6
CONTINUOUS
 62
    7
 10
1140.1309513161809
 20
116.85981934213805
 11
1140.1309513161809
 21
196.85981934213771
  0
LINE
  8
_f-0_
  6
CONTINUOUS
 62
    7
 10
1772.1309513161809
 20
116.85981934213805
 11
1772.1309513161809
 21
196.85981934213771
  0
LINE
  8
_f-0_
  6
CONTINUOUS
 62
    7
 10
1780.1309513161809
 20
116.85981934213805
 11
1780.1309513161809
 21
196.85981934213771
  0
LINE
  8
_f-0_
  6
CONTINUOUS
 62
    7
 10
508.13095131618092
 20
116.85981934213805
 11
1772.1309513161809
 21
116.85981934213805
  0
LINE
  8
_f-0_
  6
CONTINUOUS
 62
    7
 10
2172.1309513161809
 20
116.85981934213805
 11
2172.1309513161809
 21
196.85981934213771
  0
LINE
  8
_f-0_
  6
CONTINUOUS
 62
    7
 10
2180.1309513161809
 20
116.85981934213805
 11
2180.1309513161809
 21
196.85981934213771
  0
LINE
  8
_f-0_
  6
CONTINUOUS
 62
    7
 10
1780.1309513161809
 20
116.85981934213805
 11
2172.1309513161809
 21
116.85981934213805
  0
LINE
  8
_f-0_
  6
CONTINUOUS
 62
    7
 10
1780.1309513161809
 20
196.85981934213771
 11
2172.1309513161809
 21
196.85981934213771
  0
LINE
  8
_f-0_
  6
CONTINUOUS
 62
    7
 10
2420.1309513161809
 20
116.85981934213805
 11
2420.1309513161809
 21
196.85981934213771
  0
LINE
  8
_f-0_
  6
CONTINUOUS
 62
    7
 10
2660.1309513161813
 20
116.85981934213805
 11
2660.1309513161813
 21
196.85981934213771
  0
LINE
  8
_f-0_
  6
CONTINUOUS
 62
    7
 10
2964.1309513161809
 20
116.85981934213805
 11
2964.1309513161809
 21
196.85981934213771
  0
LINE
  8
_f-0_
  6
CONTINUOUS
 62
    7
 10
2180.1309513161809
 20
116.85981934213805
 11
3292.1309513161809
 21
116.85981934213805
  0
LINE
  8
_f-0_
  6
CONTINUOUS
 62
    7
 10
3292.1309513161809
 20
116.85981934213805
 11
3292.1309513161809
 21
196.85981934213771
  0
LINE
  8
_f-0_
  6
CONTINUOUS
 62
    7
 10
2180.1309513161809
 20
196.85981934213771
 11
3292.1309513161809
 21
196.85981934213771
  0
LINE
  8
_f-0_
  6
CONTINUOUS
 62
    7
 10
3308.1309513161809
 20
2308.8598193421375
 11
3308.1309513161809
 21
100.85981934213805
  0
LINE
  8
_f-0_
  6
CONTINUOUS
 62
    7
 10
124.13095131618092
 20
2308.8598193421375
 11
3308.1309513161809
 21
2308.8598193421375
  0
LINE
  8
_f-0_
  6
CONTINUOUS
 62
    7
 10
124.13095131618092
 20
100.85981934213805
 11
3308.1309513161809
 21
100.85981934213805
  0
LINE
  8
_f-0_
  6
CONTINUOUS
 62
    7
 10
124.13095131618092
 20
100.85981934213805
 11
124.13095131618092
 21
2308.8598193421375
  0
TEXT
  8
_f-0_
 62
    7
 10
2676.1309513161809
 20
170.85981934213793
 40
20
 41
0.64
 50
0
  1
ＣＨＥＣＫＥＤ
  0
TEXT
  8
_f-0_
 62
    7
 10
2980.1309513161813
 20
170.85981934213793
 40
20
 41
0.64
 50
0
  1
ＳＨＥＥＴ　ＮＯ．
  0
TEXT
  8
_f-0_
 62
    7
 10
2837.7309513161808
 20
170.85981934213793
 40
20
 41
0.64
 50
0
  1
ＤＲＡＷＩＮＧ
  0
LINE
  8
_f-0_
  6
CONTINUOUS
 62
    7
 10
140.13095131618092
 20
156.85981934213805
 11
492.13095131618092
 21
156.85981934213805
  0
TEXT
  8
_f-0_
 62
    7
 10
2196.4301385845174
 20
170.83531773801769
 40
20
 41
0.64
 50
0
  1
ＳＣＡＬＥ
  0
TEXT
  8
_f-0_
 62
    7
 10
1160.1309513161809
 20
170.85981934213793
 40
20
 41
0.8
 50
0
  1
図面名称
  0
TEXT
  8
_f-0_
 62
    7
 10
528.13095131618092
 20
170.85981934213793
 40
20
 41
0.8
 50
0
  1
名　称
  0
LINE
  8
_f-0_
  6
CONTINUOUS
 62
    7
 10
1736.1309513161809
 20
2318.4598193421379
 11
1737.0509513161809
 21
2320.0598193421383
  0
LINE
  8
_f-0_
  6
CONTINUOUS
 62
    7
 10
1731.0429513161809
 20
2322.4598193421379
 11
1736.1309513161809
 21
2313.6598193421377
  0
LINE
  8
_f-0_
  6
CONTINUOUS
 62
    7
 10
1736.1309513161809
 20
2313.6598193421377
 11
1741.2109513161808
 21
2322.4598193421379
  0
LINE
  8
_f-0_
  6
CONTINUOUS
 62
    7
 10
1736.1309513161809
 20
2308.8598193421375
 11
1745.3629513161808
 21
2324.8598193421375
  0
LINE
  8
_f-0_
  6
CONTINUOUS
 62
    7
 10
1726.8909513161809
 20
2324.8598193421375
 11
1736.1309513161809
 21
2308.8598193421375
  0
LINE
  8
_f-0_
  6
CONTINUOUS
 62
    7
 10
1745.3629513161808
 20
2324.8598193421375
 11
1726.8909513161809
 21
2324.8598193421375
  0
LINE
  8
_f-0_
  6
CONTINUOUS
 62
    7
 10
1735.202951316181
 20
2320.0598193421383
 11
1736.1309513161809
 21
2318.4598193421379
  0
LINE
  8
_f-0_
  6
CONTINUOUS
 62
    7
 10
1737.0509513161809
 20
2320.0598193421383
 11
1735.202951316181
 21
2320.0598193421383
  0
LINE
  8
_f-0_
  6
CONTINUOUS
 62
    7
 10
1741.2109513161808
 20
2322.4598193421379
 11
1731.0429513161809
 21
2322.4598193421379
  0
LINE
  8
_f-0_
  6
CONTINUOUS
 62
    7
 10
100.13095131618092
 20
1191.0034128815868
 11
100.13095131618092
 21
1218.7162258026889
  0
LINE
  8
_f-0_
  6
CONTINUOUS
 62
    7
 10
100.13095131618092
 20
1218.7162258026889
 11
124.13095131618092
 21
1204.859819342138
  0
LINE
  8
_f-0_
  6
CONTINUOUS
 62
    7
 10
124.13095131618092
 20
1204.859819342138
 11
100.13095131618092
 21
1191.0034128815868
  0
LINE
  8
_f-0_
  6
CONTINUOUS
 62
    7
 10
104.13095131618092
 20
1197.9316161118622
 11
104.13095131618092
 21
1211.7880225724134
  0
LINE
  8
_f-0_
  6
CONTINUOUS
 62
    7
 10
104.13095131618092
 20
1211.7880225724134
 11
116.13095131618092
 21
1204.859819342138
  0
LINE
  8
_f-0_
  6
CONTINUOUS
 62
    7
 10
116.13095131618092
 20
1204.859819342138
 11
104.13095131618092
 21
1197.9316161118622
  0
LINE
  8
_f-0_
  6
CONTINUOUS
 62
    7
 10
107.33095131618028
 20
1203.4741786960826
 11
107.33095131618028
 21
1206.245459988193
  0
LINE
  8
_f-0_
  6
CONTINUOUS
 62
    7
 10
107.33095131618028
 20
1206.245459988193
 11
109.73095131618129
 21
1204.859819342138
  0
LINE
  8
_f-0_
  6
CONTINUOUS
 62
    7
 10
109.73095131618129
 20
1204.859819342138
 11
107.33095131618028
 21
1203.4741786960826
  0
TEXT
  8
_f-0_
 62
    7
 10
124.11895131618075
 20
72.859819342138052
 40
16
 41
1
 50
0
  1
%f
  0
TEXT
  8
_f-0_
 62
    7
 10
3196.1309513161809
 20
72.859821926161657
 40
16
 41
1
 50
0
  1
%y
  0
TEXT
  8
_f-0_
 62
    7
 10
3220.1309513161813
 20
72.859821926161657
 40
16
 41
1
 50
0
  1
．
  0
TEXT
  8
_f-0_
 62
    7
 10
3244.1309513161809
 20
72.859821926161657
 40
16
 41
1
 50
0
  1
%m
  0
TEXT
  8
_f-0_
 62
    7
 10
3268.1309513161809
 20
72.859821926161657
 40
16
 41
1
 50
0
  1
．
  0
TEXT
  8
_f-0_
 62
    7
 10
3292.1309513161813
 20
72.859821926161657
 40
16
 41
1
 50
0
  1
%d
  0
INSERT
  2
-004-33-108AX__39
  8
_f-0_
 10
15213.279215645097
 20
19067.279649635689
 41
2
 42
2
 50
0
  0
INSERT
  2
-007-33-108AX__42
  8
_f-0_
 10
14380.188668943546
 20
19067.279649635693
 41
2
 42
2
 50
0
  0
INSERT
  2
-008-87-63
  8
_f-0_
 10
14097.338874194476
 20
18508.994591684622
 41
2
 42
2
 50
0
  0
TEXT
  8
_f-0_
 62
    7
 10
2436.1309513161809
 20
170.85981934213793
 40
20
 41
0.64
 50
0
  1
ＤＡＴＡ
  0
LINE
  8
_0-0_
  6
CONTINUOUS
 62
    7
 10
688.1122080520538
 20
1503.4089895542556
 11
688.1122080520538
 21
1563.5354895542557
  0
TEXT
  8
_0-0_
 62
    7
 10
715.43220805205419
 20
1553.2954895542557
 40
40.96
 41
1
 50
0
  1
20
  0
POINT
  8
_0-0_
 62
    7
 10
708.1122080520538
 20
1558.5354895542557
  0
POINT
  8
_0-0_
 62
    7
 10
708.1122080520538
 20
1558.5354895542557
  0
ARC
  8
_0-0_
  6
CONTINUOUS
 62
    7
 10
1301.612208052054
 20
1202.4089895542556
 40
1
 50
180.00000000000005
 51
270.00000000000005
  0
ARC
  8
_0-0_
  6
CONTINUOUS
 62
    7
 10
1301.612208052054
 20
1202.4089895542556
 40
1
 50
180.00000000000005
 51
270.00000000000005
  0
LINE
  8
_0-0_
  6
CONTINUOUS
 62
    7
 10
708.1122080520538
 20
1503.4089895542556
 11
708.1122080520538
 21
1563.5354895542557
  0
LINE
  8
_0-0_
  6
CONTINUOUS
 62
    7
 10
688.1122080520538
 20
1558.5354895542557
 11
708.1122080520538
 21
1558.5354895542557
  0
LINE
  8
_0-0_
  6
CONTINUOUS
 62
    7
 10
688.1122080520538
 20
1558.5354895542557
 11
673.1122080520538
 21
1558.5354895542557
  0
LINE
  8
_0-0_
  6
CONTINUOUS
 62
    7
 10
708.1122080520538
 20
1558.5354895542557
 11
763.1122080520538
 21
1558.5354895542557
  0
LINE
  8
_0-0_
  6
CONTINUOUS
 62
    7
 10
708.1122080520538
 20
1558.5354895542557
 11
688.1122080520538
 21
1558.5354895542557
  0
LINE
  8
_0-0_
  6
CONTINUOUS
 62
    7
 10
1908.1122080520538
 20
1503.4089895542556
 11
1908.1122080520538
 21
1583.0844895542556
  0
LINE
  8
_0-0_
  6
CONTINUOUS
 62
    7
 10
1928.1122080520538
 20
1503.4089895542556
 11
1928.1122080520538
 21
1583.0844895542556
  0
LINE
  8
_0-0_
  6
CONTINUOUS
 62
    7
 10
1908.1122080520538
 20
1578.0844895542556
 11
1928.1122080520538
 21
1578.0844895542556
  0
LINE
  8
_0-0_
  6
CONTINUOUS
 62
    7
 10
1908.1122080520538
 20
1578.0844895542556
 11
1853.1122080520538
 21
1578.0844895542556
  0
LINE
  8
_0-0_
  6
CONTINUOUS
 62
    7
 10
1928.1122080520538
 20
1578.0844895542556
 11
1943.1122080520538
 21
1578.0844895542556
  0
LINE
  8
_0-0_
  6
CONTINUOUS
 62
    7
 10
1928.1122080520538
 20
1578.0844895542556
 11
1908.1122080520538
 21
1578.0844895542556
  0
LINE
  8
_0-0_
  6
CONTINUOUS
 62
    7
 10
1933.1122080520538
 20
1969.4199895542556
 11
1984.2067080520539
 21
1969.4199895542556
  0
LINE
  8
_0-0_
  6
CONTINUOUS
 62
    7
 10
1979.2067080520539
 20
1942.4199895542556
 11
1979.2067080520539
 21
1969.4199895542556
  0
LINE
  8
_0-0_
  6
CONTINUOUS
 62
    7
 10
1979.2067080520539
 20
1942.4199895542556
 11
1979.2067080520539
 21
1927.4199895542556
  0
LINE
  8
_0-0_
  6
CONTINUOUS
 62
    7
 10
1979.2067080520539
 20
1969.4199895542556
 11
1979.2067080520539
 21
2024.4199895542556
  0
LINE
  8
_0-0_
  6
CONTINUOUS
 62
    7
 10
1929.9912080520539
 20
1777.4199895542556
 11
1984.2067080520539
 21
1777.4199895542556
  0
LINE
  8
_0-0_
  6
CONTINUOUS
 62
    7
 10
1929.9912080520539
 20
1942.4199895542556
 11
1984.2067080520539
 21
1942.4199895542556
  0
LINE
  8
_0-0_
  6
CONTINUOUS
 62
    7
 10
1979.2067080520539
 20
1777.4199895542556
 11
1979.2067080520539
 21
1942.4199895542556
  0
LINE
  8
_0-0_
  6
CONTINUOUS
 62
    7
 10
1979.2067080520539
 20
1942.4199895542556
 11
1979.2067080520539
 21
1777.4199895542556
  0
LINE
  8
_0-0_
  6
CONTINUOUS
 62
    7
 10
2559.8797080520535
 20
1445.9089895542556
 11
2559.8797080520535
 21
1498.4089895542556
  0
LINE
  8
_0-0_
  6
CONTINUOUS
 62
    7
 10
2559.8797080520535
 20
1445.9089895542556
 11
2559.8797080520535
 21
1430.9089895542556
  0
LINE
  8
_0-0_
  6
CONTINUOUS
 62
    7
 10
2559.8797080520535
 20
1498.4089895542556
 11
2559.8797080520535
 21
1593.4089895542556
  0
LINE
  8
_0-0_
  6
CONTINUOUS
 62
    7
 10
2518.3972080520538
 20
1250.9089895542556
 11
2564.8797080520535
 21
1250.9089895542556
  0
LINE
  8
_0-0_
  6
CONTINUOUS
 62
    7
 10
2559.8797080520535
 20
1198.4089895542556
 11
2559.8797080520535
 21
1250.9089895542556
  0
LINE
  8
_0-0_
  6
CONTINUOUS
 62
    7
 10
2559.8797080520535
 20
1198.4089895542556
 11
2559.8797080520535
 21
1103.4089895542556
  0
LINE
  8
_0-0_
  6
CONTINUOUS
 62
    7
 10
2559.8797080520535
 20
1250.9089895542556
 11
2559.8797080520535
 21
1265.9089895542556
  0
LINE
  8
_0-0_
  6
CONTINUOUS
 62
    7
 10
2311.7447080520541
 20
1511.4859895542556
 11
2311.7447080520541
 21
1603.9364895542557
  0
LINE
  8
_0-0_
  6
CONTINUOUS
 62
    7
 10
2476.7447080520537
 20
1508.3094895542558
 11
2476.7447080520537
 21
1603.9364895542557
  0
LINE
  8
_0-0_
  6
CONTINUOUS
 62
    7
 10
2311.7447080520541
 20
1598.9364895542557
 11
2476.7447080520537
 21
1598.9364895542557
  0
LINE
  8
_0-0_
  6
CONTINUOUS
 62
    7
 10
2476.7447080520537
 20
1598.9364895542557
 11
2311.7447080520541
 21
1598.9364895542557
  0
LINE
  8
_0-0_
  6
CONTINUOUS
 62
    7
 10
2503.7447080520537
 20
1497.4089895542556
 11
2503.7447080520537
 21
1603.9364895542557
  0
LINE
  8
_0-0_
  6
CONTINUOUS
 62
    7
 10
2476.7447080520537
 20
1598.9364895542557
 11
2503.7447080520537
 21
1598.9364895542557
  0
LINE
  8
_0-0_
  6
CONTINUOUS
 62
    7
 10
2476.7447080520537
 20
1598.9364895542557
 11
2461.7447080520537
 21
1598.9364895542557
  0
LINE
  8
_0-0_
  6
CONTINUOUS
 62
    7
 10
2503.7447080520537
 20
1598.9364895542557
 11
2558.7447080520537
 21
1598.9364895542557
  0
LINE
  8
_0-0_
  6
CONTINUOUS
 62
    7
 10
2517.0937080520534
 20
1445.9089895542556
 11
2564.8797080520535
 21
1445.9089895542556
  0
LINE
  8
_0-0_
  6
CONTINUOUS
 62
    7
 10
2559.8797080520535
 20
1250.9089895542556
 11
2559.8797080520535
 21
1445.9089895542556
  0
LINE
  8
_0-0_
  6
CONTINUOUS
 62
    7
 10
2559.8797080520535
 20
1445.9089895542556
 11
2559.8797080520535
 21
1250.9089895542556
  0
LINE
  8
_0-0_
  6
CONTINUOUS
 62
    7
 10
1933.1122080520538
 20
1734.9199895542556
 11
2033.7307080520538
 21
1734.9199895542556
  0
LINE
  8
_0-0_
  6
CONTINUOUS
 62
    7
 10
1933.1122080520538
 20
1969.4199895542556
 11
2033.7307080520538
 21
1969.4199895542556
  0
LINE
  8
_0-0_
  6
CONTINUOUS
 62
    7
 10
2028.7307080520538
 20
1734.9199895542556
 11
2028.7307080520538
 21
1969.4199895542556
  0
LINE
  8
_0-0_
  6
CONTINUOUS
 62
    7
 10
2028.7307080520538
 20
1969.4199895542556
 11
2028.7307080520538
 21
1734.9199895542556
  0
LINE
  8
_0-0_
  6
CONTINUOUS
 62
    7
 10
2502.7447080520537
 20
1198.4089895542556
 11
2609.8797080520535
 21
1198.4089895542556
  0
LINE
  8
_0-0_
  6
CONTINUOUS
 62
    7
 10
2502.7447080520537
 20
1498.4089895542556
 11
2609.8797080520535
 21
1498.4089895542556
  0
LINE
  8
_0-0_
  6
CONTINUOUS
 62
    7
 10
2604.8797080520535
 20
1198.4089895542556
 11
2604.8797080520535
 21
1498.4089895542556
  0
LINE
  8
_0-0_
  6
CONTINUOUS
 62
    7
 10
2604.8797080520535
 20
1498.4089895542556
 11
2604.8797080520535
 21
1198.4089895542556
  0
LINE
  8
_0-0_
  6
CONTINUOUS
 62
    7
 10
688.1122080520538
 20
1498.4089895542556
 11
708.1122080520538
 21
1498.4089895542556
  0
LINE
  8
_0-0_
  6
CONTINUOUS
 62
    7
 10
1908.1122080520538
 20
1498.4089895542556
 11
1928.1122080520538
 21
1498.4089895542556
  0
LINE
  8
_0-0_
  6
CONTINUOUS
 62
    7
 10
1908.1122080520538
 20
1498.4089895542556
 11
1908.1122080520538
 21
1198.4089895542556
  0
LINE
  8
_0-0_
  6
CONTINUOUS
 62
    7
 10
1928.1122080520538
 20
1198.4089895542556
 11
1928.1122080520538
 21
1498.4089895542556
  0
LINE
  8
_0-0_
  6
CONTINUOUS
 62
    7
 10
688.1122080520538
 20
1198.4089895542556
 11
688.1122080520538
 21
1498.4089895542556
  0
LINE
  8
_0-0_
  6
CONTINUOUS
 62
    7
 10
688.1122080520538
 20
1969.4199895542556
 11
688.1122080520538
 21
1734.9199895542556
  0
LINE
  8
_0-0_
  6
CONTINUOUS
 62
    7
 10
708.1122080520538
 20
1969.4199895542556
 11
708.1122080520538
 21
1734.9199895542556
  0
LINE
  8
_0-0_
  6
CONTINUOUS
 62
    7
 10
708.1122080520538
 20
1498.4089895542556
 11
708.1122080520538
 21
1198.4089895542556
  0
LINE
  8
_0-0_
  6
CONTINUOUS
 62
    7
 10
688.1122080520538
 20
1198.4089895542556
 11
708.1122080520538
 21
1198.4089895542556
  0
LINE
  8
_0-0_
  6
CONTINUOUS
 62
    7
 10
1908.1122080520538
 20
1198.4089895542556
 11
1928.1122080520538
 21
1198.4089895542556
  0
LINE
  8
_0-0_
  6
CONTINUOUS
 62
    7
 10
1300.6122080520538
 20
1212.8449895542557
 11
1300.6122080520538
 21
1202.4089895542556
  0
LINE
  8
_0-0_
  6
CONTINUOUS
 62
    7
 10
1315.6122080520538
 20
1212.8449895542557
 11
1315.6122080520538
 21
1202.4089895542556
  0
LINE
  8
_0-0_
  6
CONTINUOUS
 62
    7
 10
1314.6122080520538
 20
1201.4089895542556
 11
1301.612208052054
 21
1201.4089895542556
  0
LINE
  8
_0-0_
  6
CONTINUOUS
 62
    7
 10
1314.6122080520538
 20
1213.8449895542557
 11
1301.612208052054
 21
1213.8449895542557
  0
LINE
  8
_0-0_
  6
CONTINUOUS
 62
    7
 10
1928.1122080520538
 20
1969.4199895542556
 11
1928.1122080520538
 21
1734.9199895542556
  0
LINE
  8
_0-0_
  6
CONTINUOUS
 62
    7
 10
1908.1122080520538
 20
1734.9199895542556
 11
1908.1122080520538
 21
1969.4199895542556
  0
LINE
  8
_0-0_
  6
CONTINUOUS
 62
    7
 10
1301.612208052054
 20
1960.0699895542556
 11
1314.6122080520538
 21
1960.0699895542556
  0
LINE
  8
_0-0_
  6
CONTINUOUS
 62
    7
 10
1301.612208052054
 20
1744.2699895542557
 11
1314.6122080520538
 21
1744.2699895542557
  0
LINE
  8
_0-0_
  6
CONTINUOUS
 62
    7
 10
1301.612208052054
 20
1947.5699895542556
 11
1314.6122080520538
 21
1947.5699895542556
  0
LINE
  8
_0-0_
  6
CONTINUOUS
 62
    7
 10
1301.612208052054
 20
1956.7699895542557
 11
1314.6122080520538
 21
1956.7699895542557
  0
LINE
  8
_0-0_
  6
CONTINUOUS
 62
    7
 10
1315.6122080520538
 20
1957.7699895542557
 11
1315.6122080520538
 21
1959.0699895542556
  0
LINE
  8
_0-0_
  6
CONTINUOUS
 62
    7
 10
1300.6122080520538
 20
1957.7699895542557
 11
1300.6122080520538
 21
1959.0699895542556
  0
LINE
  8
_0-0_
  6
CONTINUOUS
 62
    7
 10
1315.6122080520538
 20
1946.5699895542556
 11
1315.6122080520538
 21
1917.1699895542556
  0
LINE
  8
_0-0_
  6
CONTINUOUS
 62
    7
 10
1300.6122080520538
 20
1946.5699895542556
 11
1300.6122080520538
 21
1917.1699895542556
  0
LINE
  8
_0-0_
  6
CONTINUOUS
 62
    7
 10
1315.6122080520538
 20
1877.1699895542556
 11
1315.6122080520538
 21
1907.1699895542556
  0
LINE
  8
_0-0_
  6
CONTINUOUS
 62
    7
 10
1300.6122080520538
 20
1877.1699895542556
 11
1300.6122080520538
 21
1907.1699895542556
  0
LINE
  8
_0-0_
  6
CONTINUOUS
 62
    7
 10
1315.6122080520538
 20
1837.1699895542556
 11
1315.6122080520538
 21
1867.1699895542556
  0
LINE
  8
_0-0_
  6
CONTINUOUS
 62
    7
 10
1300.6122080520538
 20
1837.1699895542556
 11
1300.6122080520538
 21
1867.1699895542556
  0
LINE
  8
_0-0_
  6
CONTINUOUS
 62
    7
 10
1315.6122080520538
 20
1797.1699895542556
 11
1315.6122080520538
 21
1827.1699895542556
  0
LINE
  8
_0-0_
  6
CONTINUOUS
 62
    7
 10
1300.6122080520538
 20
1797.1699895542556
 11
1300.6122080520538
 21
1827.1699895542556
  0
LINE
  8
_0-0_
  6
CONTINUOUS
 62
    7
 10
1315.6122080520538
 20
1745.2699895542557
 11
1315.6122080520538
 21
1747.1699895542556
  0
LINE
  8
_0-0_
  6
CONTINUOUS
 62
    7
 10
1315.6122080520538
 20
1757.1699895542556
 11
1315.6122080520538
 21
1787.1699895542556
  0
LINE
  8
_0-0_
  6
CONTINUOUS
 62
    7
 10
1300.6122080520538
 20
1745.2699895542557
 11
1300.6122080520538
 21
1747.1699895542556
  0
LINE
  8
_0-0_
  6
CONTINUOUS
 62
    7
 10
1300.6122080520538
 20
1757.1699895542556
 11
1300.6122080520538
 21
1787.1699895542556
  0
LINE
  8
_0-0_
  6
CONTINUOUS
 62
    7
 10
1314.6122080520538
 20
1944.2699895542557
 11
1301.612208052054
 21
1944.2699895542557
  0
LINE
  8
_0-0_
  6
CONTINUOUS
 62
    7
 10
1314.6122080520538
 20
1920.0699895542556
 11
1301.612208052054
 21
1920.0699895542556
  0
LINE
  8
_0-0_
  6
CONTINUOUS
 62
    7
 10
1314.6122080520538
 20
1904.2699895542557
 11
1301.612208052054
 21
1904.2699895542557
  0
LINE
  8
_0-0_
  6
CONTINUOUS
 62
    7
 10
1314.6122080520538
 20
1880.0699895542556
 11
1301.612208052054
 21
1880.0699895542556
  0
LINE
  8
_0-0_
  6
CONTINUOUS
 62
    7
 10
1314.6122080520538
 20
1864.2699895542557
 11
1301.612208052054
 21
1864.2699895542557
  0
LINE
  8
_0-0_
  6
CONTINUOUS
 62
    7
 10
1314.6122080520538
 20
1840.0699895542556
 11
1301.612208052054
 21
1840.0699895542556
  0
LINE
  8
_0-0_
  6
CONTINUOUS
 62
    7
 10
1314.6122080520538
 20
1824.2699895542557
 11
1301.612208052054
 21
1824.2699895542557
  0
LINE
  8
_0-0_
  6
CONTINUOUS
 62
    7
 10
1314.6122080520538
 20
1800.0699895542556
 11
1301.612208052054
 21
1800.0699895542556
  0
LINE
  8
_0-0_
  6
CONTINUOUS
 62
    7
 10
1314.6122080520538
 20
1784.2699895542557
 11
1301.612208052054
 21
1784.2699895542557
  0
LINE
  8
_0-0_
  6
CONTINUOUS
 62
    7
 10
1314.6122080520538
 20
1760.0699895542556
 11
1301.612208052054
 21
1760.0699895542556
  0
LINE
  8
_0-0_
  6
CONTINUOUS
 62
    7
 10
1300.6122080520538
 20
1957.7699895542557
 11
1300.6122080520538
 21
1957.1699895542556
  0
LINE
  8
_0-0_
  6
CONTINUOUS
 62
    7
 10
1315.6122080520538
 20
1957.7699895542557
 11
1315.6122080520538
 21
1957.1699895542556
  0
LINE
  8
_0-0_
  6
CONTINUOUS
 62
    7
 10
1314.6122080520538
 20
1916.7699895542557
 11
1301.612208052054
 21
1916.7699895542557
  0
LINE
  8
_0-0_
  6
CONTINUOUS
 62
    7
 10
1314.6122080520538
 20
1907.5699895542556
 11
1301.612208052054
 21
1907.5699895542556
  0
LINE
  8
_0-0_
  6
CONTINUOUS
 62
    7
 10
1314.6122080520538
 20
1876.7699895542557
 11
1301.612208052054
 21
1876.7699895542557
  0
LINE
  8
_0-0_
  6
CONTINUOUS
 62
    7
 10
1314.6122080520538
 20
1867.5699895542556
 11
1301.612208052054
 21
1867.5699895542556
  0
LINE
  8
_0-0_
  6
CONTINUOUS
 62
    7
 10
1314.6122080520538
 20
1836.7699895542557
 11
1301.612208052054
 21
1836.7699895542557
  0
LINE
  8
_0-0_
  6
CONTINUOUS
 62
    7
 10
1314.6122080520538
 20
1827.5699895542556
 11
1301.612208052054
 21
1827.5699895542556
  0
LINE
  8
_0-0_
  6
CONTINUOUS
 62
    7
 10
1314.6122080520538
 20
1796.7699895542557
 11
1301.612208052054
 21
1796.7699895542557
  0
LINE
  8
_0-0_
  6
CONTINUOUS
 62
    7
 10
1314.6122080520538
 20
1787.5699895542556
 11
1301.612208052054
 21
1787.5699895542556
  0
LINE
  8
_0-0_
  6
CONTINUOUS
 62
    7
 10
1314.6122080520538
 20
1756.7699895542557
 11
1301.612208052054
 21
1756.7699895542557
  0
LINE
  8
_0-0_
  6
CONTINUOUS
 62
    7
 10
1314.6122080520538
 20
1747.5699895542556
 11
1301.612208052054
 21
1747.5699895542556
  0
LINE
  8
_0-0_
  6
CONTINUOUS
 62
    7
 10
1309.6122080520538
 20
1920.0699895542556
 11
1309.6122080520538
 21
1944.2699895542557
  0
LINE
  8
_0-0_
  6
CONTINUOUS
 62
    7
 10
1306.612208052054
 20
1920.0699895542556
 11
1306.612208052054
 21
1944.2699895542557
  0
LINE
  8
_0-0_
  6
CONTINUOUS
 62
    7
 10
1309.6122080520538
 20
1880.0699895542556
 11
1309.6122080520538
 21
1904.2699895542557
  0
LINE
  8
_0-0_
  6
CONTINUOUS
 62
    7
 10
1306.612208052054
 20
1880.0699895542556
 11
1306.612208052054
 21
1904.2699895542557
  0
LINE
  8
_0-0_
  6
CONTINUOUS
 62
    7
 10
1309.6122080520538
 20
1840.0699895542556
 11
1309.6122080520538
 21
1864.2699895542557
  0
LINE
  8
_0-0_
  6
CONTINUOUS
 62
    7
 10
1306.612208052054
 20
1840.0699895542556
 11
1306.612208052054
 21
1864.2699895542557
  0
LINE
  8
_0-0_
  6
CONTINUOUS
 62
    7
 10
1309.6122080520538
 20
1760.0699895542556
 11
1309.6122080520538
 21
1784.2699895542557
  0
LINE
  8
_0-0_
  6
CONTINUOUS
 62
    7
 10
1309.6122080520538
 20
1800.0699895542556
 11
1309.6122080520538
 21
1824.2699895542557
  0
LINE
  8
_0-0_
  6
CONTINUOUS
 62
    7
 10
1306.612208052054
 20
1760.0699895542556
 11
1306.612208052054
 21
1784.2699895542557
  0
LINE
  8
_0-0_
  6
CONTINUOUS
 62
    7
 10
1306.612208052054
 20
1800.0699895542556
 11
1306.612208052054
 21
1824.2699895542557
  0
LINE
  8
_0-0_
  6
CONTINUOUS
 62
    7
 10
1928.1122080520538
 20
961.13148955425572
 11
1928.1122080520538
 21
729.88148955425572
  0
LINE
  8
_0-0_
  6
CONTINUOUS
 62
    7
 10
1908.1122080520538
 20
729.88148955425572
 11
1908.1122080520538
 21
961.13148955425572
  0
LINE
  8
_0-0_
  6
CONTINUOUS
 62
    7
 10
688.1122080520538
 20
961.13148955425572
 11
688.1122080520538
 21
726.63148955425572
  0
LINE
  8
_0-0_
  6
CONTINUOUS
 62
    7
 10
708.1122080520538
 20
961.13148955425572
 11
708.1122080520538
 21
726.63148955425572
  0
LINE
  8
_0-0_
  6
CONTINUOUS
 62
    7
 10
1314.6122080520538
 20
951.78148955425569
 11
1301.612208052054
 21
951.78148955425569
  0
LINE
  8
_0-0_
  6
CONTINUOUS
 62
    7
 10
1314.6122080520538
 20
735.98148955425574
 11
1301.612208052054
 21
735.98148955425574
  0
LINE
  8
_0-0_
  6
CONTINUOUS
 62
    7
 10
1300.6122080520538
 20
949.48148955425563
 11
1300.6122080520538
 21
950.78148955425569
  0
LINE
  8
_0-0_
  6
CONTINUOUS
 62
    7
 10
1315.6122080520538
 20
949.48148955425563
 11
1315.6122080520538
 21
950.78148955425569
  0
LINE
  8
_0-0_
  6
CONTINUOUS
 62
    7
 10
1300.6122080520538
 20
938.88148955425572
 11
1300.6122080520538
 21
908.88148955425572
  0
LINE
  8
_0-0_
  6
CONTINUOUS
 62
    7
 10
1315.6122080520538
 20
938.88148955425572
 11
1315.6122080520538
 21
908.88148955425572
  0
LINE
  8
_0-0_
  6
CONTINUOUS
 62
    7
 10
1300.6122080520538
 20
868.88148955425572
 11
1300.6122080520538
 21
898.88148955425572
  0
LINE
  8
_0-0_
  6
CONTINUOUS
 62
    7
 10
1315.6122080520538
 20
868.88148955425572
 11
1315.6122080520538
 21
898.88148955425572
  0
LINE
  8
_0-0_
  6
CONTINUOUS
 62
    7
 10
1300.6122080520538
 20
828.88148955425572
 11
1300.6122080520538
 21
858.88148955425572
  0
LINE
  8
_0-0_
  6
CONTINUOUS
 62
    7
 10
1315.6122080520538
 20
828.88148955425572
 11
1315.6122080520538
 21
858.88148955425572
  0
LINE
  8
_0-0_
  6
CONTINUOUS
 62
    7
 10
1300.6122080520538
 20
788.88148955425572
 11
1300.6122080520538
 21
818.88148955425572
  0
LINE
  8
_0-0_
  6
CONTINUOUS
 62
    7
 10
1315.6122080520538
 20
788.88148955425572
 11
1315.6122080520538
 21
818.88148955425572
  0
LINE
  8
_0-0_
  6
CONTINUOUS
 62
    7
 10
1300.6122080520538
 20
736.98148955425563
 11
1300.6122080520538
 21
738.88148955425572
  0
LINE
  8
_0-0_
  6
CONTINUOUS
 62
    7
 10
1300.6122080520538
 20
748.88148955425572
 11
1300.6122080520538
 21
778.88148955425572
  0
LINE
  8
_0-0_
  6
CONTINUOUS
 62
    7
 10
1315.6122080520538
 20
736.98148955425563
 11
1315.6122080520538
 21
738.88148955425572
  0
LINE
  8
_0-0_
  6
CONTINUOUS
 62
    7
 10
1315.6122080520538
 20
748.88148955425572
 11
1315.6122080520538
 21
778.88148955425572
  0
LINE
  8
_0-0_
  6
CONTINUOUS
 62
    7
 10
1315.6122080520538
 20
949.48148955425563
 11
1315.6122080520538
 21
948.88148955425572
  0
LINE
  8
_0-0_
  6
CONTINUOUS
 62
    7
 10
1300.6122080520538
 20
949.48148955425563
 11
1300.6122080520538
 21
948.88148955425572
  0
LINE
  8
_0-0_
  6
CONTINUOUS
 62
    7
 10
1315.6122080520538
 20
948.88148955425572
 11
1315.6122080520538
 21
938.88148955425572
  0
LINE
  8
_0-0_
  6
CONTINUOUS
 62
    7
 10
1300.6122080520538
 20
948.88148955425572
 11
1300.6122080520538
 21
938.88148955425572
  0
LINE
  8
_0-0_
  6
CONTINUOUS
 62
    7
 10
1315.6122080520538
 20
908.88148955425572
 11
1315.6122080520538
 21
898.88848955425578
  0
LINE
  8
_0-0_
  6
CONTINUOUS
 62
    7
 10
1300.6122080520538
 20
908.88148955425572
 11
1300.6122080520538
 21
898.88148955425572
  0
LINE
  8
_0-0_
  6
CONTINUOUS
 62
    7
 10
1315.6122080520538
 20
868.88148955425572
 11
1315.6122080520538
 21
858.88148955425572
  0
LINE
  8
_0-0_
  6
CONTINUOUS
 62
    7
 10
1300.6122080520538
 20
868.88148955425572
 11
1300.6122080520538
 21
858.88148955425572
  0
LINE
  8
_0-0_
  6
CONTINUOUS
 62
    7
 10
1300.6122080520538
 20
828.88148955425572
 11
1300.6122080520538
 21
818.88148955425572
  0
LINE
  8
_0-0_
  6
CONTINUOUS
 62
    7
 10
1315.6122080520538
 20
828.88148955425572
 11
1315.6122080520538
 21
818.88148955425572
  0
LINE
  8
_0-0_
  6
CONTINUOUS
 62
    7
 10
1315.6122080520538
 20
788.88148955425572
 11
1315.6122080520538
 21
778.88148955425572
  0
LINE
  8
_0-0_
  6
CONTINUOUS
 62
    7
 10
1300.6122080520538
 20
788.88148955425572
 11
1300.6122080520538
 21
778.88148955425572
  0
LINE
  8
_0-0_
  6
CONTINUOUS
 62
    7
 10
1315.6122080520538
 20
748.88148955425572
 11
1315.6122080520538
 21
738.88148955425572
  0
LINE
  8
_0-0_
  6
CONTINUOUS
 62
    7
 10
1300.6122080520538
 20
748.88148955425572
 11
1300.6122080520538
 21
738.88148955425572
  0
LINE
  8
_0-0_
  6
CONTINUOUS
 62
    7
 10
1908.1122080520538
 20
1837.1699895542556
 11
1928.1122080520538
 21
1837.1699895542556
  0
LINE
  8
_0-0_
  6
CONTINUOUS
 62
    7
 10
688.1122080520538
 20
1837.1699895542556
 11
708.1122080520538
 21
1837.1699895542556
  0
LINE
  8
_0-0_
  6
CONTINUOUS
 62
    7
 10
1914.8622080520538
 20
1779.6699895542556
 11
1921.3622080520538
 21
1779.6699895542556
  0
LINE
  8
_0-0_
  6
CONTINUOUS
 62
    7
 10
1914.8622080520538
 20
1775.1699895542556
 11
1921.3622080520538
 21
1775.1699895542556
  0
LINE
  8
_0-0_
  6
CONTINUOUS
 62
    7
 10
1914.8622080520538
 20
1944.6699895542556
 11
1921.3622080520538
 21
1944.6699895542556
  0
LINE
  8
_0-0_
  6
CONTINUOUS
 62
    7
 10
1914.8622080520538
 20
1940.1699895542556
 11
1921.3622080520538
 21
1940.1699895542556
  0
LINE
  8
_0-0_
  6
CONTINUOUS
 62
    7
 10
694.8622080520538
 20
1779.6699895542556
 11
701.3622080520538
 21
1779.6699895542556
  0
LINE
  8
_0-0_
  6
CONTINUOUS
 62
    7
 10
694.8622080520538
 20
1775.1699895542556
 11
701.3622080520538
 21
1775.1699895542556
  0
LINE
  8
_0-0_
  6
CONTINUOUS
 62
    7
 10
694.8622080520538
 20
1944.6699895542556
 11
701.3622080520538
 21
1944.6699895542556
  0
LINE
  8
_0-0_
  6
CONTINUOUS
 62
    7
 10
694.8622080520538
 20
1940.1699895542556
 11
701.3622080520538
 21
1940.1699895542556
  0
LINE
  8
_0-0_
  6
CONTINUOUS
 62
    7
 10
688.1122080520538
 20
1867.1699895542556
 11
708.1122080520538
 21
1867.1699895542556
  0
LINE
  8
_0-0_
  6
CONTINUOUS
 62
    7
 10
1908.1122080520538
 20
1867.1699895542556
 11
1928.1122080520538
 21
1867.1699895542556
  0
LINE
  8
_0-0_
  6
CONTINUOUS
 62
    7
 10
694.6122080520538
 20
838.88148955425572
 11
694.6122080520538
 21
848.88148955425572
  0
LINE
  8
_0-0_
  6
CONTINUOUS
 62
    7
 10
689.6122080520538
 20
838.88148955425572
 11
706.6122080520538
 21
838.88148955425572
  0
LINE
  8
_0-0_
  6
CONTINUOUS
 62
    7
 10
689.6122080520538
 20
838.88148955425572
 11
689.6122080520538
 21
848.88148955425572
  0
LINE
  8
_0-0_
  6
CONTINUOUS
 62
    7
 10
695.6122080520538
 20
838.88148955425572
 11
695.6122080520538
 21
848.88148955425572
  0
LINE
  8
_0-0_
  6
CONTINUOUS
 62
    7
 10
694.6122080520538
 20
838.88148955425572
 11
694.6122080520538
 21
838.38148955425572
  0
LINE
  8
_0-0_
  6
CONTINUOUS
 62
    7
 10
694.6122080520538
 20
838.38148955425572
 11
701.6122080520538
 21
838.38148955425572
  0
LINE
  8
_0-0_
  6
CONTINUOUS
 62
    7
 10
701.6122080520538
 20
838.88148955425572
 11
701.6122080520538
 21
848.88148955425572
  0
LINE
  8
_0-0_
  6
CONTINUOUS
 62
    7
 10
700.6122080520538
 20
838.88148955425572
 11
700.6122080520538
 21
848.88148955425572
  0
LINE
  8
_0-0_
  6
CONTINUOUS
 62
    7
 10
701.6122080520538
 20
838.88148955425572
 11
701.6122080520538
 21
838.38148955425572
  0
LINE
  8
_0-0_
  6
CONTINUOUS
 62
    7
 10
706.6122080520538
 20
848.88148955425572
 11
689.6122080520538
 21
848.88148955425572
  0
LINE
  8
_0-0_
  6
CONTINUOUS
 62
    7
 10
701.6122080520538
 20
848.88148955425572
 11
701.6122080520538
 21
849.38148955425572
  0
LINE
  8
_0-0_
  6
CONTINUOUS
 62
    7
 10
694.6122080520538
 20
849.38148955425572
 11
701.6122080520538
 21
849.38148955425572
  0
LINE
  8
_0-0_
  6
CONTINUOUS
 62
    7
 10
694.6122080520538
 20
848.88148955425572
 11
694.6122080520538
 21
849.38148955425572
  0
LINE
  8
_0-0_
  6
CONTINUOUS
 62
    7
 10
706.6122080520538
 20
838.88148955425572
 11
706.6122080520538
 21
848.88148955425572
  0
LINE
  8
_0-0_
  6
CONTINUOUS
 62
    7
 10
1914.6122080520538
 20
838.88148955425572
 11
1914.6122080520538
 21
848.88148955425572
  0
LINE
  8
_0-0_
  6
CONTINUOUS
 62
    7
 10
1909.6122080520538
 20
838.88148955425572
 11
1926.6122080520538
 21
838.88148955425572
  0
LINE
  8
_0-0_
  6
CONTINUOUS
 62
    7
 10
1909.6122080520538
 20
838.88148955425572
 11
1909.6122080520538
 21
848.88148955425572
  0
LINE
  8
_0-0_
  6
CONTINUOUS
 62
    7
 10
1915.6122080520538
 20
838.88148955425572
 11
1915.6122080520538
 21
848.88148955425572
  0
LINE
  8
_0-0_
  6
CONTINUOUS
 62
    7
 10
1914.6122080520538
 20
838.88148955425572
 11
1914.6122080520538
 21
838.38148955425572
  0
LINE
  8
_0-0_
  6
CONTINUOUS
 62
    7
 10
1914.6122080520538
 20
838.38148955425572
 11
1921.6122080520538
 21
838.38148955425572
  0
LINE
  8
_0-0_
  6
CONTINUOUS
 62
    7
 10
1921.6122080520538
 20
838.88148955425572
 11
1921.6122080520538
 21
848.88148955425572
  0
LINE
  8
_0-0_
  6
CONTINUOUS
 62
    7
 10
1926.6122080520538
 20
838.88148955425572
 11
1926.6122080520538
 21
848.88148955425572
  0
LINE
  8
_0-0_
  6
CONTINUOUS
 62
    7
 10
1920.6122080520538
 20
838.88148955425572
 11
1920.6122080520538
 21
848.88148955425572
  0
LINE
  8
_0-0_
  6
CONTINUOUS
 62
    7
 10
1921.6122080520538
 20
838.88148955425572
 11
1921.6122080520538
 21
838.38148955425572
  0
LINE
  8
_0-0_
  6
CONTINUOUS
 62
    7
 10
1926.6122080520538
 20
848.88148955425572
 11
1909.6122080520538
 21
848.88148955425572
  0
LINE
  8
_0-0_
  6
CONTINUOUS
 62
    7
 10
1921.6122080520538
 20
848.88148955425572
 11
1921.6122080520538
 21
849.38148955425572
  0
LINE
  8
_0-0_
  6
CONTINUOUS
 62
    7
 10
1914.6122080520538
 20
849.38148955425572
 11
1921.6122080520538
 21
849.38148955425572
  0
LINE
  8
_0-0_
  6
CONTINUOUS
 62
    7
 10
1914.6122080520538
 20
848.88148955425572
 11
1914.6122080520538
 21
849.38148955425572
  0
LINE
  8
_0-0_
  6
CONTINUOUS
 62
    7
 10
1928.1122080520538
 20
1969.4199895542556
 11
1908.1122080520538
 21
1969.4199895542556
  0
LINE
  8
_0-0_
  6
CONTINUOUS
 62
    7
 10
1928.1122080520538
 20
1734.9199895542556
 11
1908.1122080520538
 21
1734.9199895542556
  0
LINE
  8
_0-0_
  6
CONTINUOUS
 62
    7
 10
688.1122080520538
 20
1969.4199895542556
 11
708.1122080520538
 21
1969.4199895542556
  0
LINE
  8
_0-0_
  6
CONTINUOUS
 62
    7
 10
708.1122080520538
 20
1734.9199895542556
 11
688.1122080520538
 21
1734.9199895542556
  0
LINE
  8
_0-0_
  6
CONTINUOUS
 62
    7
 10
1928.1122080520538
 20
961.13148955425572
 11
1908.1122080520538
 21
961.13148955425572
  0
LINE
  8
_0-0_
  6
CONTINUOUS
 62
    7
 10
708.1122080520538
 20
726.63148955425572
 11
688.1122080520538
 21
726.63148955425572
  0
LINE
  8
_0-0_
  6
CONTINUOUS
 62
    7
 10
688.1122080520538
 20
961.13148955425572
 11
708.1122080520538
 21
961.13148955425572
  0
LINE
  8
_0-0_
  6
CONTINUOUS
 62
    7
 10
1850.6612080520537
 20
1180.1614895542556
 11
1830.8557080520538
 21
1180.1614895542556
  0
LINE
  8
_0-0_
  6
CONTINUOUS
 62
    7
 10
1850.6612080520537
 20
1533.5954895542556
 11
1830.5297080520538
 21
1533.5954895542556
  0
LINE
  8
_0-0_
  6
CONTINUOUS
 62
    7
 10
1830.5297080520538
 20
1533.5954895542556
 11
1841.2487080520538
 21
1539.7839895542556
  0
LINE
  8
_0-0_
  6
CONTINUOUS
 62
    7
 10
1830.8557080520538
 20
1180.1614895542556
 11
1839.7417080520538
 21
1175.0314895542558
  0
LINE
  8
_0-0_
  6
CONTINUOUS
 62
    7
 10
1839.7417080520538
 20
1175.0314895542558
 11
1839.7417080520538
 21
1183.7514895542558
  0
LINE
  8
_0-0_
  6
CONTINUOUS
 62
    7
 10
1841.2487080520538
 20
1539.7839895542556
 11
1841.2487080520538
 21
1528.5509895542556
  0
LINE
  8
_0-0_
  6
CONTINUOUS
 62
    7
 10
1908.1122080520538
 20
1215.4089895542556
 11
708.1122080520538
 21
1215.4089895542556
  0
LINE
  8
_0-0_
  6
CONTINUOUS
 62
    7
 10
1908.1122080520538
 20
1957.1699895542556
 11
1315.4122080520537
 21
1957.1699895542556
  0
LINE
  8
_0-0_
  6
CONTINUOUS
 62
    7
 10
1908.1122080520538
 20
1947.1699895542556
 11
1315.4122080520537
 21
1947.1699895542556
  0
LINE
  8
_0-0_
  6
CONTINUOUS
 62
    7
 10
1908.1122080520538
 20
1917.1699895542556
 11
1315.4122080520537
 21
1917.1699895542556
  0
LINE
  8
_0-0_
  6
CONTINUOUS
 62
    7
 10
1908.1122080520538
 20
1907.1699895542556
 11
1315.4122080520537
 21
1907.1699895542556
  0
LINE
  8
_0-0_
  6
CONTINUOUS
 62
    7
 10
1908.1122080520538
 20
1877.1699895542556
 11
1315.4122080520537
 21
1877.1699895542556
  0
LINE
  8
_0-0_
  6
CONTINUOUS
 62
    7
 10
1908.1122080520538
 20
1867.1699895542556
 11
1315.4122080520537
 21
1867.1699895542556
  0
LINE
  8
_0-0_
  6
CONTINUOUS
 62
    7
 10
1908.1122080520538
 20
1837.1699895542556
 11
1315.4122080520537
 21
1837.1699895542556
  0
LINE
  8
_0-0_
  6
CONTINUOUS
 62
    7
 10
1908.1122080520538
 20
1827.1699895542556
 11
1315.4122080520537
 21
1827.1699895542556
  0
LINE
  8
_0-0_
  6
CONTINUOUS
 62
    7
 10
1908.1122080520538
 20
1797.1699895542556
 11
1315.4122080520537
 21
1797.1699895542556
  0
LINE
  8
_0-0_
  6
CONTINUOUS
 62
    7
 10
1908.1122080520538
 20
1787.1699895542556
 11
1315.4122080520537
 21
1787.1699895542556
  0
LINE
  8
_0-0_
  6
CONTINUOUS
 62
    7
 10
1908.1122080520538
 20
1757.1699895542556
 11
1315.4122080520537
 21
1757.1699895542556
  0
LINE
  8
_0-0_
  6
CONTINUOUS
 62
    7
 10
1908.1122080520538
 20
1747.1699895542556
 11
1315.4122080520537
 21
1747.1699895542556
  0
LINE
  8
_0-0_
  6
CONTINUOUS
 62
    7
 10
708.1122080520538
 20
1957.1699895542556
 11
1300.8122080520538
 21
1957.1699895542556
  0
LINE
  8
_0-0_
  6
CONTINUOUS
 62
    7
 10
708.1122080520538
 20
1947.1699895542556
 11
1300.8122080520538
 21
1947.1699895542556
  0
LINE
  8
_0-0_
  6
CONTINUOUS
 62
    7
 10
708.1122080520538
 20
1917.1699895542556
 11
1300.8122080520538
 21
1917.1699895542556
  0
LINE
  8
_0-0_
  6
CONTINUOUS
 62
    7
 10
708.1122080520538
 20
1907.1699895542556
 11
1300.8122080520538
 21
1907.1699895542556
  0
LINE
  8
_0-0_
  6
CONTINUOUS
 62
    7
 10
708.1122080520538
 20
1877.1699895542556
 11
1300.8122080520538
 21
1877.1699895542556
  0
LINE
  8
_0-0_
  6
CONTINUOUS
 62
    7
 10
708.1122080520538
 20
1867.1699895542556
 11
1300.8122080520538
 21
1867.1699895542556
  0
LINE
  8
_0-0_
  6
CONTINUOUS
 62
    7
 10
708.1122080520538
 20
1837.1699895542556
 11
1300.8122080520538
 21
1837.1699895542556
  0
LINE
  8
_0-0_
  6
CONTINUOUS
 62
    7
 10
708.1122080520538
 20
1827.1699895542556
 11
1300.8122080520538
 21
1827.1699895542556
  0
LINE
  8
_0-0_
  6
CONTINUOUS
 62
    7
 10
708.1122080520538
 20
1797.1699895542556
 11
1300.8122080520538
 21
1797.1699895542556
  0
LINE
  8
_0-0_
  6
CONTINUOUS
 62
    7
 10
708.1122080520538
 20
1787.1699895542556
 11
1300.8122080520538
 21
1787.1699895542556
  0
LINE
  8
_0-0_
  6
CONTINUOUS
 62
    7
 10
708.1122080520538
 20
1757.1699895542556
 11
1300.8122080520538
 21
1757.1699895542556
  0
LINE
  8
_0-0_
  6
CONTINUOUS
 62
    7
 10
708.1122080520538
 20
1747.1699895542556
 11
1300.8122080520538
 21
1747.1699895542556
  0
LINE
  8
_0-0_
  6
CONTINUOUS
 62
    7
 10
708.1122080520538
 20
948.88148955425572
 11
1300.6122080520538
 21
948.88148955425572
  0
LINE
  8
_0-0_
  6
CONTINUOUS
 62
    7
 10
1315.6122080520538
 20
948.88148955425572
 11
1908.1122080520538
 21
948.88148955425572
  0
LINE
  8
_0-0_
  6
CONTINUOUS
 62
    7
 10
708.1122080520538
 20
938.88148955425572
 11
1300.6122080520538
 21
938.88148955425572
  0
LINE
  8
_0-0_
  6
CONTINUOUS
 62
    7
 10
1315.6122080520538
 20
938.88148955425572
 11
1908.1122080520538
 21
938.88148955425572
  0
LINE
  8
_0-0_
  6
CONTINUOUS
 62
    7
 10
708.1122080520538
 20
908.88148955425572
 11
1300.6122080520538
 21
908.88148955425572
  0
LINE
  8
_0-0_
  6
CONTINUOUS
 62
    7
 10
1315.6122080520538
 20
908.88148955425572
 11
1908.1122080520538
 21
908.88148955425572
  0
LINE
  8
_0-0_
  6
CONTINUOUS
 62
    7
 10
708.1122080520538
 20
898.88148955425572
 11
1300.6122080520538
 21
898.88148955425572
  0
LINE
  8
_0-0_
  6
CONTINUOUS
 62
    7
 10
1315.6122080520538
 20
898.88148955425572
 11
1908.1122080520538
 21
898.88148955425572
  0
LINE
  8
_0-0_
  6
CONTINUOUS
 62
    7
 10
708.1122080520538
 20
868.88148955425572
 11
1300.6122080520538
 21
868.88148955425572
  0
LINE
  8
_0-0_
  6
CONTINUOUS
 62
    7
 10
1315.6122080520538
 20
868.88148955425572
 11
1908.1122080520538
 21
868.88148955425572
  0
LINE
  8
_0-0_
  6
CONTINUOUS
 62
    7
 10
708.1122080520538
 20
858.88148955425572
 11
1300.6122080520538
 21
858.88148955425572
  0
LINE
  8
_0-0_
  6
CONTINUOUS
 62
    7
 10
1315.6122080520538
 20
858.88148955425572
 11
1908.1122080520538
 21
858.88148955425572
  0
LINE
  8
_0-0_
  6
CONTINUOUS
 62
    7
 10
708.1122080520538
 20
828.88148955425572
 11
1300.6122080520538
 21
828.88148955425572
  0
LINE
  8
_0-0_
  6
CONTINUOUS
 62
    7
 10
1315.6122080520538
 20
828.88148955425572
 11
1908.1122080520538
 21
828.88148955425572
  0
LINE
  8
_0-0_
  6
CONTINUOUS
 62
    7
 10
708.1122080520538
 20
818.88148955425572
 11
1300.6122080520538
 21
818.88148955425572
  0
LINE
  8
_0-0_
  6
CONTINUOUS
 62
    7
 10
1315.6122080520538
 20
818.88148955425572
 11
1908.1122080520538
 21
818.88148955425572
  0
LINE
  8
_0-0_
  6
CONTINUOUS
 62
    7
 10
708.1122080520538
 20
788.88148955425572
 11
1300.6122080520538
 21
788.88148955425572
  0
LINE
  8
_0-0_
  6
CONTINUOUS
 62
    7
 10
1315.6122080520538
 20
788.88148955425572
 11
1908.1122080520538
 21
788.88148955425572
  0
LINE
  8
_0-0_
  6
CONTINUOUS
 62
    7
 10
708.1122080520538
 20
778.88148955425572
 11
1300.6122080520538
 21
778.88148955425572
  0
LINE
  8
_0-0_
  6
CONTINUOUS
 62
    7
 10
1315.6122080520538
 20
778.88148955425572
 11
1908.1122080520538
 21
778.88148955425572
  0
LINE
  8
_0-0_
  6
CONTINUOUS
 62
    7
 10
708.1122080520538
 20
748.88148955425572
 11
1300.6122080520538
 21
748.88148955425572
  0
LINE
  8
_0-0_
  6
CONTINUOUS
 62
    7
 10
1315.6122080520538
 20
748.88148955425572
 11
1908.1122080520538
 21
748.88148955425572
  0
LINE
  8
_0-0_
  6
CONTINUOUS
 62
    7
 10
708.1122080520538
 20
738.88148955425572
 11
1300.6122080520538
 21
738.88148955425572
  0
LINE
  8
_0-0_
  6
CONTINUOUS
 62
    7
 10
1315.6122080520538
 20
738.88148955425572
 11
1908.1122080520538
 21
738.88148955425572
  0
LINE
  8
_0-0_
  6
CONTINUOUS
 62
    7
 10
1939.8297080520537
 20
798.62148955425573
 11
1937.7332080520538
 21
797.00548955425574
  0
LINE
  8
_0-0_
  6
CONTINUOUS
 62
    7
 10
1937.7332080520538
 20
797.00548955425574
 11
1935.5907080520537
 21
795.46848955425571
  0
LINE
  8
_0-0_
  6
CONTINUOUS
 62
    7
 10
1935.5907080520537
 20
795.46848955425571
 11
1933.3557080520538
 21
794.08948955425569
  0
LINE
  8
_0-0_
  6
CONTINUOUS
 62
    7
 10
1933.3557080520538
 20
794.08948955425569
 11
1931.2732080520538
 21
793.05198955425566
  0
LINE
  8
_0-0_
  6
CONTINUOUS
 62
    7
 10
1931.2732080520538
 20
793.05198955425566
 11
1929.1067080520538
 21
792.17998955425571
  0
LINE
  8
_0-0_
  6
CONTINUOUS
 62
    7
 10
1929.1067080520538
 20
792.17998955425571
 11
1926.8792080520538
 21
791.45348955425572
  0
LINE
  8
_0-0_
  6
CONTINUOUS
 62
    7
 10
1926.8792080520538
 20
791.45348955425572
 11
1924.6157080520538
 21
790.85248955425572
  0
LINE
  8
_0-0_
  6
CONTINUOUS
 62
    7
 10
1924.6157080520538
 20
790.85248955425572
 11
1922.3427080520539
 21
790.35198955425573
  0
LINE
  8
_0-0_
  6
CONTINUOUS
 62
    7
 10
1922.3427080520539
 20
790.35198955425573
 11
1920.0657080520538
 21
789.89998955425573
  0
LINE
  8
_0-0_
  6
CONTINUOUS
 62
    7
 10
1920.0657080520538
 20
789.89998955425573
 11
1917.7917080520537
 21
789.43898955425572
  0
LINE
  8
_0-0_
  6
CONTINUOUS
 62
    7
 10
1917.7917080520537
 20
789.43898955425572
 11
1915.5292080520539
 21
788.91248955425567
  0
LINE
  8
_0-0_
  6
CONTINUOUS
 62
    7
 10
1915.5292080520539
 20
788.91248955425567
 11
1913.286208052054
 21
788.26298955425568
  0
LINE
  8
_0-0_
  6
CONTINUOUS
 62
    7
 10
1913.286208052054
 20
788.26298955425568
 11
1910.3232080520538
 21
787.12148955425573
  0
LINE
  8
_0-0_
  6
CONTINUOUS
 62
    7
 10
1910.3232080520538
 20
787.12148955425573
 11
1907.4782080520537
 21
785.6659895542557
  0
LINE
  8
_0-0_
  6
CONTINUOUS
 62
    7
 10
1907.4782080520537
 20
785.6659895542557
 11
1904.8197080520537
 21
783.90748955425578
  0
LINE
  8
_0-0_
  6
CONTINUOUS
 62
    7
 10
1904.8197080520537
 20
783.90748955425578
 11
1902.4167080520537
 21
781.85598955425575
  0
LINE
  8
_0-0_
  6
CONTINUOUS
 62
    7
 10
1902.4167080520537
 20
781.85598955425575
 11
1900.3382080520539
 21
779.52298955425567
  0
LINE
  8
_0-0_
  6
CONTINUOUS
 62
    7
 10
1900.3382080520539
 20
779.52298955425567
 11
1898.9242080520539
 21
777.45598955425566
  0
LINE
  8
_0-0_
  6
CONTINUOUS
 62
    7
 10
1898.9242080520539
 20
777.45598955425566
 11
1897.6632080520537
 21
775.2764895542557
  0
LINE
  8
_0-0_
  6
CONTINUOUS
 62
    7
 10
1897.6632080520537
 20
775.2764895542557
 11
1896.4537080520537
 21
773.04898955425574
  0
LINE
  8
_0-0_
  6
CONTINUOUS
 62
    7
 10
1896.4537080520537
 20
773.04898955425574
 11
1895.1757080520537
 21
770.74598955425574
  0
LINE
  8
_0-0_
  6
CONTINUOUS
 62
    7
 10
1895.1757080520537
 20
770.74598955425574
 11
1893.8987080520537
 21
768.44448955425571
  0
LINE
  8
_0-0_
  6
CONTINUOUS
 62
    7
 10
1893.8987080520537
 20
768.44448955425571
 11
1892.6782080520538
 21
766.12898955425566
  0
LINE
  8
_0-0_
  6
CONTINUOUS
 62
    7
 10
1892.6782080520538
 20
766.12898955425566
 11
1891.5697080520537
 21
763.78448955425574
  0
LINE
  8
_0-0_
  6
CONTINUOUS
 62
    7
 10
1891.5697080520537
 20
763.78448955425574
 11
1890.6272080520539
 21
761.39598955425572
  0
LINE
  8
_0-0_
  6
CONTINUOUS
 62
    7
 10
1890.6272080520539
 20
761.39598955425572
 11
1889.8247080520538
 21
758.68548955425569
  0
LINE
  8
_0-0_
  6
CONTINUOUS
 62
    7
 10
1889.8247080520538
 20
758.68548955425569
 11
1889.2457080520539
 21
755.90398955425575
  0
LINE
  8
_0-0_
  6
CONTINUOUS
 62
    7
 10
1889.2457080520539
 20
755.90398955425575
 11
1888.8407080520537
 21
753.05348955425574
  0
LINE
  8
_0-0_
  6
CONTINUOUS
 62
    7
 10
1888.8407080520537
 20
753.05348955425574
 11
1888.5622080520538
 21
750.13598955425572
  0
LINE
  8
_0-0_
  6
CONTINUOUS
 62
    7
 10
1888.5622080520538
 20
750.13598955425572
 11
1888.3612080520538
 21
747.15348955425565
  0
LINE
  8
_0-0_
  6
CONTINUOUS
 62
    7
 10
1888.3612080520538
 20
747.15348955425565
 11
1888.1927080520538
 21
744.74498955425565
  0
LINE
  8
_0-0_
  6
CONTINUOUS
 62
    7
 10
1888.1927080520538
 20
744.74498955425565
 11
1887.8317080520539
 21
742.43348955425562
  0
LINE
  8
_0-0_
  6
CONTINUOUS
 62
    7
 10
1887.8317080520539
 20
742.43348955425562
 11
1887.0667080520538
 21
740.35548955425565
  0
LINE
  8
_0-0_
  6
CONTINUOUS
 62
    7
 10
1887.0667080520538
 20
740.35548955425565
 11
1885.7677080520538
 21
738.61398955425568
  0
LINE
  8
_0-0_
  6
CONTINUOUS
 62
    7
 10
1885.7677080520538
 20
738.61398955425568
 11
1884.0697080520537
 21
737.10198955425573
  0
LINE
  8
_0-0_
  6
CONTINUOUS
 62
    7
 10
1884.0697080520537
 20
737.10198955425573
 11
1882.1792080520538
 21
735.68398955425573
  0
LINE
  8
_0-0_
  6
CONTINUOUS
 62
    7
 10
1882.1792080520538
 20
735.68398955425573
 11
1880.3037080520539
 21
734.22398955425569
  0
LINE
  8
_0-0_
  6
CONTINUOUS
 62
    7
 10
1880.3037080520539
 20
734.22398955425569
 11
1878.6507080520539
 21
732.58698955425575
  0
LINE
  8
_0-0_
  6
CONTINUOUS
 62
    7
 10
1878.6507080520539
 20
732.58698955425575
 11
1877.4797080520538
 21
730.85098955425576
  0
LINE
  8
_0-0_
  6
CONTINUOUS
 62
    7
 10
1877.4797080520538
 20
730.85098955425576
 11
1876.6347080520538
 21
728.91698955425567
  0
LINE
  8
_0-0_
  6
CONTINUOUS
 62
    7
 10
1876.6347080520538
 20
728.91698955425567
 11
1876.0837080520539
 21
726.84748955425573
  0
LINE
  8
_0-0_
  6
CONTINUOUS
 62
    7
 10
1876.0837080520539
 20
726.84748955425573
 11
1875.7952080520537
 21
724.70498955425568
  0
LINE
  8
_0-0_
  6
CONTINUOUS
 62
    7
 10
1875.7952080520537
 20
724.70498955425568
 11
1875.7372080520538
 21
722.55198955425566
  0
LINE
  8
_0-0_
  6
CONTINUOUS
 62
    7
 10
1875.7372080520538
 20
722.55198955425566
 11
1875.8802080520538
 21
720.40048955425572
  0
LINE
  8
_0-0_
  6
CONTINUOUS
 62
    7
 10
1875.8802080520538
 20
720.40048955425572
 11
1876.1777080520537
 21
718.28948955425562
  0
LINE
  8
_0-0_
  6
CONTINUOUS
 62
    7
 10
1876.1777080520537
 20
718.28948955425562
 11
1876.5792080520539
 21
716.20598955425566
  0
LINE
  8
_0-0_
  6
CONTINUOUS
 62
    7
 10
1876.5792080520539
 20
716.20598955425566
 11
1877.0322080520538
 21
714.13598955425572
  0
LINE
  8
_0-0_
  6
CONTINUOUS
 62
    7
 10
1927.1122080520538
 20
728.88148955425572
 11
1909.1122080520538
 21
728.88148955425572
  0
LINE
  8
_0-0_
  6
CONTINUOUS
 62
    7
 10
2269.2447080520541
 20
1204.4089895542556
 11
2269.2447080520541
 21
1492.4089895542556
  0
LINE
  8
_0-0_
  6
CONTINUOUS
 62
    7
 10
2503.7447080520537
 20
1492.4089895542556
 11
2503.7447080520537
 21
1204.4089895542556
  0
LINE
  8
_0-0_
  6
CONTINUOUS
 62
    7
 10
2275.2447080520537
 20
1198.4089895542556
 11
2497.7447080520537
 21
1198.4089895542556
  0
LINE
  8
_0-0_
  6
CONTINUOUS
 62
    7
 10
2271.2447080520541
 20
1204.4089895542556
 11
2271.2447080520541
 21
1492.4089895542556
  0
LINE
  8
_0-0_
  6
CONTINUOUS
 62
    7
 10
2497.7447080520537
 20
1200.4089895542556
 11
2275.2447080520537
 21
1200.4089895542556
  0
LINE
  8
_0-0_
  6
CONTINUOUS
 62
    7
 10
2501.7447080520537
 20
1492.4089895542556
 11
2501.7447080520537
 21
1204.4089895542556
  0
LINE
  8
_0-0_
  6
CONTINUOUS
 62
    7
 10
2401.4947080520537
 20
1494.4089895542556
 11
2401.4947080520537
 21
1496.4089895542556
  0
LINE
  8
_0-0_
  6
CONTINUOUS
 62
    7
 10
2401.4947080520537
 20
1494.4089895542556
 11
2371.4947080520537
 21
1494.4089895542556
  0
LINE
  8
_0-0_
  6
CONTINUOUS
 62
    7
 10
2371.4947080520537
 20
1496.4089895542556
 11
2371.4947080520537
 21
1498.4089895542556
  0
LINE
  8
_0-0_
  6
CONTINUOUS
 62
    7
 10
2275.2447080520537
 20
1498.4089895542556
 11
2368.0307080520537
 21
1498.4089895542556
  0
LINE
  8
_0-0_
  6
CONTINUOUS
 62
    7
 10
2371.4947080520537
 20
1498.4089895542556
 11
2497.7447080520537
 21
1498.4089895542556
  0
LINE
  8
_0-0_
  6
CONTINUOUS
 62
    7
 10
2368.0307080520537
 20
1498.4089895542556
 11
2275.2447080520537
 21
1498.4089895542556
  0
LINE
  8
_0-0_
  6
CONTINUOUS
 62
    7
 10
2371.4947080520537
 20
1498.4089895542556
 11
2497.7447080520537
 21
1498.4089895542556
  0
LINE
  8
_0-0_
  6
CONTINUOUS
 62
    7
 10
2367.0227080520535
 20
1496.4089895542556
 11
2275.2447080520537
 21
1496.4089895542556
  0
LINE
  8
_0-0_
  6
CONTINUOUS
 62
    7
 10
2371.4947080520537
 20
1496.4089895542556
 11
2497.7447080520537
 21
1496.4089895542556
  0
LINE
  8
_0-0_
  6
CONTINUOUS
 62
    7
 10
2501.4947080520537
 20
1204.4089895542556
 11
2501.4947080520537
 21
1217.4089895542556
  0
LINE
  8
_0-0_
  6
CONTINUOUS
 62
    7
 10
2271.4947080520537
 20
1204.4089895542556
 11
2271.4947080520537
 21
1217.4089895542556
  0
LINE
  8
_0-0_
  6
CONTINUOUS
 62
    7
 10
2500.4947080520537
 20
1218.4089895542556
 11
2272.4947080520541
 21
1218.4089895542556
  0
LINE
  8
_0-0_
  6
CONTINUOUS
 62
    7
 10
2725.757208052054
 20
1204.4089895542556
 11
2725.757208052054
 21
1492.4089895542556
  0
LINE
  8
_0-0_
  6
CONTINUOUS
 62
    7
 10
2960.257208052054
 20
1492.4089895542556
 11
2960.257208052054
 21
1204.4089895542556
  0
LINE
  8
_0-0_
  6
CONTINUOUS
 62
    7
 10
2731.7572080520535
 20
1198.4089895542556
 11
2954.2572080520535
 21
1198.4089895542556
  0
LINE
  8
_0-0_
  6
CONTINUOUS
 62
    7
 10
2727.757208052054
 20
1204.4089895542556
 11
2727.757208052054
 21
1492.4089895542556
  0
LINE
  8
_0-0_
  6
CONTINUOUS
 62
    7
 10
2954.2572080520535
 20
1200.4089895542556
 11
2731.7572080520535
 21
1200.4089895542556
  0
LINE
  8
_0-0_
  6
CONTINUOUS
 62
    7
 10
2958.257208052054
 20
1492.4089895542556
 11
2958.257208052054
 21
1204.4089895542556
  0
LINE
  8
_0-0_
  6
CONTINUOUS
 62
    7
 10
2858.0072080520535
 20
1494.4089895542556
 11
2858.0072080520535
 21
1496.4089895542556
  0
LINE
  8
_0-0_
  6
CONTINUOUS
 62
    7
 10
2858.0072080520535
 20
1494.4089895542556
 11
2828.0072080520535
 21
1494.4089895542556
  0
LINE
  8
_0-0_
  6
CONTINUOUS
 62
    7
 10
2828.0072080520535
 20
1496.4089895542556
 11
2828.0072080520535
 21
1498.4089895542556
  0
LINE
  8
_0-0_
  6
CONTINUOUS
 62
    7
 10
2731.7572080520535
 20
1498.4089895542556
 11
2824.543208052054
 21
1498.4089895542556
  0
LINE
  8
_0-0_
  6
CONTINUOUS
 62
    7
 10
2828.0072080520535
 20
1498.4089895542556
 11
2954.507208052054
 21
1498.4089895542556
  0
LINE
  8
_0-0_
  6
CONTINUOUS
 62
    7
 10
2824.543208052054
 20
1498.4089895542556
 11
2731.7572080520535
 21
1498.4089895542556
  0
LINE
  8
_0-0_
  6
CONTINUOUS
 62
    7
 10
2828.0072080520535
 20
1498.4089895542556
 11
2954.2572080520535
 21
1498.4089895542556
  0
LINE
  8
_0-0_
  6
CONTINUOUS
 62
    7
 10
2823.5352080520538
 20
1496.4089895542556
 11
2731.7572080520535
 21
1496.4089895542556
  0
LINE
  8
_0-0_
  6
CONTINUOUS
 62
    7
 10
2828.0072080520535
 20
1496.4089895542556
 11
2954.2572080520535
 21
1496.4089895542556
  0
LINE
  8
_0-0_
  6
CONTINUOUS
 62
    7
 10
2735.1072080520534
 20
1210.4089895542556
 11
2735.1072080520534
 21
1201.4089895542556
  0
LINE
  8
_0-0_
  6
CONTINUOUS
 62
    7
 10
2950.9072080520536
 20
1210.4089895542556
 11
2950.9072080520536
 21
1201.4089895542556
  0
LINE
  8
_0-0_
  6
CONTINUOUS
 62
    7
 10
2751.851208052054
 20
1210.4089895542556
 11
2774.163708052054
 21
1210.4089895542556
  0
LINE
  8
_0-0_
  6
CONTINUOUS
 62
    7
 10
2791.851208052054
 20
1210.4089895542556
 11
2814.163708052054
 21
1210.4089895542556
  0
LINE
  8
_0-0_
  6
CONTINUOUS
 62
    7
 10
2831.851208052054
 20
1210.4089895542556
 11
2854.163708052054
 21
1210.4089895542556
  0
LINE
  8
_0-0_
  6
CONTINUOUS
 62
    7
 10
2871.851208052054
 20
1210.4089895542556
 11
2894.163708052054
 21
1210.4089895542556
  0
LINE
  8
_0-0_
  6
CONTINUOUS
 62
    7
 10
2911.851208052054
 20
1210.4089895542556
 11
2934.163708052054
 21
1210.4089895542556
  0
LINE
  8
_0-0_
  6
CONTINUOUS
 62
    7
 10
2954.2572080520535
 20
1200.4089895542556
 11
2731.7572080520535
 21
1200.4089895542556
  0
LINE
  8
_0-0_
  6
CONTINUOUS
 62
    7
 10
2775.6447080520538
 20
1204.4089895542556
 11
2750.3702080520538
 21
1204.4089895542556
  0
LINE
  8
_0-0_
  6
CONTINUOUS
 62
    7
 10
2815.6447080520538
 20
1204.4089895542556
 11
2790.3702080520538
 21
1204.4089895542556
  0
LINE
  8
_0-0_
  6
CONTINUOUS
 62
    7
 10
2855.6447080520538
 20
1204.4089895542556
 11
2830.3702080520538
 21
1204.4089895542556
  0
LINE
  8
_0-0_
  6
CONTINUOUS
 62
    7
 10
2895.6447080520538
 20
1204.4089895542556
 11
2870.3702080520538
 21
1204.4089895542556
  0
LINE
  8
_0-0_
  6
CONTINUOUS
 62
    7
 10
2935.6447080520538
 20
1204.4089895542556
 11
2910.3702080520538
 21
1204.4089895542556
  0
LINE
  8
_0-0_
  6
CONTINUOUS
 62
    7
 10
2451.061208052054
 20
1912.0929895542558
 11
2361.061208052054
 21
1912.0929895542558
  0
LINE
  8
_0-0_
  6
CONTINUOUS
 62
    7
 10
2356.061208052054
 20
1827.0929895542556
 11
2356.061208052054
 21
1907.0929895542558
  0
LINE
  8
_0-0_
  6
CONTINUOUS
 62
    7
 10
2456.0612080520536
 20
1907.0929895542558
 11
2456.0612080520536
 21
1827.0929895542556
  0
LINE
  8
_0-0_
  6
CONTINUOUS
 62
    7
 10
2367.311208052054
 20
1842.0929895542558
 11
2361.061208052054
 21
1842.0929895542558
  0
LINE
  8
_0-0_
  6
CONTINUOUS
 62
    7
 10
2389.811208052054
 20
1822.0929895542556
 11
2389.811208052054
 21
1850.5929895542558
  0
LINE
  8
_0-0_
  6
CONTINUOUS
 62
    7
 10
2422.311208052054
 20
1822.0929895542556
 11
2422.311208052054
 21
1850.5929895542558
  0
LINE
  8
_0-0_
  6
CONTINUOUS
 62
    7
 10
2372.311208052054
 20
1847.0929895542558
 11
2372.311208052054
 21
1907.0929895542558
  0
LINE
  8
_0-0_
  6
CONTINUOUS
 62
    7
 10
2456.0612080520536
 20
1822.0929895542556
 11
2451.061208052054
 21
1822.0929895542556
  0
LINE
  8
_0-0_
  6
CONTINUOUS
 62
    7
 10
2356.061208052054
 20
1822.0929895542556
 11
2361.061208052054
 21
1822.0929895542556
  0
LINE
  8
_0-0_
  6
CONTINUOUS
 62
    7
 10
2356.061208052054
 20
1822.0929895542556
 11
2356.061208052054
 21
1812.0929895542556
  0
LINE
  8
_0-0_
  6
CONTINUOUS
 62
    7
 10
2456.0612080520536
 20
1812.0929895542556
 11
2456.0612080520536
 21
1822.0929895542556
  0
LINE
  8
_0-0_
  6
CONTINUOUS
 62
    7
 10
2356.061208052054
 20
1822.0929895542556
 11
2356.061208052054
 21
1827.0929895542556
  0
LINE
  8
_0-0_
  6
CONTINUOUS
 62
    7
 10
2456.0612080520536
 20
1822.0929895542556
 11
2456.0612080520536
 21
1827.0929895542556
  0
LINE
  8
_0-0_
  6
CONTINUOUS
 62
    7
 10
2423.561208052054
 20
1812.0929895542556
 11
2423.561208052054
 21
1822.0929895542556
  0
LINE
  8
_0-0_
  6
CONTINUOUS
 62
    7
 10
2388.561208052054
 20
1812.0929895542556
 11
2388.561208052054
 21
1822.0929895542556
  0
LINE
  8
_0-0_
  6
CONTINUOUS
 62
    7
 10
2391.061208052054
 20
1850.8814895542557
 11
2385.061208052054
 21
1854.3459895542557
  0
LINE
  8
_0-0_
  6
CONTINUOUS
 62
    7
 10
2421.061208052054
 20
1850.8814895542557
 11
2427.061208052054
 21
1854.3459895542557
  0
LINE
  8
_0-0_
  6
CONTINUOUS
 62
    7
 10
2422.311208052054
 20
1850.5929895542558
 11
2429.811208052054
 21
1854.9229895542557
  0
LINE
  8
_0-0_
  6
CONTINUOUS
 62
    7
 10
2389.811208052054
 20
1850.5929895542558
 11
2382.311208052054
 21
1854.9229895542557
  0
LINE
  8
_0-0_
  6
CONTINUOUS
 62
    7
 10
2382.311208052054
 20
1854.9229895542557
 11
2382.311208052054
 21
1912.0929895542558
  0
LINE
  8
_0-0_
  6
CONTINUOUS
 62
    7
 10
2429.811208052054
 20
1854.9229895542557
 11
2429.811208052054
 21
1912.0929895542558
  0
LINE
  8
_0-0_
  6
CONTINUOUS
 62
    7
 10
2392.061208052054
 20
1852.6134895542556
 11
2386.061208052054
 21
1856.0779895542557
  0
LINE
  8
_0-0_
  6
CONTINUOUS
 62
    7
 10
2420.061208052054
 20
1852.6134895542556
 11
2426.061208052054
 21
1856.0779895542557
  0
LINE
  8
_0-0_
  6
CONTINUOUS
 62
    7
 10
2403.5987080520535
 20
1886.6739895542557
 11
2384.0987080520535
 21
1858.6574895542557
  0
LINE
  8
_0-0_
  6
CONTINUOUS
 62
    7
 10
2408.5232080520536
 20
1886.6739895542557
 11
2428.0232080520536
 21
1858.6574895542557
  0
LINE
  8
_0-0_
  6
CONTINUOUS
 62
    7
 10
2405.2402080520541
 20
1885.5314895542555
 11
2385.7402080520537
 21
1857.5149895542556
  0
LINE
  8
_0-0_
  6
CONTINUOUS
 62
    7
 10
2406.8817080520539
 20
1885.5314895542555
 11
2426.3817080520539
 21
1857.5149895542556
  0
LINE
  8
_0-0_
  6
CONTINUOUS
 62
    7
 10
2448.561208052054
 20
1810.0929895542558
 11
2448.561208052054
 21
1812.0929895542556
  0
LINE
  8
_0-0_
  6
CONTINUOUS
 62
    7
 10
2363.561208052054
 20
1810.0929895542558
 11
2363.561208052054
 21
1812.0929895542556
  0
LINE
  8
_0-0_
  6
CONTINUOUS
 62
    7
 10
2356.061208052054
 20
1812.0929895542556
 11
2390.561208052054
 21
1812.0929895542556
  0
LINE
  8
_0-0_
  6
CONTINUOUS
 62
    7
 10
2393.3897080520537
 20
1812.0929895542556
 11
2418.7327080520535
 21
1812.0929895542556
  0
LINE
  8
_0-0_
  6
CONTINUOUS
 62
    7
 10
2421.5612080520536
 20
1812.0929895542556
 11
2456.0612080520536
 21
1812.0929895542556
  0
LINE
  8
_0-0_
  6
CONTINUOUS
 62
    7
 10
2448.561208052054
 20
1810.0929895542558
 11
2421.5612080520536
 21
1810.0929895542558
  0
LINE
  8
_0-0_
  6
CONTINUOUS
 62
    7
 10
2390.561208052054
 20
1810.0929895542558
 11
2363.561208052054
 21
1810.0929895542558
  0
LINE
  8
_0-0_
  6
CONTINUOUS
 62
    7
 10
2391.5612080520536
 20
1813.0929895542558
 11
2391.5612080520536
 21
1850.0154895542557
  0
LINE
  8
_0-0_
  6
CONTINUOUS
 62
    7
 10
2393.561208052054
 20
1813.0929895542558
 11
2393.561208052054
 21
1850.0154895542557
  0
LINE
  8
_0-0_
  6
CONTINUOUS
 62
    7
 10
2418.561208052054
 20
1813.0929895542558
 11
2418.561208052054
 21
1850.0154895542557
  0
LINE
  8
_0-0_
  6
CONTINUOUS
 62
    7
 10
2420.561208052054
 20
1813.0929895542558
 11
2420.561208052054
 21
1850.0154895542557
  0
LINE
  8
_0-0_
  6
CONTINUOUS
 62
    7
 10
2382.311208052054
 20
1854.9229895542557
 11
2384.3437080520538
 21
1854.9229895542557
  0
LINE
  8
_0-0_
  6
CONTINUOUS
 62
    7
 10
2429.811208052054
 20
1854.9229895542557
 11
2427.7782080520537
 21
1854.9229895542557
  0
LINE
  8
_0-0_
  6
CONTINUOUS
 62
    7
 10
2422.311208052054
 20
1850.5929895542558
 11
2420.7447080520537
 21
1850.5929895542558
  0
LINE
  8
_0-0_
  6
CONTINUOUS
 62
    7
 10
2391.377708052054
 20
1850.5929895542558
 11
2389.811208052054
 21
1850.5929895542558
  0
LINE
  8
_0-0_
  6
CONTINUOUS
 62
    7
 10
2451.061208052054
 20
1822.0929895542556
 11
2420.561208052054
 21
1822.0929895542556
  0
LINE
  8
_0-0_
  6
CONTINUOUS
 62
    7
 10
2418.561208052054
 20
1822.0929895542556
 11
2393.561208052054
 21
1822.0929895542556
  0
LINE
  8
_0-0_
  6
CONTINUOUS
 62
    7
 10
2391.5612080520536
 20
1822.0929895542556
 11
2361.061208052054
 21
1822.0929895542556
  0
LINE
  8
_0-0_
  6
CONTINUOUS
 62
    7
 10
2804.2357080520541
 20
1912.5264895542557
 11
2714.2357080520541
 21
1912.5264895542557
  0
LINE
  8
_0-0_
  6
CONTINUOUS
 62
    7
 10
2709.2357080520537
 20
1827.5264895542557
 11
2709.2357080520537
 21
1907.5264895542557
  0
LINE
  8
_0-0_
  6
CONTINUOUS
 62
    7
 10
2809.2357080520541
 20
1907.5264895542557
 11
2809.2357080520541
 21
1827.5264895542557
  0
LINE
  8
_0-0_
  6
CONTINUOUS
 62
    7
 10
2794.2357080520541
 20
1842.5264895542557
 11
2714.2357080520541
 21
1842.5264895542557
  0
LINE
  8
_0-0_
  6
CONTINUOUS
 62
    7
 10
2809.2357080520541
 20
1822.5264895542557
 11
2804.2357080520541
 21
1822.5264895542557
  0
LINE
  8
_0-0_
  6
CONTINUOUS
 62
    7
 10
2709.2357080520537
 20
1822.5264895542557
 11
2714.2357080520541
 21
1822.5264895542557
  0
LINE
  8
_0-0_
  6
CONTINUOUS
 62
    7
 10
2709.2357080520537
 20
1822.5264895542557
 11
2709.2357080520537
 21
1812.5264895542557
  0
LINE
  8
_0-0_
  6
CONTINUOUS
 62
    7
 10
2809.2357080520541
 20
1812.5264895542557
 11
2809.2357080520541
 21
1822.5264895542557
  0
LINE
  8
_0-0_
  6
CONTINUOUS
 62
    7
 10
2709.2357080520537
 20
1822.5264895542557
 11
2709.2357080520537
 21
1827.5264895542557
  0
LINE
  8
_0-0_
  6
CONTINUOUS
 62
    7
 10
2809.2357080520541
 20
1822.5264895542557
 11
2809.2357080520541
 21
1827.5264895542557
  0
LINE
  8
_0-0_
  6
CONTINUOUS
 62
    7
 10
2769.2357080520541
 20
1797.5264895542557
 11
2749.2357080520541
 21
1797.5264895542557
  0
LINE
  8
_0-0_
  6
CONTINUOUS
 62
    7
 10
2774.2357080520541
 20
1821.0264895542557
 11
2774.2357080520541
 21
1802.5264895542557
  0
LINE
  8
_0-0_
  6
CONTINUOUS
 62
    7
 10
2744.2357080520541
 20
1821.0264895542557
 11
2744.2357080520541
 21
1802.5264895542557
  0
LINE
  8
_0-0_
  6
CONTINUOUS
 62
    7
 10
2775.7357080520537
 20
1822.5264895542557
 11
2804.2357080520541
 21
1822.5264895542557
  0
LINE
  8
_0-0_
  6
CONTINUOUS
 62
    7
 10
2742.7357080520537
 20
1822.5264895542557
 11
2714.2357080520541
 21
1822.5264895542557
  0
LINE
  8
_0-0_
  6
CONTINUOUS
 62
    7
 10
2794.2357080520541
 20
1842.5264895542557
 11
2794.2357080520541
 21
1912.5264895542557
  0
LINE
  8
_0-0_
  6
CONTINUOUS
 62
    7
 10
2709.2357080520537
 20
1812.5264895542557
 11
2744.2357080520541
 21
1812.5264895542557
  0
LINE
  8
_0-0_
  6
CONTINUOUS
 62
    7
 10
2774.2357080520541
 20
1812.5264895542557
 11
2809.2357080520541
 21
1812.5264895542557
  0
LINE
  8
_0-0_
  6
CONTINUOUS
 62
    7
 10
2742.9857080520541
 20
1812.5264895542557
 11
2742.9857080520541
 21
1822.5054895542557
  0
LINE
  8
_0-0_
  6
CONTINUOUS
 62
    7
 10
2775.4857080520541
 20
1812.5264895542557
 11
2775.4857080520541
 21
1822.5054895542557
  0
LINE
  8
_0-0_
  6
CONTINUOUS
 62
    7
 10
2313.4947080520537
 20
1195.4089895542556
 11
2309.4947080520537
 21
1195.4089895542556
  0
LINE
  8
_0-0_
  6
CONTINUOUS
 62
    7
 10
2458.4947080520537
 20
1196.4089895542556
 11
2458.4947080520537
 21
1198.4089895542556
  0
LINE
  8
_0-0_
  6
CONTINUOUS
 62
    7
 10
2464.4947080520537
 20
1196.4089895542556
 11
2464.4947080520537
 21
1198.4089895542556
  0
LINE
  8
_0-0_
  6
CONTINUOUS
 62
    7
 10
2308.4947080520537
 20
1196.4089895542556
 11
2308.4947080520537
 21
1198.4089895542556
  0
LINE
  8
_0-0_
  6
CONTINUOUS
 62
    7
 10
2314.4947080520537
 20
1196.4089895542556
 11
2314.4947080520537
 21
1198.4089895542556
  0
LINE
  8
_0-0_
  6
CONTINUOUS
 62
    7
 10
2463.4947080520537
 20
1195.4089895542556
 11
2459.4947080520537
 21
1195.4089895542556
  0
LINE
  8
_0-0_
  6
CONTINUOUS
 62
    7
 10
2386.4947080520537
 20
1227.9809895542557
 11
2400.4697080520536
 21
1227.9809895542557
  0
LINE
  8
_0-0_
  6
CONTINUOUS
 62
    7
 10
2386.4947080520537
 20
1182.3664895542556
 11
2399.8182080520537
 21
1182.3664895542556
  0
LINE
  8
_0-0_
  6
CONTINUOUS
 62
    7
 10
2461.4947080520537
 20
1181.2264895542557
 11
2474.4302080520537
 21
1181.2264895542557
  0
LINE
  8
_0-0_
  6
CONTINUOUS
 62
    7
 10
2461.4947080520537
 20
1229.7729895542556
 11
2473.7787080520538
 21
1229.7729895542556
  0
LINE
  8
_0-0_
  6
CONTINUOUS
 62
    7
 10
2473.7787080520538
 20
1229.7729895542556
 11
2468.0422080520538
 21
1233.0849895542557
  0
LINE
  8
_0-0_
  6
CONTINUOUS
 62
    7
 10
2400.4697080520536
 20
1227.9809895542557
 11
2394.5077080520541
 21
1231.4234895542556
  0
LINE
  8
_0-0_
  6
CONTINUOUS
 62
    7
 10
2399.8182080520537
 20
1182.3664895542556
 11
2392.9577080520539
 21
1178.4054895542558
  0
LINE
  8
_0-0_
  6
CONTINUOUS
 62
    7
 10
2474.4302080520537
 20
1181.2264895542557
 11
2466.9172080520538
 21
1176.8884895542557
  0
LINE
  8
_0-0_
  6
CONTINUOUS
 62
    7
 10
2466.9172080520538
 20
1176.8884895542557
 11
2466.9172080520538
 21
1185.3804895542557
  0
LINE
  8
_0-0_
  6
CONTINUOUS
 62
    7
 10
2468.0422080520538
 20
1233.0849895542557
 11
2468.0422080520538
 21
1227.4109895542558
  0
LINE
  8
_0-0_
  6
CONTINUOUS
 62
    7
 10
2392.9577080520539
 20
1178.4054895542558
 11
2392.9577080520539
 21
1185.2174895542557
  0
LINE
  8
_0-0_
  6
CONTINUOUS
 62
    7
 10
2394.5077080520541
 20
1231.4234895542556
 11
2394.5077080520541
 21
1225.4559895542556
  0
LINE
  8
_0-0_
  6
CONTINUOUS
 62
    7
 10
2386.2867080520536
 20
1822.0929895542556
 11
2389.811208052054
 21
1825.6169895542557
  0
LINE
  8
_0-0_
  6
CONTINUOUS
 62
    7
 10
2379.2157080520537
 20
1822.0929895542556
 11
2389.811208052054
 21
1832.6879895542556
  0
LINE
  8
_0-0_
  6
CONTINUOUS
 62
    7
 10
2372.1447080520538
 20
1822.0929895542556
 11
2389.811208052054
 21
1839.7589895542557
  0
LINE
  8
_0-0_
  6
CONTINUOUS
 62
    7
 10
2365.0737080520539
 20
1822.0929895542556
 11
2389.811208052054
 21
1846.8304895542555
  0
LINE
  8
_0-0_
  6
CONTINUOUS
 62
    7
 10
2358.632208052054
 20
1822.7224895542556
 11
2387.7137080520537
 21
1851.8039895542556
  0
LINE
  8
_0-0_
  6
CONTINUOUS
 62
    7
 10
2356.061208052054
 20
1827.2224895542558
 11
2383.230708052054
 21
1854.3919895542558
  0
LINE
  8
_0-0_
  6
CONTINUOUS
 62
    7
 10
2356.061208052054
 20
1834.2934895542557
 11
2363.8607080520537
 21
1842.0929895542558
  0
LINE
  8
_0-0_
  6
CONTINUOUS
 62
    7
 10
2372.311208052054
 20
1850.5434895542557
 11
2382.311208052054
 21
1860.5434895542557
  0
LINE
  8
_0-0_
  6
CONTINUOUS
 62
    7
 10
2372.311208052054
 20
1857.6144895542556
 11
2382.311208052054
 21
1867.6144895542556
  0
LINE
  8
_0-0_
  6
CONTINUOUS
 62
    7
 10
2372.311208052054
 20
1864.6854895542555
 11
2382.311208052054
 21
1874.6854895542555
  0
LINE
  8
_0-0_
  6
CONTINUOUS
 62
    7
 10
2372.311208052054
 20
1871.7564895542557
 11
2382.311208052054
 21
1881.7564895542557
  0
LINE
  8
_0-0_
  6
CONTINUOUS
 62
    7
 10
2372.311208052054
 20
1878.8279895542557
 11
2382.311208052054
 21
1888.8279895542557
  0
LINE
  8
_0-0_
  6
CONTINUOUS
 62
    7
 10
2372.311208052054
 20
1885.8989895542556
 11
2382.311208052054
 21
1895.8989895542556
  0
LINE
  8
_0-0_
  6
CONTINUOUS
 62
    7
 10
2372.311208052054
 20
1892.9699895542557
 11
2382.311208052054
 21
1902.9699895542557
  0
LINE
  8
_0-0_
  6
CONTINUOUS
 62
    7
 10
2372.311208052054
 20
1900.0409895542557
 11
2382.311208052054
 21
1910.0409895542557
  0
LINE
  8
_0-0_
  6
CONTINUOUS
 62
    7
 10
2372.311208052054
 20
1907.1119895542556
 11
2377.2917080520537
 21
1912.0929895542558
  0
LINE
  8
_0-0_
  6
CONTINUOUS
 62
    7
 10
2449.9267080520539
 20
1822.0929895542556
 11
2456.0612080520536
 21
1828.2274895542557
  0
LINE
  8
_0-0_
  6
CONTINUOUS
 62
    7
 10
2442.855708052054
 20
1822.0929895542556
 11
2456.0612080520536
 21
1835.2984895542558
  0
LINE
  8
_0-0_
  6
CONTINUOUS
 62
    7
 10
2435.784208052054
 20
1822.0929895542556
 11
2456.0612080520536
 21
1842.3694895542557
  0
LINE
  8
_0-0_
  6
CONTINUOUS
 62
    7
 10
2428.7132080520541
 20
1822.0929895542556
 11
2456.0612080520536
 21
1849.4404895542556
  0
LINE
  8
_0-0_
  6
CONTINUOUS
 62
    7
 10
2422.311208052054
 20
1822.7619895542557
 11
2456.0612080520536
 21
1856.5119895542557
  0
LINE
  8
_0-0_
  6
CONTINUOUS
 62
    7
 10
2422.311208052054
 20
1829.8329895542556
 11
2456.0612080520536
 21
1863.5829895542556
  0
LINE
  8
_0-0_
  6
CONTINUOUS
 62
    7
 10
2422.311208052054
 20
1836.9039895542557
 11
2456.0612080520536
 21
1870.6539895542557
  0
LINE
  8
_0-0_
  6
CONTINUOUS
 62
    7
 10
2422.311208052054
 20
1843.9749895542556
 11
2456.0612080520536
 21
1877.7249895542556
  0
LINE
  8
_0-0_
  6
CONTINUOUS
 62
    7
 10
2429.811208052054
 20
1858.5459895542558
 11
2456.0612080520536
 21
1884.7959895542558
  0
LINE
  8
_0-0_
  6
CONTINUOUS
 62
    7
 10
2429.811208052054
 20
1865.6169895542557
 11
2456.0612080520536
 21
1891.8669895542557
  0
LINE
  8
_0-0_
  6
CONTINUOUS
 62
    7
 10
2429.811208052054
 20
1872.6879895542556
 11
2456.0612080520536
 21
1898.9379895542556
  0
LINE
  8
_0-0_
  6
CONTINUOUS
 62
    7
 10
2429.811208052054
 20
1879.7589895542557
 11
2456.0612080520536
 21
1906.0089895542557
  0
LINE
  8
_0-0_
  6
CONTINUOUS
 62
    7
 10
2429.811208052054
 20
1886.8304895542555
 11
2454.0682080520537
 21
1911.0874895542556
  0
LINE
  8
_0-0_
  6
CONTINUOUS
 62
    7
 10
2429.811208052054
 20
1893.9014895542557
 11
2448.002708052054
 21
1912.0929895542558
  0
LINE
  8
_0-0_
  6
CONTINUOUS
 62
    7
 10
2429.811208052054
 20
1900.9724895542558
 11
2440.9317080520536
 21
1912.0929895542558
  0
LINE
  8
_0-0_
  6
CONTINUOUS
 62
    7
 10
2429.811208052054
 20
1908.0434895542557
 11
2433.8607080520537
 21
1912.0929895542558
  0
LINE
  8
_0-0_
  6
CONTINUOUS
 62
    7
 10
2803.9132080520535
 20
1822.5264895542557
 11
2809.2357080520541
 21
1827.8489895542556
  0
LINE
  8
_0-0_
  6
CONTINUOUS
 62
    7
 10
2796.842208052054
 20
1822.5264895542557
 11
2809.2357080520541
 21
1834.9199895542556
  0
LINE
  8
_0-0_
  6
CONTINUOUS
 62
    7
 10
2764.7712080520536
 20
1797.5264895542557
 11
2774.2357080520541
 21
1806.9909895542557
  0
LINE
  8
_0-0_
  6
CONTINUOUS
 62
    7
 10
2789.7712080520536
 20
1822.5264895542557
 11
2809.2357080520541
 21
1841.9909895542557
  0
LINE
  8
_0-0_
  6
CONTINUOUS
 62
    7
 10
2757.7002080520542
 20
1797.5264895542557
 11
2774.2357080520541
 21
1814.0619895542556
  0
LINE
  8
_0-0_
  6
CONTINUOUS
 62
    7
 10
2782.7002080520542
 20
1822.5264895542557
 11
2809.2357080520541
 21
1849.0619895542556
  0
LINE
  8
_0-0_
  6
CONTINUOUS
 62
    7
 10
2750.6287080520537
 20
1797.5264895542557
 11
2774.2402080520541
 21
1821.1374895542558
  0
LINE
  8
_0-0_
  6
CONTINUOUS
 62
    7
 10
2775.6247080520538
 20
1822.5219895542556
 11
2809.2357080520541
 21
1856.1329895542558
  0
LINE
  8
_0-0_
  6
CONTINUOUS
 62
    7
 10
2745.377708052054
 20
1799.3459895542557
 11
2788.5577080520533
 21
1842.5264895542557
  0
LINE
  8
_0-0_
  6
CONTINUOUS
 62
    7
 10
2794.2357080520541
 20
1848.2044895542558
 11
2809.2357080520541
 21
1863.2044895542558
  0
LINE
  8
_0-0_
  6
CONTINUOUS
 62
    7
 10
2744.2357080520541
 20
1805.2754895542557
 11
2781.4867080520539
 21
1842.5264895542557
  0
LINE
  8
_0-0_
  6
CONTINUOUS
 62
    7
 10
2794.2357080520541
 20
1855.2754895542557
 11
2809.2357080520541
 21
1870.2754895542557
  0
LINE
  8
_0-0_
  6
CONTINUOUS
 62
    7
 10
2744.2357080520541
 20
1812.3464895542556
 11
2774.4157080520535
 21
1842.5264895542557
  0
LINE
  8
_0-0_
  6
CONTINUOUS
 62
    7
 10
2794.2357080520541
 20
1862.3464895542556
 11
2809.2357080520541
 21
1877.3464895542556
  0
LINE
  8
_0-0_
  6
CONTINUOUS
 62
    7
 10
2744.2357080520541
 20
1819.4174895542555
 11
2767.3447080520541
 21
1842.5264895542557
  0
LINE
  8
_0-0_
  6
CONTINUOUS
 62
    7
 10
2794.2357080520541
 20
1869.4174895542555
 11
2809.2357080520541
 21
1884.4174895542555
  0
LINE
  8
_0-0_
  6
CONTINUOUS
 62
    7
 10
2740.2737080520537
 20
1822.5264895542557
 11
2760.2737080520537
 21
1842.5264895542557
  0
LINE
  8
_0-0_
  6
CONTINUOUS
 62
    7
 10
2794.2357080520541
 20
1876.4884895542556
 11
2809.2357080520541
 21
1891.4884895542556
  0
LINE
  8
_0-0_
  6
CONTINUOUS
 62
    7
 10
2733.2027080520538
 20
1822.5264895542557
 11
2753.2027080520538
 21
1842.5264895542557
  0
LINE
  8
_0-0_
  6
CONTINUOUS
 62
    7
 10
2794.2357080520541
 20
1883.5594895542558
 11
2809.2357080520541
 21
1898.5594895542558
  0
LINE
  8
_0-0_
  6
CONTINUOUS
 62
    7
 10
2726.1317080520539
 20
1822.5264895542557
 11
2746.1317080520539
 21
1842.5264895542557
  0
LINE
  8
_0-0_
  6
CONTINUOUS
 62
    7
 10
2794.2357080520541
 20
1890.6304895542557
 11
2809.2357080520541
 21
1905.6304895542557
  0
LINE
  8
_0-0_
  6
CONTINUOUS
 62
    7
 10
2719.0602080520538
 20
1822.5264895542557
 11
2739.0602080520538
 21
1842.5264895542557
  0
LINE
  8
_0-0_
  6
CONTINUOUS
 62
    7
 10
2794.2357080520541
 20
1897.7019895542557
 11
2807.6827080520538
 21
1911.1484895542557
  0
LINE
  8
_0-0_
  6
CONTINUOUS
 62
    7
 10
2712.3562080520541
 20
1822.8929895542557
 11
2731.9892080520539
 21
1842.5264895542557
  0
LINE
  8
_0-0_
  6
CONTINUOUS
 62
    7
 10
2794.2357080520541
 20
1904.7729895542556
 11
2801.9892080520539
 21
1912.5264895542557
  0
LINE
  8
_0-0_
  6
CONTINUOUS
 62
    7
 10
2709.2772080520535
 20
1826.8849895542557
 11
2724.9182080520536
 21
1842.5264895542557
  0
LINE
  8
_0-0_
  6
CONTINUOUS
 62
    7
 10
2794.2357080520541
 20
1911.8439895542555
 11
2794.9182080520536
 21
1912.5264895542557
  0
LINE
  8
_0-0_
  6
CONTINUOUS
 62
    7
 10
2709.2357080520537
 20
1833.9149895542557
 11
2717.8472080520537
 21
1842.5264895542557
  0
LINE
  8
_0-0_
  6
CONTINUOUS
 62
    7
 10
688.1122080520538
 20
1193.4089895542556
 11
688.1122080520538
 21
1090.1509895542556
  0
LINE
  8
_0-0_
  6
CONTINUOUS
 62
    7
 10
698.1122080520538
 20
1097.8304895542557
 11
688.1122080520538
 21
1095.1509895542556
  0
LINE
  8
_0-0_
  6
CONTINUOUS
 62
    7
 10
688.1122080520538
 20
1095.1509895542556
 11
698.1122080520538
 21
1092.4714895542556
  0
LINE
  8
_0-0_
  6
CONTINUOUS
 62
    7
 10
688.1122080520538
 20
1095.1509895542556
 11
1928.1122080520538
 21
1095.1509895542556
  0
LINE
  8
_0-0_
  6
CONTINUOUS
 62
    7
 10
1918.1122080520538
 20
1092.4714895542556
 11
1928.1122080520538
 21
1095.1509895542556
  0
LINE
  8
_0-0_
  6
CONTINUOUS
 62
    7
 10
1928.1122080520538
 20
1095.1509895542556
 11
1918.1122080520538
 21
1097.8304895542557
  0
LINE
  8
_0-0_
  6
CONTINUOUS
 62
    7
 10
1928.1122080520538
 20
1193.4089895542556
 11
1928.1122080520538
 21
1090.1509895542556
  0
LINE
  8
_0-0_
  6
CONTINUOUS
 62
    7
 10
1315.6122080520538
 20
1205.4089895542556
 11
1908.1122080520538
 21
1205.4089895542556
  0
LINE
  8
_0-0_
  6
CONTINUOUS
 62
    7
 10
1300.6122080520538
 20
1205.4089895542556
 11
1315.6122080520538
 21
1205.4089895542556
  0
LINE
  8
_0-0_
  6
CONTINUOUS
 62
    7
 10
1300.6122080520538
 20
1205.4089895542556
 11
708.1122080520538
 21
1205.4089895542556
  0
LINE
  8
_0-0_
  6
CONTINUOUS
 62
    7
 10
1935.3937080520538
 20
1243.5669895542557
 11
1928.1122080520538
 21
1236.2079895542556
  0
LINE
  8
_0-0_
  6
CONTINUOUS
 62
    7
 10
1928.1122080520538
 20
1236.2079895542556
 11
1938.0977080520538
 21
1238.9404895542556
  0
LINE
  8
_0-0_
  6
CONTINUOUS
 62
    7
 10
1928.1122080520538
 20
1236.2079895542556
 11
1981.2277080520539
 21
1267.2519895542557
  0
LINE
  8
_0-0_
  6
CONTINUOUS
 62
    7
 10
1488.1237080520538
 20
1740.1369895542557
 11
1480.5267080520538
 21
1747.1699895542556
  0
LINE
  8
_0-0_
  6
CONTINUOUS
 62
    7
 10
1480.5267080520538
 20
1747.1699895542556
 11
1483.5897080520539
 21
1737.2809895542557
  0
LINE
  8
_0-0_
  6
CONTINUOUS
 62
    7
 10
1480.5267080520538
 20
1747.1699895542556
 11
1507.2767080520538
 21
1704.7064895542557
  0
LINE
  8
_0-0_
  6
CONTINUOUS
 62
    7
 10
1927.3997080520539
 20
752.10498955425578
 11
1920.0492080520539
 21
744.81448955425571
  0
LINE
  8
_0-0_
  6
CONTINUOUS
 62
    7
 10
1920.0492080520539
 20
744.81448955425571
 11
1930.0602080520538
 21
747.45298955425573
  0
LINE
  8
_0-0_
  6
CONTINUOUS
 62
    7
 10
1920.0492080520539
 20
744.81448955425571
 11
1944.9202080520537
 21
759.03848955425564
  0
LINE
  8
_0-0_
  6
CONTINUOUS
 62
    7
 10
2751.9032080520537
 20
1223.7449895542556
 11
2750.2042080520541
 21
1213.5324895542557
  0
LINE
  8
_0-0_
  6
CONTINUOUS
 62
    7
 10
2750.2042080520541
 20
1213.5324895542557
 11
2756.7817080520535
 21
1221.5274895542556
  0
LINE
  8
_0-0_
  6
CONTINUOUS
 62
    7
 10
2750.2042080520541
 20
1213.5324895542557
 11
2760.0892080520538
 21
1235.2784895542556
  0
LINE
  8
_0-0_
  6
CONTINUOUS
 62
    7
 10
2293.3062080520539
 20
1228.3759895542557
 11
2290.5067080520539
 21
1218.4089895542556
  0
LINE
  8
_0-0_
  6
CONTINUOUS
 62
    7
 10
2290.5067080520539
 20
1218.4089895542556
 11
2297.9147080520538
 21
1225.6409895542556
  0
LINE
  8
_0-0_
  6
CONTINUOUS
 62
    7
 10
2290.5067080520539
 20
1218.4089895542556
 11
2300.8802080520536
 21
1235.8869895542557
  0
LINE
  8
_0-0_
  6
CONTINUOUS
 62
    7
 10
2423.4147080520538
 20
1881.4609895542557
 11
2418.489708052054
 21
1872.3549895542555
  0
LINE
  8
_0-0_
  6
CONTINUOUS
 62
    7
 10
2418.489708052054
 20
1872.3549895542555
 11
2427.3082080520534
 21
1877.7784895542556
  0
LINE
  8
_0-0_
  6
CONTINUOUS
 62
    7
 10
2418.489708052054
 20
1872.3549895542555
 11
2500.0687080520538
 21
1958.6059895542557
  0
LINE
  8
_0-0_
  6
CONTINUOUS
 62
    7
 10
1320.203708052054
 20
728.51348955425578
 11
1313.0337080520539
 21
735.98148955425574
  0
LINE
  8
_0-0_
  6
CONTINUOUS
 62
    7
 10
1313.0337080520539
 20
735.98148955425574
 11
1315.5087080520538
 21
725.92898955425573
  0
LINE
  8
_0-0_
  6
CONTINUOUS
 62
    7
 10
1313.0337080520539
 20
735.98148955425574
 11
1368.6007080520539
 21
635.04598955425569
  0
LINE
  8
_0-0_
  6
CONTINUOUS
 62
    7
 10
1850.6612080520537
 20
1533.5954895542556
 11
1850.6612080520537
 21
1180.1614895542556
  0
LINE
  8
_0-0_
  6
CONTINUOUS
 62
    7
 10
1308.1122080520538
 20
1517.1154895542556
 11
1308.1122080520538
 21
1191.3974895542557
  0
LINE
  8
_0-0_
  6
CONTINUOUS
 62
    7
 10
1308.1122080520538
 20
982.99948955425566
 11
1308.1122080520538
 21
704.42648955425568
  0
LINE
  8
_0-0_
  6
CONTINUOUS
 62
    7
 10
708.1122080520538
 20
1752.1699895542556
 11
1908.1122080520538
 21
1752.1699895542556
  0
LINE
  8
_0-0_
  6
CONTINUOUS
 62
    7
 10
1908.1122080520538
 20
1792.1699895542556
 11
708.1122080520538
 21
1792.1699895542556
  0
LINE
  8
_0-0_
  6
CONTINUOUS
 62
    7
 10
708.1122080520538
 20
1832.1699895542556
 11
1908.1122080520538
 21
1832.1699895542556
  0
LINE
  8
_0-0_
  6
CONTINUOUS
 62
    7
 10
669.30370805205393
 20
1852.1699895542556
 11
1939.5042080520538
 21
1852.1699895542556
  0
LINE
  8
_0-0_
  6
CONTINUOUS
 62
    7
 10
708.1122080520538
 20
1872.1699895542556
 11
1908.1122080520538
 21
1872.1699895542556
  0
LINE
  8
_0-0_
  6
CONTINUOUS
 62
    7
 10
708.1122080520538
 20
1912.1699895542556
 11
1908.1122080520538
 21
1912.1699895542556
  0
LINE
  8
_0-0_
  6
CONTINUOUS
 62
    7
 10
708.1122080520538
 20
1952.1699895542556
 11
1908.1122080520538
 21
1952.1699895542556
  0
LINE
  8
_0-0_
  6
CONTINUOUS
 62
    7
 10
1308.1122080520538
 20
1991.2879895542557
 11
1308.1122080520538
 21
1712.7144895542555
  0
LINE
  8
_0-0_
  6
CONTINUOUS
 62
    7
 10
701.3622080520538
 20
1946.9464895542557
 11
701.3622080520538
 21
1936.8459895542557
  0
LINE
  8
_0-0_
  6
CONTINUOUS
 62
    7
 10
694.8622080520538
 20
1946.7834895542557
 11
694.8622080520538
 21
1936.3569895542557
  0
LINE
  8
_0-0_
  6
CONTINUOUS
 62
    7
 10
698.1122080520538
 20
1949.0784895542556
 11
698.1122080520538
 21
1932.9504895542556
  0
LINE
  8
_0-0_
  6
CONTINUOUS
 62
    7
 10
704.9912080520537
 20
1942.4199895542556
 11
690.65570805205379
 21
1942.4199895542556
  0
LINE
  8
_0-0_
  6
CONTINUOUS
 62
    7
 10
701.3622080520538
 20
1781.9464895542557
 11
701.3622080520538
 21
1771.8459895542557
  0
LINE
  8
_0-0_
  6
CONTINUOUS
 62
    7
 10
694.8622080520538
 20
1781.7834895542557
 11
694.8622080520538
 21
1771.3569895542557
  0
LINE
  8
_0-0_
  6
CONTINUOUS
 62
    7
 10
698.1122080520538
 20
1785.8559895542557
 11
698.1122080520538
 21
1767.7729895542556
  0
LINE
  8
_0-0_
  6
CONTINUOUS
 62
    7
 10
704.9912080520537
 20
1777.4199895542556
 11
690.65570805205379
 21
1777.4199895542556
  0
LINE
  8
_0-0_
  6
CONTINUOUS
 62
    7
 10
1908.1122080520538
 20
1210.4089895542556
 11
708.1122080520538
 21
1210.4089895542556
  0
LINE
  8
_0-0_
  6
CONTINUOUS
 62
    7
 10
1921.3622080520538
 20
1946.9464895542557
 11
1921.3622080520538
 21
1936.8459895542557
  0
LINE
  8
_0-0_
  6
CONTINUOUS
 62
    7
 10
1914.8622080520538
 20
1946.7834895542557
 11
1914.8622080520538
 21
1936.3569895542557
  0
LINE
  8
_0-0_
  6
CONTINUOUS
 62
    7
 10
1918.1122080520538
 20
1949.0784895542556
 11
1918.1122080520538
 21
1932.9504895542556
  0
LINE
  8
_0-0_
  6
CONTINUOUS
 62
    7
 10
1924.9912080520539
 20
1942.4199895542556
 11
1910.6557080520537
 21
1942.4199895542556
  0
LINE
  8
_0-0_
  6
CONTINUOUS
 62
    7
 10
1921.3622080520538
 20
1781.9464895542557
 11
1921.3622080520538
 21
1771.8459895542557
  0
LINE
  8
_0-0_
  6
CONTINUOUS
 62
    7
 10
1914.8622080520538
 20
1781.7834895542557
 11
1914.8622080520538
 21
1771.3569895542557
  0
LINE
  8
_0-0_
  6
CONTINUOUS
 62
    7
 10
1918.1122080520538
 20
1785.8559895542557
 11
1918.1122080520538
 21
1767.7729895542556
  0
LINE
  8
_0-0_
  6
CONTINUOUS
 62
    7
 10
1924.9912080520539
 20
1777.4199895542556
 11
1910.6557080520537
 21
1777.4199895542556
  0
LINE
  8
_0-0_
  6
CONTINUOUS
 62
    7
 10
1908.1122080520538
 20
943.88148955425572
 11
708.1122080520538
 21
943.88148955425572
  0
LINE
  8
_0-0_
  6
CONTINUOUS
 62
    7
 10
708.1122080520538
 20
903.88148955425572
 11
1908.1122080520538
 21
903.88148955425572
  0
LINE
  8
_0-0_
  6
CONTINUOUS
 62
    7
 10
708.1122080520538
 20
863.88148955425572
 11
1908.1122080520538
 21
863.88148955425572
  0
LINE
  8
_0-0_
  6
CONTINUOUS
 62
    7
 10
671.41470805205381
 20
843.88148955425572
 11
1947.6667080520537
 21
843.88148955425572
  0
LINE
  8
_0-0_
  6
CONTINUOUS
 62
    7
 10
1908.1122080520538
 20
823.88148955425572
 11
708.1122080520538
 21
823.88148955425572
  0
LINE
  8
_0-0_
  6
CONTINUOUS
 62
    7
 10
708.1122080520538
 20
783.88148955425572
 11
1908.1122080520538
 21
783.88148955425572
  0
LINE
  8
_0-0_
  6
CONTINUOUS
 62
    7
 10
708.1122080520538
 20
743.88148955425572
 11
1908.1122080520538
 21
743.88148955425572
  0
LINE
  8
_0-0_
  6
CONTINUOUS
 62
    7
 10
1918.1122080520538
 20
775.6659895542557
 11
1918.1122080520538
 21
760.67848955425574
  0
LINE
  8
_0-0_
  6
CONTINUOUS
 62
    7
 10
1918.1122080520538
 20
777.94498955425569
 11
1918.1122080520538
 21
789.50698955425571
  0
LINE
  8
_0-0_
  6
CONTINUOUS
 62
    7
 10
1924.3402080520538
 20
768.88148955425572
 11
1911.9592080520537
 21
768.88148955425572
  0
LINE
  8
_0-0_
  6
CONTINUOUS
 62
    7
 10
1912.8412080520538
 20
783.88148955425572
 11
1923.6852080520538
 21
783.88148955425572
  0
LINE
  8
_0-0_
  6
CONTINUOUS
 62
    7
 10
1918.1122080520538
 20
749.01448955425576
 11
1918.1122080520538
 21
739.1419895542557
  0
LINE
  8
_0-0_
  6
CONTINUOUS
 62
    7
 10
1912.8412080520538
 20
743.88148955425572
 11
1923.5232080520538
 21
743.88148955425572
  0
LINE
  8
_0-0_
  6
CONTINUOUS
 62
    7
 10
1918.1122080520538
 20
854.54448955425573
 11
1918.1122080520538
 21
832.8774895542557
  0
LINE
  8
_0-0_
  6
CONTINUOUS
 62
    7
 10
1913.0177080520538
 20
920.88148955425572
 11
1923.6072080520539
 21
920.88148955425572
  0
LINE
  8
_0-0_
  6
CONTINUOUS
 62
    7
 10
1918.1122080520538
 20
928.09198955425574
 11
1918.1122080520538
 21
913.59298955425572
  0
LINE
  8
_0-0_
  6
CONTINUOUS
 62
    7
 10
698.1122080520538
 20
928.09198955425574
 11
698.1122080520538
 21
913.59298955425572
  0
LINE
  8
_0-0_
  6
CONTINUOUS
 62
    7
 10
693.01770805205387
 20
920.88148955425572
 11
703.60720805205392
 21
920.88148955425572
  0
LINE
  8
_0-0_
  6
CONTINUOUS
 62
    7
 10
698.1122080520538
 20
854.54448955425573
 11
698.1122080520538
 21
832.8774895542557
  0
LINE
  8
_0-0_
  6
CONTINUOUS
 62
    7
 10
698.1122080520538
 20
773.6659895542557
 11
698.1122080520538
 21
758.67848955425574
  0
LINE
  8
_0-0_
  6
CONTINUOUS
 62
    7
 10
704.34020805205386
 20
766.88148955425572
 11
691.95920805205378
 21
766.88148955425572
  0
LINE
  8
_0-0_
  6
CONTINUOUS
 62
    7
 10
2406.061208052054
 20
1800.4499895542558
 11
2406.061208052054
 21
1917.7949895542556
  0
LINE
  8
_0-0_
  6
CONTINUOUS
 62
    7
 10
2759.2357080520541
 20
1792.6794895542557
 11
2759.2357080520541
 21
1918.2284895542557
  0
LINE
  8
_0-0_
  6
CONTINUOUS
 62
    7
 10
2386.4947080520537
 20
1178.5219895542556
 11
2386.4947080520537
 21
1522.0629895542556
  0
LINE
  8
_0-0_
  6
CONTINUOUS
 62
    7
 10
2311.4947080520537
 20
1188.5569895542557
 11
2311.4947080520537
 21
1205.3364895542556
  0
LINE
  8
_0-0_
  6
CONTINUOUS
 62
    7
 10
2461.4947080520537
 20
1181.2264895542557
 11
2461.4947080520537
 21
1229.7729895542556
  0
LINE
  8
_0-0_
  6
CONTINUOUS
 62
    7
 10
2783.0072080520535
 20
1195.0734895542557
 11
2783.0072080520535
 21
1219.3469895542557
  0
LINE
  8
_0-0_
  6
CONTINUOUS
 62
    7
 10
2773.3847080520536
 20
1210.4089895542556
 11
2792.5262080520537
 21
1210.4089895542556
  0
LINE
  8
_0-0_
  6
CONTINUOUS
 62
    7
 10
2733.3847080520536
 20
1210.4089895542556
 11
2752.5262080520537
 21
1210.4089895542556
  0
LINE
  8
_0-0_
  6
CONTINUOUS
 62
    7
 10
2743.0072080520535
 20
1195.0734895542557
 11
2743.0072080520535
 21
1219.3469895542557
  0
LINE
  8
_0-0_
  6
CONTINUOUS
 62
    7
 10
2813.3847080520536
 20
1210.4089895542556
 11
2832.5262080520537
 21
1210.4089895542556
  0
LINE
  8
_0-0_
  6
CONTINUOUS
 62
    7
 10
2823.0072080520535
 20
1195.0734895542557
 11
2823.0072080520535
 21
1219.3469895542557
  0
LINE
  8
_0-0_
  6
CONTINUOUS
 62
    7
 10
2843.0072080520535
 20
1178.5219895542556
 11
2843.0072080520535
 21
1522.0629895542556
  0
LINE
  8
_0-0_
  6
CONTINUOUS
 62
    7
 10
2853.3847080520536
 20
1210.4089895542556
 11
2872.5262080520537
 21
1210.4089895542556
  0
LINE
  8
_0-0_
  6
CONTINUOUS
 62
    7
 10
2863.0072080520535
 20
1195.0734895542557
 11
2863.0072080520535
 21
1219.3469895542557
  0
LINE
  8
_0-0_
  6
CONTINUOUS
 62
    7
 10
2893.3847080520536
 20
1210.4089895542556
 11
2912.5262080520537
 21
1210.4089895542556
  0
LINE
  8
_0-0_
  6
CONTINUOUS
 62
    7
 10
2903.0072080520535
 20
1195.0734895542557
 11
2903.0072080520535
 21
1219.3469895542557
  0
LINE
  8
_0-0_
  6
CONTINUOUS
 62
    7
 10
2933.3847080520536
 20
1210.4089895542556
 11
2952.5262080520537
 21
1210.4089895542556
  0
LINE
  8
_0-0_
  6
CONTINUOUS
 62
    7
 10
2943.0072080520535
 20
1195.0734895542557
 11
2943.0072080520535
 21
1219.3469895542557
  0
LINE
  8
_0-0_
  6
CONTINUOUS
 62
    7
 10
2954.2572080520535
 20
1250.9089895542556
 11
2967.0707080520542
 21
1250.9089895542556
  0
LINE
  8
_0-0_
  6
CONTINUOUS
 62
    7
 10
2954.2572080520535
 20
1445.9089895542556
 11
2963.9757080520539
 21
1445.9089895542556
  0
LINE
  8
_0-0_
  6
CONTINUOUS
 62
    7
 10
2933.257208052054
 20
1492.4089895542556
 11
2933.257208052054
 21
1503.3094895542558
  0
LINE
  8
_0-0_
  6
CONTINUOUS
 62
    7
 10
2768.257208052054
 20
1492.4089895542556
 11
2768.257208052054
 21
1506.4859895542556
  0
LINE
  8
_0-0_
  6
CONTINUOUS
 62
    7
 10
2311.7447080520541
 20
1492.4089895542556
 11
2311.7447080520541
 21
1506.4859895542556
  0
LINE
  8
_0-0_
  6
CONTINUOUS
 62
    7
 10
2476.7447080520537
 20
1492.4089895542556
 11
2476.7447080520537
 21
1503.3094895542558
  0
LINE
  8
_0-0_
  6
CONTINUOUS
 62
    7
 10
2512.0937080520534
 20
1445.9089895542556
 11
2493.1962080520538
 21
1445.9089895542556
  0
LINE
  8
_0-0_
  6
CONTINUOUS
 62
    7
 10
2513.3972080520538
 20
1250.9089895542556
 11
2490.2642080520536
 21
1250.9089895542556
  0
LINE
  8
_0-0_
  6
CONTINUOUS
 62
    7
 10
2461.4947080520537
 20
1181.2264895542557
 11
2461.4947080520537
 21
1229.7729895542556
  0
LINE
  8
_0-0_
  6
CONTINUOUS
 62
    7
 10
2311.4947080520537
 20
1188.5569895542557
 11
2311.4947080520537
 21
1205.3364895542556
  0
ARC
  8
_0-0_
  6
CONTINUOUS
 62
    7
 10
1314.6122080520538
 20
1202.4089895542556
 40
1
 50
270.00000000000005
 51
0.0000000000000508
  0
ARC
  8
_0-0_
  6
CONTINUOUS
 62
    7
 10
1301.612208052054
 20
1212.8449895542557
 40
1
 50
90.000000000000028
 51
180.00000000000005
  0
ARC
  8
_0-0_
  6
CONTINUOUS
 62
    7
 10
1314.6122080520538
 20
1212.8449895542557
 40
1
 50
0
 51
90.000000000000028
  0
ARC
  8
_0-0_
  6
CONTINUOUS
 62
    7
 10
1314.6122080520538
 20
1959.0699895542556
 40
1
 50
0
 51
90.000000000000028
  0
ARC
  8
_0-0_
  6
CONTINUOUS
 62
    7
 10
1314.6122080520538
 20
1745.2699895542557
 40
1
 50
270.00000000000005
 51
0.0000000000000508
  0
ARC
  8
_0-0_
  6
CONTINUOUS
 62
    7
 10
1301.612208052054
 20
1959.0699895542556
 40
1
 50
90.000000000000028
 51
180.00000000000005
  0
ARC
  8
_0-0_
  6
CONTINUOUS
 62
    7
 10
1301.612208052054
 20
1745.2699895542557
 40
1
 50
180.00000000000005
 51
270.00000000000005
  0
ARC
  8
_0-0_
  6
CONTINUOUS
 62
    7
 10
1314.6122080520538
 20
1957.7699895542557
 40
1
 50
270.00000000000005
 51
0.0000000000000508
  0
ARC
  8
_0-0_
  6
CONTINUOUS
 62
    7
 10
1301.612208052054
 20
1957.7699895542557
 40
1
 50
180.00000000000005
 51
270.00000000000005
  0
ARC
  8
_0-0_
  6
CONTINUOUS
 62
    7
 10
1314.6122080520538
 20
1946.5699895542556
 40
1
 50
0
 51
90.000000000000028
  0
ARC
  8
_0-0_
  6
CONTINUOUS
 62
    7
 10
1301.612208052054
 20
1946.5699895542556
 40
1
 50
90.000000000000028
 51
180.00000000000005
  0
ARC
  8
_0-0_
  6
CONTINUOUS
 62
    7
 10
1314.6122080520538
 20
1945.2699895542557
 40
1
 50
270.00000000000005
 51
0.0000000000000508
  0
ARC
  8
_0-0_
  6
CONTINUOUS
 62
    7
 10
1301.612208052054
 20
1945.2699895542557
 40
1
 50
180.00000000000005
 51
270.00000000000005
  0
ARC
  8
_0-0_
  6
CONTINUOUS
 62
    7
 10
1314.6122080520538
 20
1919.0699895542556
 40
1
 50
0
 51
90.000000000000028
  0
ARC
  8
_0-0_
  6
CONTINUOUS
 62
    7
 10
1301.612208052054
 20
1919.0699895542556
 40
1
 50
90.000000000000028
 51
180.00000000000005
  0
ARC
  8
_0-0_
  6
CONTINUOUS
 62
    7
 10
1301.612208052054
 20
1905.2699895542557
 40
1
 50
180.00000000000005
 51
270.00000000000005
  0
ARC
  8
_0-0_
  6
CONTINUOUS
 62
    7
 10
1314.6122080520538
 20
1905.2699895542557
 40
1
 50
270.00000000000005
 51
0.0000000000000508
  0
ARC
  8
_0-0_
  6
CONTINUOUS
 62
    7
 10
1314.6122080520538
 20
1879.0699895542556
 40
1
 50
0
 51
90.000000000000028
  0
ARC
  8
_0-0_
  6
CONTINUOUS
 62
    7
 10
1301.612208052054
 20
1879.0699895542556
 40
1
 50
90.000000000000028
 51
180.00000000000005
  0
ARC
  8
_0-0_
  6
CONTINUOUS
 62
    7
 10
1301.612208052054
 20
1877.7699895542557
 40
1
 50
180.00000000000005
 51
270.00000000000005
  0
ARC
  8
_0-0_
  6
CONTINUOUS
 62
    7
 10
1314.6122080520538
 20
1877.7699895542557
 40
1
 50
270.00000000000005
 51
0.0000000000000508
  0
ARC
  8
_0-0_
  6
CONTINUOUS
 62
    7
 10
1314.6122080520538
 20
1917.7699895542557
 40
1
 50
270.00000000000005
 51
0.0000000000000508
  0
ARC
  8
_0-0_
  6
CONTINUOUS
 62
    7
 10
1301.612208052054
 20
1917.7699895542557
 40
1
 50
180.00000000000005
 51
270.00000000000005
  0
ARC
  8
_0-0_
  6
CONTINUOUS
 62
    7
 10
1314.6122080520538
 20
1906.5699895542556
 40
1
 50
0
 51
90.000000000000028
  0
ARC
  8
_0-0_
  6
CONTINUOUS
 62
    7
 10
1301.612208052054
 20
1906.5699895542556
 40
1
 50
90.000000000000028
 51
180.00000000000005
  0
ARC
  8
_0-0_
  6
CONTINUOUS
 62
    7
 10
1314.6122080520538
 20
1866.5699895542556
 40
1
 50
0
 51
90.000000000000028
  0
ARC
  8
_0-0_
  6
CONTINUOUS
 62
    7
 10
1301.612208052054
 20
1866.5699895542556
 40
1
 50
90.000000000000028
 51
180.00000000000005
  0
ARC
  8
_0-0_
  6
CONTINUOUS
 62
    7
 10
1301.612208052054
 20
1865.2699895542557
 40
1
 50
180.00000000000005
 51
270.00000000000005
  0
ARC
  8
_0-0_
  6
CONTINUOUS
 62
    7
 10
1314.6122080520538
 20
1865.2699895542557
 40
1
 50
270.00000000000005
 51
0.0000000000000508
  0
ARC
  8
_0-0_
  6
CONTINUOUS
 62
    7
 10
1314.6122080520538
 20
1839.0699895542556
 40
1
 50
0
 51
90.000000000000028
  0
ARC
  8
_0-0_
  6
CONTINUOUS
 62
    7
 10
1301.612208052054
 20
1839.0699895542556
 40
1
 50
90.000000000000028
 51
180.00000000000005
  0
ARC
  8
_0-0_
  6
CONTINUOUS
 62
    7
 10
1301.612208052054
 20
1837.7699895542557
 40
1
 50
180.00000000000005
 51
270.00000000000005
  0
ARC
  8
_0-0_
  6
CONTINUOUS
 62
    7
 10
1314.6122080520538
 20
1837.7699895542557
 40
1
 50
270.00000000000005
 51
0.0000000000000508
  0
ARC
  8
_0-0_
  6
CONTINUOUS
 62
    7
 10
1314.6122080520538
 20
1826.5699895542556
 40
1
 50
0
 51
90.000000000000028
  0
ARC
  8
_0-0_
  6
CONTINUOUS
 62
    7
 10
1301.612208052054
 20
1826.5699895542556
 40
1
 50
90.000000000000028
 51
180.00000000000005
  0
ARC
  8
_0-0_
  6
CONTINUOUS
 62
    7
 10
1301.612208052054
 20
1825.2699895542557
 40
1
 50
180.00000000000005
 51
270.00000000000005
  0
ARC
  8
_0-0_
  6
CONTINUOUS
 62
    7
 10
1314.6122080520538
 20
1825.2699895542557
 40
1
 50
270.00000000000005
 51
0.0000000000000508
  0
ARC
  8
_0-0_
  6
CONTINUOUS
 62
    7
 10
1314.6122080520538
 20
1799.0699895542556
 40
1
 50
0
 51
90.000000000000028
  0
ARC
  8
_0-0_
  6
CONTINUOUS
 62
    7
 10
1301.612208052054
 20
1799.0699895542556
 40
1
 50
90.000000000000028
 51
180.00000000000005
  0
ARC
  8
_0-0_
  6
CONTINUOUS
 62
    7
 10
1301.612208052054
 20
1797.7699895542557
 40
1
 50
180.00000000000005
 51
270.00000000000005
  0
ARC
  8
_0-0_
  6
CONTINUOUS
 62
    7
 10
1314.6122080520538
 20
1797.7699895542557
 40
1
 50
270.00000000000005
 51
0.0000000000000508
  0
ARC
  8
_0-0_
  6
CONTINUOUS
 62
    7
 10
1314.6122080520538
 20
1786.5699895542556
 40
1
 50
0
 51
90.000000000000028
  0
ARC
  8
_0-0_
  6
CONTINUOUS
 62
    7
 10
1301.612208052054
 20
1786.5699895542556
 40
1
 50
90.000000000000028
 51
180.00000000000005
  0
ARC
  8
_0-0_
  6
CONTINUOUS
 62
    7
 10
1301.612208052054
 20
1785.2699895542557
 40
1
 50
180.00000000000005
 51
270.00000000000005
  0
ARC
  8
_0-0_
  6
CONTINUOUS
 62
    7
 10
1314.6122080520538
 20
1785.2699895542557
 40
1
 50
270.00000000000005
 51
0.0000000000000508
  0
ARC
  8
_0-0_
  6
CONTINUOUS
 62
    7
 10
1314.6122080520538
 20
1757.7699895542557
 40
1
 50
270.00000000000005
 51
0.0000000000000508
  0
ARC
  8
_0-0_
  6
CONTINUOUS
 62
    7
 10
1314.6122080520538
 20
1759.0699895542556
 40
1
 50
0
 51
90.000000000000028
  0
ARC
  8
_0-0_
  6
CONTINUOUS
 62
    7
 10
1301.612208052054
 20
1759.0699895542556
 40
1
 50
90.000000000000028
 51
180.00000000000005
  0
ARC
  8
_0-0_
  6
CONTINUOUS
 62
    7
 10
1301.612208052054
 20
1757.7699895542557
 40
1
 50
180.00000000000005
 51
270.00000000000005
  0
ARC
  8
_0-0_
  6
CONTINUOUS
 62
    7
 10
1314.6122080520538
 20
1746.5699895542556
 40
1
 50
0
 51
90.000000000000028
  0
ARC
  8
_0-0_
  6
CONTINUOUS
 62
    7
 10
1301.612208052054
 20
1746.5699895542556
 40
1
 50
90.000000000000028
 51
180.00000000000005
  0
ARC
  8
_0-0_
  6
CONTINUOUS
 62
    7
 10
1301.612208052054
 20
950.78148955425569
 40
1
 50
90.000000000000028
 51
180.00000000000005
  0
ARC
  8
_0-0_
  6
CONTINUOUS
 62
    7
 10
1301.612208052054
 20
736.98148955425563
 40
1
 50
180.00000000000005
 51
270.00000000000005
  0
ARC
  8
_0-0_
  6
CONTINUOUS
 62
    7
 10
1314.6122080520538
 20
950.78148955425569
 40
1
 50
0
 51
90.000000000000028
  0
ARC
  8
_0-0_
  6
CONTINUOUS
 62
    7
 10
1314.6122080520538
 20
736.98148955425563
 40
1
 50
270.00000000000005
 51
0.0000000000000508
  0
ARC
  8
_0-0_
  6
CONTINUOUS
 62
    7
 10
1914.8622080520538
 20
1777.4199895542556
 40
2.25
 50
90.000000000000028
 51
270.00000000000011
  0
ARC
  8
_0-0_
  6
CONTINUOUS
 62
    7
 10
1921.3622080520538
 20
1777.4199895542556
 40
2.25
 50
270.00000000000005
 51
90.000000000000099
  0
ARC
  8
_0-0_
  6
CONTINUOUS
 62
    7
 10
1914.8622080520538
 20
1942.4199895542556
 40
2.25
 50
90.000000000000028
 51
270.00000000000011
  0
ARC
  8
_0-0_
  6
CONTINUOUS
 62
    7
 10
1921.3622080520538
 20
1942.4199895542556
 40
2.25
 50
270.00000000000005
 51
90.000000000000099
  0
ARC
  8
_0-0_
  6
CONTINUOUS
 62
    7
 10
694.8622080520538
 20
1777.4199895542556
 40
2.25
 50
90.000000000000028
 51
270.00000000000011
  0
ARC
  8
_0-0_
  6
CONTINUOUS
 62
    7
 10
701.3622080520538
 20
1777.4199895542556
 40
2.25
 50
270.00000000000005
 51
90.000000000000099
  0
ARC
  8
_0-0_
  6
CONTINUOUS
 62
    7
 10
694.8622080520538
 20
1942.4199895542556
 40
2.25
 50
90.000000000000028
 51
270.00000000000011
  0
ARC
  8
_0-0_
  6
CONTINUOUS
 62
    7
 10
701.3622080520538
 20
1942.4199895542556
 40
2.25
 50
270.00000000000005
 51
90.000000000000099
  0
CIRCLE
  8
_0-0_
  6
CONTINUOUS
 62
    7
 10
1918.1122080520538
 20
920.88148955425572
 40
3.25
  0
CIRCLE
  8
_0-0_
  6
CONTINUOUS
 62
    7
 10
698.1122080520538
 20
766.88148955425572
 40
3.25
  0
CIRCLE
  8
_0-0_
  6
CONTINUOUS
 62
    7
 10
698.1122080520538
 20
920.88148955425572
 40
3.25
  0
CIRCLE
  8
_0-0_
  6
CONTINUOUS
 62
    7
 10
1918.1122080520538
 20
920.88148955425572
 40
3
  0
CIRCLE
  8
_0-0_
  6
CONTINUOUS
 62
    7
 10
698.1122080520538
 20
920.88148955425572
 40
3
  0
CIRCLE
  8
_0-0_
  6
CONTINUOUS
 62
    7
 10
698.1122080520538
 20
766.88148955425572
 40
3
  0
CIRCLE
  8
_0-0_
  6
CONTINUOUS
 62
    7
 10
1918.1122080520538
 20
768.88148955425572
 40
3
  0
CIRCLE
  8
_0-0_
  6
CONTINUOUS
 62
    7
 10
1918.1122080520538
 20
783.88148955425572
 40
2.1499999999999999
  0
CIRCLE
  8
_0-0_
  6
CONTINUOUS
 62
    7
 10
1918.1122080520538
 20
743.88148955425572
 40
2.1499999999999999
  0
CIRCLE
  8
_0-0_
  6
CONTINUOUS
 62
    7
 10
1918.1122080520538
 20
743.88148955425572
 40
2.5
  0
CIRCLE
  8
_0-0_
  6
CONTINUOUS
 62
    7
 10
1918.1122080520538
 20
783.88148955425572
 40
2.5
  0
ARC
  8
_0-0_
  6
CONTINUOUS
 62
    7
 10
1909.1122080520538
 20
729.88148955425572
 40
1
 50
180.00000000000005
 51
270.00000000000005
  0
ARC
  8
_0-0_
  6
CONTINUOUS
 62
    7
 10
1927.1122080520538
 20
729.88148955425572
 40
1
 50
270.00000000000005
 51
0.0000000000000508
  0
ARC
  8
_0-0_
  6
CONTINUOUS
 62
    7
 10
2497.7447080520537
 20
1204.4089895542556
 40
4
 50
270.00000000000005
 51
0.0000000000000508
  0
ARC
  8
_0-0_
  6
CONTINUOUS
 62
    7
 10
2497.7447080520537
 20
1492.4089895542556
 40
4
 50
0
 51
90.000000000000028
  0
ARC
  8
_0-0_
  6
CONTINUOUS
 62
    7
 10
2275.2447080520537
 20
1492.4089895542556
 40
4
 50
90.000000000000028
 51
180.00000000000005
  0
ARC
  8
_0-0_
  6
CONTINUOUS
 62
    7
 10
2275.2447080520537
 20
1204.4089895542556
 40
4
 50
180.00000000000005
 51
270.00000000000005
  0
ARC
  8
_0-0_
  6
CONTINUOUS
 62
    7
 10
2497.7447080520537
 20
1204.4089895542556
 40
6
 50
270.00000000000005
 51
0.0000000000000508
  0
ARC
  8
_0-0_
  6
CONTINUOUS
 62
    7
 10
2497.7447080520537
 20
1492.4089895542556
 40
6
 50
0
 51
90.000000000000028
  0
ARC
  8
_0-0_
  6
CONTINUOUS
 62
    7
 10
2275.2447080520537
 20
1492.4089895542556
 40
6
 50
90.000000000000028
 51
180.00000000000005
  0
ARC
  8
_0-0_
  6
CONTINUOUS
 62
    7
 10
2275.2447080520537
 20
1204.4089895542556
 40
6
 50
180.00000000000005
 51
270.00000000000005
  0
ARC
  8
_0-0_
  6
CONTINUOUS
 62
    7
 10
2371.4947080520537
 20
1498.4089895542556
 40
4
 50
221.81000000000005
 51
270.00000000000005
  0
ARC
  8
_0-0_
  6
CONTINUOUS
 62
    7
 10
2371.4947080520537
 20
1498.4089895542556
 40
2
 50
210.00000000000005
 51
270.00000000000005
  0
ARC
  8
_0-0_
  6
CONTINUOUS
 62
    7
 10
2367.0227080520535
 20
1494.4089895542556
 40
2
 50
41.810000000000016
 51
90.000000000000028
  0
ARC
  8
_0-0_
  6
CONTINUOUS
 62
    7
 10
2368.0307080520537
 20
1496.4089895542556
 40
2
 50
30.000000000000003
 51
90.000000000000028
  0
ARC
  8
_0-0_
  6
CONTINUOUS
 62
    7
 10
2272.4947080520541
 20
1217.4089895542556
 40
1
 50
90.000000000000028
 51
180.00000000000005
  0
ARC
  8
_0-0_
  6
CONTINUOUS
 62
    7
 10
2500.4947080520537
 20
1217.4089895542556
 40
1
 50
0
 51
90.000000000000028
  0
ARC
  8
_0-0_
  6
CONTINUOUS
 62
    7
 10
2275.4947080520541
 20
1204.4089895542556
 40
4
 50
180.00000000000005
 51
270.00000000000005
  0
ARC
  8
_0-0_
  6
CONTINUOUS
 62
    7
 10
2497.4947080520537
 20
1204.4089895542556
 40
4
 50
270.00000000000005
 51
0.0000000000000508
  0
ARC
  8
_0-0_
  6
CONTINUOUS
 62
    7
 10
2954.2572080520535
 20
1204.4089895542556
 40
4
 50
270.00000000000005
 51
0.0000000000000508
  0
ARC
  8
_0-0_
  6
CONTINUOUS
 62
    7
 10
2954.2572080520535
 20
1492.4089895542556
 40
4
 50
0
 51
90.000000000000028
  0
ARC
  8
_0-0_
  6
CONTINUOUS
 62
    7
 10
2731.7572080520535
 20
1492.4089895542556
 40
4
 50
90.000000000000028
 51
180.00000000000005
  0
ARC
  8
_0-0_
  6
CONTINUOUS
 62
    7
 10
2731.7572080520535
 20
1204.4089895542556
 40
4
 50
180.00000000000005
 51
270.00000000000005
  0
ARC
  8
_0-0_
  6
CONTINUOUS
 62
    7
 10
2954.2572080520535
 20
1204.4089895542556
 40
6
 50
270.00000000000005
 51
0.0000000000000508
  0
ARC
  8
_0-0_
  6
CONTINUOUS
 62
    7
 10
2954.2572080520535
 20
1492.4089895542556
 40
6
 50
0
 51
90.000000000000028
  0
ARC
  8
_0-0_
  6
CONTINUOUS
 62
    7
 10
2731.7572080520535
 20
1492.4089895542556
 40
6
 50
90.000000000000028
 51
180.00000000000005
  0
ARC
  8
_0-0_
  6
CONTINUOUS
 62
    7
 10
2731.7572080520535
 20
1204.4089895542556
 40
6
 50
180.00000000000005
 51
270.00000000000005
  0
ARC
  8
_0-0_
  6
CONTINUOUS
 62
    7
 10
2828.0072080520535
 20
1498.4089895542556
 40
4
 50
221.81000000000005
 51
270.00000000000005
  0
ARC
  8
_0-0_
  6
CONTINUOUS
 62
    7
 10
2828.0072080520535
 20
1498.4089895542556
 40
2
 50
210.00000000000005
 51
270.00000000000005
  0
ARC
  8
_0-0_
  6
CONTINUOUS
 62
    7
 10
2823.5352080520538
 20
1494.4089895542556
 40
2
 50
41.810000000000016
 51
90.000000000000028
  0
ARC
  8
_0-0_
  6
CONTINUOUS
 62
    7
 10
2824.543208052054
 20
1496.4089895542556
 40
2
 50
30.000000000000003
 51
90.000000000000028
  0
CIRCLE
  8
_0-0_
  6
CONTINUOUS
 62
    7
 10
2743.0072080520535
 20
1210.4089895542556
 40
5
  0
CIRCLE
  8
_0-0_
  6
CONTINUOUS
 62
    7
 10
2743.0072080520535
 20
1210.4089895542556
 40
4.6000000000000005
  0
ARC
  8
_0-0_
  6
CONTINUOUS
 62
    7
 10
2749.0572080520537
 20
1212.6449895542557
 40
1.4499999999999999
 50
20.284000000000002
 51
200.28400000000004
  0
ARC
  8
_0-0_
  6
CONTINUOUS
 62
    7
 10
2736.9572080520538
 20
1212.6449895542557
 40
1.4499999999999999
 50
339.71600000000017
 51
159.7160000000002
  0
CIRCLE
  8
_0-0_
  6
CONTINUOUS
 62
    7
 10
2783.0072080520535
 20
1210.4089895542556
 40
5
  0
CIRCLE
  8
_0-0_
  6
CONTINUOUS
 62
    7
 10
2783.0072080520535
 20
1210.4089895542556
 40
4.6000000000000005
  0
ARC
  8
_0-0_
  6
CONTINUOUS
 62
    7
 10
2789.0572080520537
 20
1212.6449895542557
 40
1.4499999999999999
 50
20.284000000000002
 51
200.28400000000004
  0
ARC
  8
_0-0_
  6
CONTINUOUS
 62
    7
 10
2776.9572080520538
 20
1212.6449895542557
 40
1.4499999999999999
 50
339.71600000000017
 51
159.7160000000002
  0
CIRCLE
  8
_0-0_
  6
CONTINUOUS
 62
    7
 10
2823.0072080520535
 20
1210.4089895542556
 40
5
  0
CIRCLE
  8
_0-0_
  6
CONTINUOUS
 62
    7
 10
2823.0072080520535
 20
1210.4089895542556
 40
4.6000000000000005
  0
ARC
  8
_0-0_
  6
CONTINUOUS
 62
    7
 10
2829.0572080520537
 20
1212.6449895542557
 40
1.4499999999999999
 50
20.284000000000002
 51
200.28400000000004
  0
ARC
  8
_0-0_
  6
CONTINUOUS
 62
    7
 10
2816.9572080520538
 20
1212.6449895542557
 40
1.4499999999999999
 50
339.71600000000017
 51
159.7160000000002
  0
CIRCLE
  8
_0-0_
  6
CONTINUOUS
 62
    7
 10
2863.0072080520535
 20
1210.4089895542556
 40
5
  0
CIRCLE
  8
_0-0_
  6
CONTINUOUS
 62
    7
 10
2863.0072080520535
 20
1210.4089895542556
 40
4.6000000000000005
  0
ARC
  8
_0-0_
  6
CONTINUOUS
 62
    7
 10
2869.0572080520537
 20
1212.6449895542557
 40
1.4499999999999999
 50
20.284000000000002
 51
200.28400000000004
  0
ARC
  8
_0-0_
  6
CONTINUOUS
 62
    7
 10
2856.9572080520538
 20
1212.6449895542557
 40
1.4499999999999999
 50
339.71600000000017
 51
159.7160000000002
  0
CIRCLE
  8
_0-0_
  6
CONTINUOUS
 62
    7
 10
2903.0072080520535
 20
1210.4089895542556
 40
5
  0
CIRCLE
  8
_0-0_
  6
CONTINUOUS
 62
    7
 10
2903.0072080520535
 20
1210.4089895542556
 40
4.6000000000000005
  0
ARC
  8
_0-0_
  6
CONTINUOUS
 62
    7
 10
2909.0572080520537
 20
1212.6449895542557
 40
1.4499999999999999
 50
20.284000000000002
 51
200.28400000000004
  0
ARC
  8
_0-0_
  6
CONTINUOUS
 62
    7
 10
2896.9572080520538
 20
1212.6449895542557
 40
1.4499999999999999
 50
339.71600000000017
 51
159.7160000000002
  0
CIRCLE
  8
_0-0_
  6
CONTINUOUS
 62
    7
 10
2943.0072080520535
 20
1210.4089895542556
 40
5
  0
CIRCLE
  8
_0-0_
  6
CONTINUOUS
 62
    7
 10
2943.0072080520535
 20
1210.4089895542556
 40
4.6000000000000005
  0
ARC
  8
_0-0_
  6
CONTINUOUS
 62
    7
 10
2949.0572080520537
 20
1212.6449895542557
 40
1.4499999999999999
 50
20.284000000000002
 51
200.28400000000004
  0
ARC
  8
_0-0_
  6
CONTINUOUS
 62
    7
 10
2936.9572080520538
 20
1212.6449895542557
 40
1.4499999999999999
 50
339.71600000000017
 51
159.7160000000002
  0
ARC
  8
_0-0_
  6
CONTINUOUS
 62
    7
 10
2743.0072080520535
 20
1210.4089895542556
 40
7.9000000000000003
 50
159.71600000000003
 51
180.00000000000005
  0
ARC
  8
_0-0_
  6
CONTINUOUS
 62
    7
 10
2743.0072080520535
 20
1210.4089895542556
 40
7.9000000000000003
 50
325.8200000000001
 51
20.284000000000087
  0
ARC
  8
_0-0_
  6
CONTINUOUS
 62
    7
 10
2943.0072080520535
 20
1210.4089895542556
 40
7.9000000000000003
 50
159.71600000000003
 51
214.18000000000006
  0
ARC
  8
_0-0_
  6
CONTINUOUS
 62
    7
 10
2943.0072080520535
 20
1210.4089895542556
 40
7.9000000000000003
 50
0.0000000000001017
 51
20.284000000000098
  0
ARC
  8
_0-0_
  6
CONTINUOUS
 62
    7
 10
2750.3702080520538
 20
1205.4089895542556
 40
1
 50
145.82000000000002
 51
270.00000000000005
  0
ARC
  8
_0-0_
  6
CONTINUOUS
 62
    7
 10
2783.0072080520535
 20
1210.4089895542556
 40
7.9000000000000003
 50
159.71600000000003
 51
214.18000000000006
  0
ARC
  8
_0-0_
  6
CONTINUOUS
 62
    7
 10
2783.0072080520535
 20
1210.4089895542556
 40
7.9000000000000003
 50
325.8200000000001
 51
20.284000000000087
  0
ARC
  8
_0-0_
  6
CONTINUOUS
 62
    7
 10
2823.0072080520535
 20
1210.4089895542556
 40
7.9000000000000003
 50
159.71600000000003
 51
214.18000000000006
  0
ARC
  8
_0-0_
  6
CONTINUOUS
 62
    7
 10
2823.0072080520535
 20
1210.4089895542556
 40
7.9000000000000003
 50
325.8200000000001
 51
20.284000000000087
  0
ARC
  8
_0-0_
  6
CONTINUOUS
 62
    7
 10
2863.0072080520535
 20
1210.4089895542556
 40
7.9000000000000003
 50
159.71600000000003
 51
214.18000000000006
  0
ARC
  8
_0-0_
  6
CONTINUOUS
 62
    7
 10
2863.0072080520535
 20
1210.4089895542556
 40
7.9000000000000003
 50
325.8200000000001
 51
20.284000000000087
  0
ARC
  8
_0-0_
  6
CONTINUOUS
 62
    7
 10
2903.0072080520535
 20
1210.4089895542556
 40
7.9000000000000003
 50
159.71600000000003
 51
214.18000000000006
  0
ARC
  8
_0-0_
  6
CONTINUOUS
 62
    7
 10
2903.0072080520535
 20
1210.4089895542556
 40
7.9000000000000003
 50
325.8200000000001
 51
20.284000000000087
  0
ARC
  8
_0-0_
  6
CONTINUOUS
 62
    7
 10
2775.6447080520538
 20
1205.4089895542556
 40
1
 50
270.00000000000005
 51
34.180000000000084
  0
ARC
  8
_0-0_
  6
CONTINUOUS
 62
    7
 10
2790.3702080520538
 20
1205.4089895542556
 40
1
 50
145.82000000000002
 51
270.00000000000005
  0
ARC
  8
_0-0_
  6
CONTINUOUS
 62
    7
 10
2815.6447080520538
 20
1205.4089895542556
 40
1
 50
270.00000000000005
 51
34.180000000000084
  0
ARC
  8
_0-0_
  6
CONTINUOUS
 62
    7
 10
2830.3702080520538
 20
1205.4089895542556
 40
1
 50
145.82000000000002
 51
270.00000000000005
  0
ARC
  8
_0-0_
  6
CONTINUOUS
 62
    7
 10
2855.6447080520538
 20
1205.4089895542556
 40
1
 50
270.00000000000005
 51
34.180000000000084
  0
ARC
  8
_0-0_
  6
CONTINUOUS
 62
    7
 10
2870.3702080520538
 20
1205.4089895542556
 40
1
 50
145.82000000000002
 51
270.00000000000005
  0
ARC
  8
_0-0_
  6
CONTINUOUS
 62
    7
 10
2895.6447080520538
 20
1205.4089895542556
 40
1
 50
270.00000000000005
 51
34.180000000000084
  0
ARC
  8
_0-0_
  6
CONTINUOUS
 62
    7
 10
2910.3702080520538
 20
1205.4089895542556
 40
1
 50
145.82000000000002
 51
270.00000000000005
  0
ARC
  8
_0-0_
  6
CONTINUOUS
 62
    7
 10
2935.6447080520538
 20
1205.4089895542556
 40
1
 50
270.00000000000005
 51
34.180000000000084
  0
ARC
  8
_0-0_
  6
CONTINUOUS
 62
    7
 10
2751.851208052054
 20
1211.4089895542556
 40
1
 50
186.45100000000007
 51
270.00000000000005
  0
ARC
  8
_0-0_
  6
CONTINUOUS
 62
    7
 10
2774.163708052054
 20
1211.4089895542556
 40
1
 50
270.00000000000005
 51
353.54900000000003
  0
ARC
  8
_0-0_
  6
CONTINUOUS
 62
    7
 10
2791.851208052054
 20
1211.4089895542556
 40
1
 50
186.45100000000007
 51
270.00000000000005
  0
ARC
  8
_0-0_
  6
CONTINUOUS
 62
    7
 10
2814.163708052054
 20
1211.4089895542556
 40
1
 50
270.00000000000005
 51
353.54900000000003
  0
ARC
  8
_0-0_
  6
CONTINUOUS
 62
    7
 10
2831.851208052054
 20
1211.4089895542556
 40
1
 50
186.45100000000007
 51
270.00000000000005
  0
ARC
  8
_0-0_
  6
CONTINUOUS
 62
    7
 10
2854.163708052054
 20
1211.4089895542556
 40
1
 50
270.00000000000005
 51
353.54900000000003
  0
ARC
  8
_0-0_
  6
CONTINUOUS
 62
    7
 10
2871.851208052054
 20
1211.4089895542556
 40
1
 50
186.45100000000007
 51
270.00000000000005
  0
ARC
  8
_0-0_
  6
CONTINUOUS
 62
    7
 10
2894.163708052054
 20
1211.4089895542556
 40
1
 50
270.00000000000005
 51
353.54900000000003
  0
ARC
  8
_0-0_
  6
CONTINUOUS
 62
    7
 10
2911.851208052054
 20
1211.4089895542556
 40
1
 50
186.45100000000007
 51
270.00000000000005
  0
ARC
  8
_0-0_
  6
CONTINUOUS
 62
    7
 10
2934.163708052054
 20
1211.4089895542556
 40
1
 50
270.00000000000005
 51
353.54900000000003
  0
ARC
  8
_0-0_
  6
CONTINUOUS
 62
    7
 10
2949.9072080520536
 20
1201.4089895542556
 40
1
 50
270.00000000000005
 51
0.0000000000000508
  0
ARC
  8
_0-0_
  6
CONTINUOUS
 62
    7
 10
2736.1072080520534
 20
1201.4089895542556
 40
1
 50
180.00000000000005
 51
270.00000000000005
  0
ARC
  8
_0-0_
  6
CONTINUOUS
 62
    7
 10
2361.061208052054
 20
1907.0929895542558
 40
5
 50
90.000000000000028
 51
180.00000000000005
  0
ARC
  8
_0-0_
  6
CONTINUOUS
 62
    7
 10
2361.061208052054
 20
1827.0929895542556
 40
5
 50
180.00000000000005
 51
270.00000000000005
  0
ARC
  8
_0-0_
  6
CONTINUOUS
 62
    7
 10
2451.061208052054
 20
1827.0929895542556
 40
5
 50
270.00000000000005
 51
0.0000000000000508
  0
ARC
  8
_0-0_
  6
CONTINUOUS
 62
    7
 10
2451.061208052054
 20
1907.0929895542558
 40
5
 50
0
 51
90.000000000000028
  0
ARC
  8
_0-0_
  6
CONTINUOUS
 62
    7
 10
2377.311208052054
 20
1907.0929895542558
 40
5
 50
90.000000000000028
 51
180.00000000000005
  0
ARC
  8
_0-0_
  6
CONTINUOUS
 62
    7
 10
2367.311208052054
 20
1847.0929895542558
 40
5
 50
270.00000000000005
 51
0.0000000000000508
  0
ARC
  8
_0-0_
  6
CONTINUOUS
 62
    7
 10
2361.061208052054
 20
1837.0929895542558
 40
5
 50
90.000000000000028
 51
180.00000000000005
  0
ARC
  8
_0-0_
  6
CONTINUOUS
 62
    7
 10
2421.5612080520536
 20
1813.0929895542558
 40
1
 50
180.00000000000005
 51
270.00000000000005
  0
ARC
  8
_0-0_
  6
CONTINUOUS
 62
    7
 10
2390.561208052054
 20
1813.0929895542558
 40
1
 50
270.00000000000005
 51
0.0000000000000508
  0
ARC
  8
_0-0_
  6
CONTINUOUS
 62
    7
 10
2390.561208052054
 20
1813.0929895542558
 40
3
 50
270.00000000000005
 51
0.0000000000000508
  0
ARC
  8
_0-0_
  6
CONTINUOUS
 62
    7
 10
2421.5612080520536
 20
1813.0929895542558
 40
3
 50
180.00000000000005
 51
270.00000000000005
  0
ARC
  8
_0-0_
  6
CONTINUOUS
 62
    7
 10
2406.061208052054
 20
1884.9604895542556
 40
1
 50
34.839000000000005
 51
145.16100000000002
  0
ARC
  8
_0-0_
  6
CONTINUOUS
 62
    7
 10
2406.061208052054
 20
1884.9604895542556
 40
3
 50
34.839000000000005
 51
145.16100000000002
  0
ARC
  8
_0-0_
  6
CONTINUOUS
 62
    7
 10
2386.5612080520536
 20
1856.9439895542557
 40
1
 50
145.161
 51
240.00000000000002
  0
ARC
  8
_0-0_
  6
CONTINUOUS
 62
    7
 10
2386.5612080520536
 20
1856.9439895542557
 40
3
 50
145.161
 51
240.00000000000002
  0
ARC
  8
_0-0_
  6
CONTINUOUS
 62
    7
 10
2425.561208052054
 20
1856.9439895542557
 40
1
 50
300.00000000000005
 51
34.839000000000112
  0
ARC
  8
_0-0_
  6
CONTINUOUS
 62
    7
 10
2425.561208052054
 20
1856.9439895542557
 40
3
 50
300.00000000000005
 51
34.839000000000112
  0
ARC
  8
_0-0_
  6
CONTINUOUS
 62
    7
 10
2421.5612080520536
 20
1850.0154895542557
 40
1
 50
120.00000000000001
 51
180.00000000000005
  0
ARC
  8
_0-0_
  6
CONTINUOUS
 62
    7
 10
2421.5612080520536
 20
1850.0154895542557
 40
3
 50
120.00000000000001
 51
180.00000000000005
  0
ARC
  8
_0-0_
  6
CONTINUOUS
 62
    7
 10
2390.561208052054
 20
1850.0154895542557
 40
1
 50
0
 51
60.000000000000007
  0
ARC
  8
_0-0_
  6
CONTINUOUS
 62
    7
 10
2390.561208052054
 20
1850.0154895542557
 40
3
 50
0
 51
60.000000000000007
  0
ARC
  8
_0-0_
  6
CONTINUOUS
 62
    7
 10
2714.2357080520541
 20
1907.5264895542557
 40
5
 50
90.000000000000028
 51
180.00000000000005
  0
ARC
  8
_0-0_
  6
CONTINUOUS
 62
    7
 10
2714.2357080520541
 20
1827.5264895542557
 40
5
 50
180.00000000000005
 51
270.00000000000005
  0
ARC
  8
_0-0_
  6
CONTINUOUS
 62
    7
 10
2804.2357080520541
 20
1827.5264895542557
 40
5
 50
270.00000000000005
 51
0.0000000000000508
  0
ARC
  8
_0-0_
  6
CONTINUOUS
 62
    7
 10
2804.2357080520541
 20
1907.5264895542557
 40
5
 50
0
 51
90.000000000000028
  0
ARC
  8
_0-0_
  6
CONTINUOUS
 62
    7
 10
2714.2357080520541
 20
1837.5264895542557
 40
5
 50
90.000000000000028
 51
180.00000000000005
  0
ARC
  8
_0-0_
  6
CONTINUOUS
 62
    7
 10
2749.2357080520541
 20
1802.5264895542557
 40
5
 50
180.00000000000005
 51
270.00000000000005
  0
ARC
  8
_0-0_
  6
CONTINUOUS
 62
    7
 10
2769.2357080520541
 20
1802.5264895542557
 40
5
 50
270.00000000000005
 51
0.0000000000000508
  0
ARC
  8
_0-0_
  6
CONTINUOUS
 62
    7
 10
2742.7357080520537
 20
1821.0264895542557
 40
1.5
 50
0
 51
90.000000000000028
  0
ARC
  8
_0-0_
  6
CONTINUOUS
 62
    7
 10
2775.7357080520537
 20
1821.0264895542557
 40
1.5
 50
90.000000000000028
 51
180.00000000000005
  0
ARC
  8
_0-0_
  6
CONTINUOUS
 62
    7
 10
2309.4947080520537
 20
1196.4089895542556
 40
1
 50
180.00000000000005
 51
270.00000000000005
  0
ARC
  8
_0-0_
  6
CONTINUOUS
 62
    7
 10
2313.4947080520537
 20
1196.4089895542556
 40
1
 50
270.00000000000005
 51
0.0000000000000508
  0
ARC
  8
_0-0_
  6
CONTINUOUS
 62
    7
 10
2459.4947080520537
 20
1196.4089895542556
 40
1
 50
180.00000000000005
 51
270.00000000000005
  0
ARC
  8
_0-0_
  6
CONTINUOUS
 62
    7
 10
2463.4947080520537
 20
1196.4089895542556
 40
1
 50
270.00000000000005
 51
0.0000000000000508
  0
CIRCLE
  8
_0-0_
  6
CONTINUOUS
 62
    7
 10
2002.8117080520537
 20
1279.8669895542557
 40
25
  0
CIRCLE
  8
_0-0_
  6
CONTINUOUS
 62
    7
 10
1520.6022080520538
 20
1683.5539895542556
 40
25
  0
CIRCLE
  8
_0-0_
  6
CONTINUOUS
 62
    7
 10
1966.6212080520538
 20
771.45048955425568
 40
25
  0
CIRCLE
  8
_0-0_
  6
CONTINUOUS
 62
    7
 10
2770.4347080520537
 20
1258.0374895542556
 40
25
  0
CIRCLE
  8
_0-0_
  6
CONTINUOUS
 62
    7
 10
2313.6397080520537
 20
1257.3859895542557
 40
25
  0
CIRCLE
  8
_0-0_
  6
CONTINUOUS
 62
    7
 10
2517.2477080520538
 20
1976.7684895542556
 40
25
  0
POINT
  8
_0-0_
 62
    7
 10
688.1122080520538
 20
1558.5354895542557
  0
POINT
  8
_0-0_
 62
    7
 10
1928.1122080520538
 20
1578.0844895542556
  0
POINT
  8
_0-0_
 62
    7
 10
1908.1122080520538
 20
1578.0844895542556
  0
POINT
  8
_0-0_
 62
    7
 10
1979.2067080520539
 20
1942.4199895542556
  0
POINT
  8
_0-0_
 62
    7
 10
1979.2067080520539
 20
1777.4199895542556
  0
POINT
  8
_0-0_
 62
    7
 10
2476.7447080520537
 20
1598.9364895542557
  0
POINT
  8
_0-0_
 62
    7
 10
2311.7447080520541
 20
1598.9364895542557
  0
POINT
  8
_0-0_
 62
    7
 10
2559.8797080520535
 20
1445.9089895542556
  0
POINT
  8
_0-0_
 62
    7
 10
2559.8797080520535
 20
1250.9089895542556
  0
POINT
  8
_0-0_
 62
    7
 10
2028.7307080520538
 20
1969.4199895542556
  0
POINT
  8
_0-0_
 62
    7
 10
2028.7307080520538
 20
1734.9199895542556
  0
POINT
  8
_0-0_
 62
    7
 10
2604.8797080520535
 20
1498.4089895542556
  0
POINT
  8
_0-0_
 62
    7
 10
2604.8797080520535
 20
1198.4089895542556
  0
TEXT
  8
_0-0_
 62
    7
 10
1845.4322080520539
 20
1572.8444895542556
 40
40.96
 41
1
 50
0
  1
20
  0
TEXT
  8
_0-0_
 62
    7
 10
2352.7247080520537
 20
1593.6964895542555
 40
40.96
 41
1
 50
0
  1
165
  0
TEXT
  8
_0-0_
 62
    7
 10
2511.0647080520534
 20
1593.6964895542555
 40
40.96
 41
1
 50
0
  1
27
  0
TEXT
  8
_0-0_
 62
    7
 10
1825.9942080520538
 20
1536.5569895542557
 40
40.96
 41
1
 50
0
  1
A
  0
TEXT
  8
_0-0_
 62
    7
 10
1825.9942080520538
 20
1136.2054895542557
 40
40.96
 41
1
 50
0
  1
A
  0
TEXT
  8
_0-0_
 62
    7
 10
2388.4032080520541
 20
1224.5014895542556
 40
40.96
 41
1
 50
0
  1
B
  0
TEXT
  8
_0-0_
 62
    7
 10
2388.4032080520541
 20
1144.6764895542557
 40
40.96
 41
1
 50
0
  1
B
  0
TEXT
  8
_0-0_
 62
    7
 10
2459.1052080520539
 20
1227.1079895542557
 40
40.96
 41
1
 50
0
  1
C
  0
TEXT
  8
_0-0_
 62
    7
 10
2461.0602080520529
 20
1142.7214895542556
 40
40.96
 41
1
 50
0
  1
C
  0
TEXT
  8
_0-0_
 62
    7
 10
1370.5212621123064
 20
637.05072918897917
 40
40.96
 41
0.8333329999999997
 50
0
  1
Ｌ＝６００　１段は中間押さえなし
  0
LINE
  8
_0-0_
  6
CONTINUOUS
 62
    7
 10
1368.6007080520539
 20
635.04598955425569
 11
1920.8551514029759
 21
635.04598955425569
  0
TEXT
  8
_0-0_
 62
    7
 10
947.51005471186419
 20
1104.257781101716
 40
40.96
 41
0.8333329999999997
 50
0
  1
８００、６００、９００、１０００、１２００
  0
TEXT
  8
_0-0_
 62
    7
 10
1952.3278923341736
 20
742.53942736543558
 40
56
 41
1
 50
0
  1
6
  0
TEXT
  8
_0-0_
 62
    7
 10
1988.6039518544994
 20
1251.095474834386
 40
56
 41
1
 50
0
  1
2
  0
TEXT
  8
_0-0_
 62
    7
 10
2299.7776357460452
 20
1228.2860218848909
 40
56
 41
1
 50
0
  1
1
  0
TEXT
  8
_0-0_
 62
    7
 10
2503.9428504214838
 20
1945.8399689539915
 40
56
 41
1
 50
0
  1
5
  0
TEXT
  8
_0-0_
 62
    7
 10
2756.1204839144647
 20
1227.3943270768454
 40
56
 41
1
 50
0
  1
3
  0
TEXT
  8
_0-0_
 62
    7
 10
1503.9813975541242
 20
1653.8500237784469
 40
56
 41
1
 50
0
  1
4
  0
TEXT
  8
_0-0_
 62
    7
 10
2029.9951228607046
 20
1772.7179012009871
 40
40.96
 41
1
 50
90.000003000000006
  1
234.5
  0
TEXT
  8
_0-0_
 62
    7
 10
2029.1828988287045
 20
1886.1228002043026
 40
20.48
 41
1
 50
90.000003000000006
  1
±1
  0
TEXT
  8
_0-0_
 62
    7
 10
1983.7133032786289
 20
1818.4814872387185
 40
40.96
 41
1
 50
90.000003000000006
  1
165
  0
TEXT
  8
_0-0_
 62
    7
 10
1981.1420906030334
 20
1976.5661852559605
 40
40.96
 41
1
 50
90.000003000000006
  1
27
  0
TEXT
  8
_0-0_
 62
    7
 10
2755.031649730135
 20
1120.9697524844648
 40
40.96
 41
1.09375
 50
0
  1
SEC A-A
  0
LINE
  8
_0-0_
  6
CONTINUOUS
 62
    7
 10
2753.1348194062188
 20
1124.7729895542556
 11
2914.4417866728622
 21
1124.7729895542556
  0
TEXT
  8
_0-0_
 62
    7
 10
2559.5257061832526
 20
1100.5306466829388
 40
40.96
 41
1
 50
90.000003000000006
  1
52.5
  0
TEXT
  8
_0-0_
 62
    7
 10
2565.2515670536104
 20
1287.3530332268362
 40
40.96
 41
1
 50
90.000003000000006
  1
195
  0
TEXT
  8
_0-0_
 62
    7
 10
2560.2834904213455
 20
1349.2926540989262
 40
20.48
 41
1
 50
90.000003000000063
  1
±0.5
  0
TEXT
  8
_0-0_
 62
    7
 10
2606.2554175544132
 20
1295.5538033269967
 40
40.96
 41
1
 50
90.000003000000006
  1
300
  0
TEXT
  8
_0-0_
 62
    7
 10
2603.6304175574578
 20
1363.0472698561379
 40
20.48
 41
1
 50
90.000003000000106
  1
±1
  0
TEXT
  8
_0-0_
 62
    7
 10
2562.9084904183014
 20
1497.9480566383022
 40
40.96
 41
1
 50
90.000003000000006
  1
52.5
  0
TEXT
  8
_0-0_
 62
    7
 10
2321.9066711432583
 20
1711.8741789411665
 40
40.96
 41
1.1602209999999999
 50
0
  1
SEC B-B
  0
LINE
  8
_0-0_
  6
CONTINUOUS
 62
    7
 10
2324.0263039660167
 20
1711.5479895542557
 11
2490.8110340504836
 21
1711.5479895542557
  0
TEXT
  8
_0-0_
 62
    7
 10
2675.7839396960757
 20
1714.4209033459355
 40
40.96
 41
1.1602209999999999
 50
0
  1
SEC C-C
  0
LINE
  8
_0-0_
  6
CONTINUOUS
 62
    7
 10
2674.9776348194718
 20
1711.5479895542557
 11
2848.0839351429931
 21
1711.5479895542557
  0
LINE
  8
_1-0_
  6
CONTINUOUS
 62
    9
 10
2061.9813264116728
 20
279.73753086216959
 11
2061.9813264116728
 21
671.73753086216959
  0
LINE
  8
_1-0_
  6
CONTINUOUS
 62
    9
 10
2365.9813264116728
 20
279.73753086216959
 11
2365.9813264116728
 21
671.73753086216959
  0
LINE
  8
_1-0_
  6
CONTINUOUS
 62
    9
 10
2717.9813264116728
 20
279.73753086216959
 11
2717.9813264116728
 21
671.73753086216959
  0
LINE
  8
_1-0_
  6
CONTINUOUS
 62
    9
 10
2789.9813264116728
 20
279.73753086216959
 11
2789.9813264116728
 21
671.73753086216959
  0
LINE
  8
_1-0_
  6
CONTINUOUS
 62
    9
 10
3261.9813264116728
 20
279.73753086216959
 11
3261.9813264116728
 21
671.73753086216959
  0
TEXT
  8
_1-0_
 62
    7
 10
2797.9821264116735
 20
399.64153086216958
 40
40.96
 41
0.8333329999999997
 50
0
  1
スポット組立後電解研磨
  0
TEXT
  8
_1-0_
 62
    7
 10
2797.9821264116726
 20
623.64153086216958
 40
40.96
 41
1
 50
0
  1
MFBP
  0
TEXT
  8
_1-0_
 62
    7
 10
2797.9821264116717
 20
343.64153086216958
 40
40.96
 41
0.8333329999999997
 50
0
  1
指定色
  0
TEXT
  8
_1-0_
 62
    7
 10
2797.9821264116717
 20
455.64153086216958
 40
40.96
 41
0.8333329999999997
 50
0
  1
指定色
  0
TEXT
  8
_1-0_
 62
    7
 10
2797.9821264116726
 20
567.64153086216958
 40
40.96
 41
0.8333329999999997
 50
0
  1
光沢バレル
  0
TEXT
  8
_1-0_
 62
    7
 10
1993.981326411673
 20
287.64153086216958
 40
40.96
 41
0.8333329999999997
 50
0
  1
記号
  0
TEXT
  8
_1-0_
 62
    7
 10
2161.9813264116737
 20
287.64153086216958
 40
40.96
 41
1.25
 50
0
  1
部品名
  0
TEXT
  8
_1-0_
 62
    7
 10
2721.9813264116728
 20
287.64153086216958
 40
40.96
 41
0.8333329999999997
 50
0
  1
数量
  0
TEXT
  8
_1-0_
 62
    7
 10
2429.9813264116728
 20
287.64153086216958
 40
40.96
 41
1.25
 50
0
  1
材質・寸法
  0
TEXT
  8
_1-0_
 62
    7
 10
2849.9813264116737
 20
287.64153086216958
 40
40.96
 41
0.8333329999999997
 50
0
  1
仕上・処理・加工・記事
  0
TEXT
  8
_1-0_
 62
    7
 10
2009.9813264116735
 20
343.64153086216958
 40
40.96
 41
1.499999
 50
0
  1
1
  0
TEXT
  8
_1-0_
 62
    7
 10
2009.9813264116733
 20
399.64153086216958
 40
40.96
 41
1
 50
0
  1
2
  0
TEXT
  8
_1-0_
 62
    7
 10
2009.9813264116733
 20
455.64153086216958
 40
40.96
 41
1
 50
0
  1
3
  0
TEXT
  8
_1-0_
 62
    7
 10
2009.9813264116733
 20
511.64153086216958
 40
40.96
 41
1
 50
0
  1
4
  0
TEXT
  8
_1-0_
 62
    7
 10
2009.9813264116733
 20
567.64153086216958
 40
40.96
 41
1
 50
0
  1
5
  0
TEXT
  8
_1-0_
 62
    7
 10
2009.9813264116733
 20
623.64153086216958
 40
40.96
 41
1
 50
0
  1
6
  0
TEXT
  8
_1-0_
 62
    7
 10
2069.9813264116728
 20
343.64153086216958
 40
40.96
 41
0.8333329999999997
 50
0
  1
パイプ受枠（Ａ）
  0
TEXT
  8
_1-0_
 62
    7
 10
2069.9813264116733
 20
399.64153086216958
 40
40.96
 41
0.8333329999999997
 50
0
  1
フレ－ム（１段用）
  0
TEXT
  8
_1-0_
 62
    7
 10
2069.9813264116737
 20
455.64153086216958
 40
40.96
 41
0.8333329999999997
 50
0
  1
中間押え（Ａ）
  0
TEXT
  8
_1-0_
 62
    7
 10
2069.9813264116728
 20
511.64153086216958
 40
40.96
 41
0.8333329999999997
 50
0
  1
パイプ
  0
TEXT
  8
_1-0_
 62
    7
 10
2069.9813264116728
 20
567.64153086216958
 40
40.96
 41
0.8333329999999997
 50
0
  1
スプリング
  0
TEXT
  8
_1-0_
 62
    7
 10
2069.9813264116737
 20
623.64153086216958
 40
40.96
 41
0.8333329999999997
 50
0
  1
ＨＳ－くぼみ先
  0
TEXT
  8
_1-0_
 62
    7
 10
2373.9813264116728
 20
343.64153086216958
 40
40.96
 41
1.5
 50
0
  1
A.B.S.
  0
TEXT
  8
_1-0_
 62
    7
 10
2373.9813264116728
 20
399.64153086216958
 40
40.96
 41
1.1702129999999999
 50
0
  1
SUS430 t2.0
  0
TEXT
  8
_1-0_
 62
    7
 10
2373.9813264116728
 20
455.64153086216958
 40
40.96
 41
1.5
 50
0
  1
A.B.S.
  0
TEXT
  8
_1-0_
 62
    7
 10
2373.9813264116723
 20
511.64153086216958
 40
40.96
 41
1.145038
 50
0
  1
SUS304 φ10
  0
TEXT
  8
_1-0_
 62
    7
 10
2373.9813264116728
 20
567.64153086216958
 40
40.96
 41
1.1702129999999999
 50
0
  1
SUS302 t0.4
  0
TEXT
  8
_1-0_
 62
    7
 10
2373.9813264116728
 20
623.64153086216958
 40
40.96
 41
1
 50
0
  1
M5*L5
  0
TEXT
  8
_1-0_
 62
    7
 10
2737.9813264116719
 20
343.64153086216958
 40
40.96
 41
1
 50
0
  1
2
  0
TEXT
  8
_1-0_
 62
    7
 10
2737.9813264116719
 20
399.64153086216958
 40
40.96
 41
1
 50
0
  1
2
  0
TEXT
  8
_1-0_
 62
    7
 10
2724.3213264116739
 20
455.35753086216925
 40
40.96
 41
0.7764699999999998
 50
0
  1
1(0)
  0
TEXT
  8
_1-0_
 62
    7
 10
2737.9813264116719
 20
511.64153086216958
 40
40.96
 41
1
 50
0
  1
6
  0
TEXT
  8
_1-0_
 62
    7
 10
2737.9813264116719
 20
567.64153086216958
 40
40.96
 41
1
 50
0
  1
2
  0
TEXT
  8
_1-0_
 62
    7
 10
2737.9813264116719
 20
623.64153086216958
 40
40.96
 41
1
 50
0
  1
4
  0
LINE
  8
_1-0_
  6
CONTINUOUS
 62
    9
 10
1989.981326411673
 20
335.73753086216959
 11
3261.9813264116728
 21
335.73753086216959
  0
LINE
  8
_1-0_
  6
CONTINUOUS
 62
    6
 10
1989.981326411673
 20
279.73753086216959
 11
3261.9813264116728
 21
279.73753086216959
  0
LINE
  8
_1-0_
  6
CONTINUOUS
 62
    9
 10
1989.981326411673
 20
391.73753086216959
 11
3261.9813264116728
 21
391.73753086216959
  0
LINE
  8
_1-0_
  6
CONTINUOUS
 62
    9
 10
1989.981326411673
 20
447.73753086216959
 11
3261.9813264116728
 21
447.73753086216959
  0
LINE
  8
_1-0_
  6
CONTINUOUS
 62
    9
 10
1989.981326411673
 20
503.73753086216959
 11
3261.9813264116728
 21
503.73753086216959
  0
LINE
  8
_1-0_
  6
CONTINUOUS
 62
    9
 10
1989.981326411673
 20
559.73753086216959
 11
3261.9813264116728
 21
559.73753086216959
  0
LINE
  8
_1-0_
  6
CONTINUOUS
 62
    9
 10
1989.981326411673
 20
615.73753086216959
 11
3261.9813264116728
 21
615.73753086216959
  0
LINE
  8
_1-0_
  6
CONTINUOUS
 62
    9
 10
1989.981326411673
 20
671.73753086216959
 11
3261.9813264116728
 21
671.73753086216959
  0
LINE
  8
_1-0_
  6
CONTINUOUS
 62
    7
 10
1989.981326411673
 20
279.73753086216959
 11
1989.981326411673
 21
671.73753086216959
  0
TEXT
  8
_f-1_
 62
    7
 10
3122.2069756719174
 20
134.85981934213805
 40
28
 41
0.5714285714285713
 50
0
  1
１
  0
TEXT
  8
_f-1_
 62
    7
 10
2861.7676397657587
 20
134.85981934213805
 40
28
 41
0.5714285714285713
 50
0
  1
Ｍ．Ｉ
  0
TEXT
  8
_f-1_
 62
    7
 10
2303.3309513161811
 20
134.85981934213805
 40
28
 41
0.5714285714285713
 50
0
  1
１／８
  0
LINE
  8
_e-0_
  6
CONTINUOUS
 62
    7
 10
1799.15969553145
 20
180.4755431850225
 11
1822.4780940920632
 21
188.96274617184155
  0
LINE
  8
_e-0_
  6
CONTINUOUS
 62
    7
 10
1794.2378805204102
 20
174.42743793253578
 11
1834.1733116927141
 21
188.96274617184087
  0
LINE
  8
_e-0_
  6
CONTINUOUS
 62
    7
 10
1791.4963413793709
 20
169.17288819921975
 11
1815.2224257202901
 21
177.80847667500381
  0
LINE
  8
_e-0_
  6
CONTINUOUS
 62
    7
 10
1789.9005169459167
 20
164.33534451642401
 11
1807.297877932925
 21
170.667466070479
  0
LINE
  8
_e-0_
  6
CONTINUOUS
 62
    7
 10
1789.0929124455756
 20
159.78468942733661
 11
1803.6969183526982
 21
165.10011287857707
  0
LINE
  8
_e-0_
  6
CONTINUOUS
 62
    7
 10
1788.9028784262236
 20
155.458811610888
 11
1803.630799507252
 21
160.81933649700431
  0
LINE
  8
_e-0_
  6
CONTINUOUS
 62
    7
 10
1789.237951111271
 20
151.32405700465733
 11
1803.9938825776434
 21
156.69477683728882
  0
LINE
  8
_e-0_
  6
CONTINUOUS
 62
    7
 10
1790.0469568315213
 20
147.3617999162775
 11
1805.1466063707946
 21
152.85762289642434
  0
LINE
  8
_e-0_
  6
CONTINUOUS
 62
    7
 10
1791.3049953613781
 20
143.56297740480158
 11
1807.0609647304768
 21
149.29768126716362
  0
LINE
  8
_e-0_
  6
CONTINUOUS
 62
    7
 10
1793.0073754777156
 20
139.92588200465161
 11
1809.8108797066627
 21
146.04185737535453
  0
LINE
  8
_e-0_
  6
CONTINUOUS
 62
    7
 10
1795.1685584573249
 20
136.45577719012817
 11
1813.6350441183699
 21
143.17702830225243
  0
LINE
  8
_e-0_
  6
CONTINUOUS
 62
    7
 10
1797.825501510237
 20
133.16611428562509
 11
1819.2884224350011
 21
140.97797864264839
  0
LINE
  8
_e-0_
  6
CONTINUOUS
 62
    7
 10
1801.0474066621295
 20
130.08208076863911
 11
1831.7830637584372
 21
141.2689450823077
  0
LINE
  8
_e-0_
  6
CONTINUOUS
 62
    7
 10
1804.9590351324045
 20
127.24908600942535
 11
1827.4785371223003
 21
135.44551442424608
  0
LINE
  8
_e-0_
  6
CONTINUOUS
 62
    7
 10
1827.7988970908747
 20
182.38593790599782
 11
1845.868529293365
 21
188.96274617184224
  0
LINE
  8
_e-0_
  6
CONTINUOUS
 62
    7
 10
1812.5809147631646
 20
172.59033422321851
 11
1854.5718552493517
 21
187.87378666903407
  0
LINE
  8
_e-0_
  6
CONTINUOUS
 62
    7
 10
1822.5866463957597
 20
171.97541161963511
 11
1854.5718552493517
 21
183.61707557913052
  0
LINE
  8
_e-0_
  6
CONTINUOUS
 62
    7
 10
1834.281863996412
 20
171.97541161963511
 11
1854.5718552493517
 21
179.36036448922698
  0
LINE
  8
_e-0_
  6
CONTINUOUS
 62
    7
 10
1837.6310683902199
 20
168.93771123755107
 11
1854.5718552493517
 21
175.10365339932343
  0
LINE
  8
_e-0_
  6
CONTINUOUS
 62
    7
 10
1837.6310683902199
 20
164.68100014764752
 11
1854.5718552493517
 21
170.84694230941943
  0
LINE
  8
_e-0_
  6
CONTINUOUS
 62
    7
 10
1837.6310683902199
 20
160.42428905774386
 11
1854.5718552493517
 21
166.59023121951588
  0
LINE
  8
_e-0_
  6
CONTINUOUS
 62
    7
 10
1837.6310683902199
 20
156.16757796784031
 11
1854.5718552493517
 21
162.33352012961222
  0
LINE
  8
_e-0_
  6
CONTINUOUS
 62
    7
 10
1837.5716293718969
 20
151.88923284451311
 11
1854.5718552493517
 21
158.07680903970867
  0
LINE
  8
_e-0_
  6
CONTINUOUS
 62
    7
 10
1836.6541440652501
 20
147.2985844126133
 11
1854.5718552493517
 21
153.82009794980513
  0
LINE
  8
_e-0_
  6
CONTINUOUS
 62
    7
 10
1834.8469483448066
 20
142.38410787297516
 11
1854.5718552493517
 21
149.56338685990158
  0
LINE
  8
_e-0_
  6
CONTINUOUS
 62
    7
 10
1831.6512602623913
 20
136.96426144307315
 11
1853.6196446255551
 21
144.9600994461839
  0
LINE
  8
_e-0_
  6
CONTINUOUS
 62
    7
 10
1824.728028825393
 20
130.18770018516579
 11
1851.3619683492729
 21
139.88166139310442
  0
LINE
  8
_e-0_
  6
CONTINUOUS
 62
    7
 10
1817.7142474344375
 20
123.37818143930417
 11
1847.4672537819262
 21
134.20739012972353
  0
LINE
  8
_e-0_
  6
CONTINUOUS
 62
    7
 10
1829.841064481754
 20
123.53527079101559
 11
1838.3105180260349
 21
126.61789978163415
  0
LINE
  8
_e-0_
  6
CONTINUOUS
 62
    3
 10
1817.2881251349729
 20
178.91272189956373
 11
1813.990530083641
 21
176.66526465717856
  0
LINE
  8
_e-0_
  6
CONTINUOUS
 62
    3
 10
1830.0404250697356
 20
123.3781814393028
 11
1817.6672721483171
 21
123.3781814393028
  0
ARC
  8
_e-0_
  6
CONTINUOUS
 62
    3
 10
1830.0404250697356
 20
127.3781814393028
 40
4
 50
270
 51
286.20399351045659
  0
LINE
  8
_e-0_
  6
CONTINUOUS
 62
    3
 10
1854.71403998919
 20
188.96274617184087
 11
1854.71403998919
 21
148.67859318667296
  0
ARC
  8
_e-0_
  6
CONTINUOUS
 62
    3
 10
1821.6686839374967
 20
156.18640857001628
 40
34
 50
286.20399351045648
 51
345.50707147989851
  0
ARC
  8
_e-0_
  6
CONTINUOUS
 62
    3
 10
1850.71403998919
 20
148.67859318667296
 40
4
 50
345.50707147989879
 51
0.0000000000000159
  0
ARC
  8
_e-0_
  6
CONTINUOUS
 62
    3
 10
1804.2051423063574
 20
157.25630611245424
 40
32
 50
279.71265316664215
 51
332.69093929010892
  0
ARC
  8
_e-0_
  6
CONTINUOUS
 62
    3
 10
1808.9289399201584
 20
129.65765150568313
 40
4
 50
241.9452628118
 51
279.71265316664221
  0
ARC
  8
_e-0_
  6
CONTINUOUS
 62
    3
 10
1814.7424011534753
 20
184.96274617184087
 40
4
 50
90
 51
106.05338143786269
  0
LINE
  8
_e-0_
  6
CONTINUOUS
 62
    3
 10
1834.8777504483584
 20
188.96274617184064
 11
1826.7055104803337
 21
185.05236087191406
  0
LINE
  8
_e-0_
  6
CONTINUOUS
 62
    3
 10
1826.7055104803337
 20
185.05236087191406
 11
1821.9705179862462
 21
182.01541117400984
  0
LINE
  8
_e-0_
  6
CONTINUOUS
 62
    3
 10
1817.2881251349729
 20
178.91272189956373
 11
1821.9705179862462
 21
182.01541117400995
  0
ARC
  8
_e-0_
  6
CONTINUOUS
 62
    3
 10
1814.7424011534753
 20
184.96274617184087
 40
4
 50
90
 51
106.05338143786269
  0
ARC
  8
_e-0_
  6
CONTINUOUS
 62
    3
 10
1814.7424011534753
 20
184.96274617184087
 40
4
 50
90
 51
106.05338143786269
  0
LINE
  8
_e-0_
  6
CONTINUOUS
 62
    3
 10
1834.8777504483584
 20
188.96274617184087
 11
1814.7424011534753
 21
188.96274617184087
  0
ARC
  8
_e-0_
  6
CONTINUOUS
 62
    3
 10
1823.0383859374321
 20
156.13261199830003
 40
34
 50
106.05338143786271
 51
241.94526281180051
  0
ARC
  8
_e-0_
  6
CONTINUOUS
 62
    3
 10
1814.7424011534753
 20
184.96274617184087
 40
4
 50
90
 51
106.05338143786269
  0
LINE
  8
_e-0_
  6
CONTINUOUS
 62
    3
 10
1843.4685376728652
 20
188.96274617184087
 11
1854.71403998919
 21
188.96274617184087
  0
ARC
  8
_e-0_
  6
CONTINUOUS
 62
    3
 10
1843.4685376728652
 20
184.96274617184087
 40
4
 50
90
 51
112.84552721528329
  0
LINE
  8
_e-0_
  6
CONTINUOUS
 62
    3
 10
1837.7732531300582
 20
171.97541161963374
 11
1819.3448349985546
 21
171.97541161963374
  0
ARC
  8
_e-0_
  6
CONTINUOUS
 62
    3
 10
1819.3448349985546
 20
167.97541161963374
 40
4
 50
90
 51
110.93110431809542
  0
ARC
  8
_e-0_
  6
CONTINUOUS
 62
    3
 10
1807.5143643403869
 20
163.02291095987675
 40
0.4
 50
165.368776721252
 51
224.67319701305797
  0
LINE
  8
_e-0_
  6
CONTINUOUS
 62
    3
 10
1807.229912962631
 20
162.74168611443656
 11
1807.0779579353225
 21
162.89538454320518
  0
ARC
  8
_e-0_
  6
CONTINUOUS
 62
    3
 10
1825.060756612811
 20
153.03124084639648
 40
20
 50
110.93110431809527
 51
150.17701829297226
  0
ARC
  8
_e-0_
  6
CONTINUOUS
 62
    3
 10
1807.3624093130783
 20
163.17660938864537
 40
0.4
 50
224.67319701305652
 51
330.17701829297561
  0
LINE
  8
_e-0_
  6
CONTINUOUS
 62
    3
 10
1841.9155457675856
 20
188.64896593497712
 11
1830.9496666087848
 21
184.02907817402558
  0
LINE
  8
_e-0_
  6
CONTINUOUS
 62
    3
 10
1830.9496666087848
 20
184.02907817402558
 11
1825.8225740245354
 21
181.22891367658587
  0
ARC
  8
_e-0_
  6
CONTINUOUS
 62
    3
 10
1826.4787689126405
 20
158.07201617005557
 40
20
 50
126.05682261028304
 51
165.36877672125814
  0
ARC
  8
_e-0_
  6
CONTINUOUS
 62
    3
 10
1861.753985197844
 20
109.7521084101595
 40
80
 50
116.6886898974924
 51
126.03335467187628
  0
LINE
  8
_e-0_
  6
CONTINUOUS
 62
    3
 10
1813.990530083641
 20
176.66526465717856
 11
1807.6157844690919
 21
170.8613064936211
  0
LINE
  8
_e-0_
  6
CONTINUOUS
 62
    3
 10
1807.6157844690919
 20
170.8613064936211
 11
1806.1396681199041
 21
169.15472945634155
  0
ARC
  8
_e-0_
  6
CONTINUOUS
 62
    3
 10
1823.7704576956566
 20
160.50144394614471
 40
20
 50
169.07329675873063
 51
296.32138326661799
  0
LINE
  8
_e-0_
  6
CONTINUOUS
 62
    3
 10
1806.1396681199041
 20
169.15472945634166
 11
1804.1330481690713
 21
164.2925054182366
  0
LINE
  8
_e-0_
  6
CONTINUOUS
 62
    3
 10
1837.7732531300582
 20
171.97541161963374
 11
1837.7732531300582
 21
152.39922642879082
  0
ARC
  8
_e-0_
  6
CONTINUOUS
 62
    3
 10
1825.9582253346216
 20
136.16454720859519
 40
4
 50
311.4163090429962
 51
326.13300916724881
  0
ARC
  8
_e-0_
  6
CONTINUOUS
 62
    3
 10
1805.9597041870072
 20
155.84858921749628
 40
32
 50
316.78132524618342
 51
353.81191653224226
  0
ARC
  8
_e-0_
  6
CONTINUOUS
 62
    3
 10
1796.8511097137852
 20
169.16115037066731
 40
48
 50
294.69555798319504
 51
311.41630904299643
  0
ARC
  8
_e-0_
  6
CONTINUOUS
 62
    3
 10
1821.6724035816769
 20
183.24435654847059
 40
60
 50
264.68313230529076
 51
266.17253517307824
  0
ARC
  8
_e-0_
  6
CONTINUOUS
 62
    3
 10
1816.1496457734733
 20
123.90078784728848
 40
0.4
 50
174.02086603460466
 51
264.68313230528985
  0
ARC
  8
_e-0_
  6
CONTINUOUS
 62
    3
 10
1817.7409416081895
 20
123.73412181471258
 40
2
 50
114.69555798319522
 51
174.02086603461154
  0
LINE
  8
_e-0_
  6
CONTINUOUS
 62
    7
 10
1905.6429448438564
 20
156.4040755346341
 11
1914.7404640960178
 21
159.71530174808458
  0
LINE
  8
_e-0_
  6
CONTINUOUS
 62
    3
 10
1953.1377700733225
 20
150.96631928229271
 11
1953.1377700733225
 21
130.05196832477395
  0
CIRCLE
  8
_e-0_
  6
CONTINUOUS
 62
    3
 10
1896.5443457570117
 20
150.83016693518175
 40
10.67019036466452
  0
CIRCLE
  8
_e-0_
  6
CONTINUOUS
 62
    3
 10
1896.3173717991116
 20
150.60319297728165
 40
20.553366051118132
  0
LINE
  8
_e-0_
  6
CONTINUOUS
 62
    3
 10
1923.7261206963871
 20
171.46982239905753
 11
1923.7261206963871
 21
130.05196832477395
  0
LINE
  8
_e-0_
  6
CONTINUOUS
 62
    3
 10
1923.7261206963871
 20
130.05196832477395
 11
1936.016495919116
 21
130.05196832477395
  0
LINE
  8
_e-0_
  6
CONTINUOUS
 62
    3
 10
1936.016495919116
 20
130.05196832477395
 11
1936.016495919116
 21
158.96631928229271
  0
LINE
  8
_e-0_
  6
CONTINUOUS
 62
    3
 10
1965.0729321393255
 20
130.05196832477395
 11
1953.1377700733225
 21
130.05196832477395
  0
LINE
  8
_e-0_
  6
CONTINUOUS
 62
    3
 10
1945.1377700733225
 20
158.96631928229271
 11
1936.016495919116
 21
158.96631928229271
  0
ARC
  8
_e-0_
  6
CONTINUOUS
 62
    3
 10
1945.1377700733225
 20
150.96631928229271
 40
8
 50
0
 51
90
  0
LINE
  8
_e-0_
  6
CONTINUOUS
 62
    3
 10
1945.0729321393253
 20
171.46982239905753
 11
1923.7261206963871
 21
171.46982239905753
  0
LINE
  8
_e-0_
  6
CONTINUOUS
 62
    3
 10
1965.0729321393255
 20
151.46982239905764
 11
1965.0729321393255
 21
130.05196832477395
  0
ARC
  8
_e-0_
  6
CONTINUOUS
 62
    3
 10
1945.0729321393253
 20
151.46982239905764
 40
20
 50
0
 51
90
  0
ARC
  8
_e-0_
  6
CONTINUOUS
 62
    3
 10
1993.1271598101998
 20
150.60104944138902
 40
10.67019036466452
 50
23.422555400004949
 51
97.191484740792631
  0
LINE
  8
_e-0_
  6
CONTINUOUS
 62
    3
 10
1983.3362122210314
 20
154.84254772906297
 11
2002.9181073993677
 21
154.84254772906297
  0
ARC
  8
_e-0_
  6
CONTINUOUS
 62
    3
 10
1993.1271598101998
 20
150.60104944138902
 40
10.67019036466452
 50
92.530763017635251
 51
156.57744459999506
  0
ARC
  8
_e-0_
  6
CONTINUOUS
 62
    3
 10
1993.1271598101998
 20
150.60104944138902
 40
10.67019036466452
 50
204.21097500392608
 51
316.0067678116265
  0
LINE
  8
_e-0_
  6
CONTINUOUS
 62
    3
 10
1983.3955025449704
 20
146.22522845667162
 11
2013.3470116011717
 21
146.22522845667162
  0
LINE
  8
_e-0_
  6
CONTINUOUS
 62
    3
 10
2000.8035278891911
 20
143.18981907565193
 11
2011.098344284092
 21
140.6913671234538
  0
ARC
  8
_e-0_
  6
CONTINUOUS
 62
    3
 10
1993.3834207304093
 20
151.11357128180816
 40
20.553366051118132
 50
346.24110979921471
 51
329.53046432565099
  0
ARC
  8
_e-0_
  6
CONTINUOUS
 62
    3
 10
2041.3417985500532
 20
150.57429810496887
 40
8.8718053134943541
 50
94.502189492040685
 51
357.22978420280037
  0
LINE
  8
_e-0_
  6
CONTINUOUS
 62
    3
 10
2049.4032362370985
 20
159.41872799738212
 11
2040.6453867475011
 21
159.41872799738212
  0
LINE
  8
_e-0_
  6
CONTINUOUS
 62
    3
 10
2050.2032362370982
 20
158.61872799738239
 11
2050.2032362370982
 21
150.14551886204753
  0
ARC
  8
_e-0_
  6
CONTINUOUS
 62
    3
 10
2049.4032362370985
 20
158.61872799738239
 40
0.8
 50
0
 51
90
  0
LINE
  8
_e-0_
  6
CONTINUOUS
 62
    3
 10
2043.3072279046223
 20
171.49228928402646
 11
2050.0454133528346
 21
171.49228928402646
  0
ARC
  8
_e-0_
  6
CONTINUOUS
 62
    3
 10
2041.7039798451442
 20
151.00154865097374
 40
20.553366051118132
 50
85.526146014136969
 51
347.40557840019874
  0
LINE
  8
_e-0_
  6
CONTINUOUS
 62
    3
 10
2050.0454133528346
 20
188.16274617184092
 11
2050.0454133528346
 21
171.49228928402646
  0
ARC
  8
_e-0_
  6
CONTINUOUS
 62
    3
 10
2050.8454133528348
 20
188.16274617184092
 40
0.8
 50
90
 51
180
  0
LINE
  8
_e-0_
  6
CONTINUOUS
 62
    3
 10
2061.7627907212699
 20
188.16274617184092
 11
2061.7627907212699
 21
146.51992369265053
  0
LINE
  8
_e-0_
  6
CONTINUOUS
 62
    3
 10
2060.9627907212702
 20
188.96274617184087
 11
2050.8454133528348
 21
188.96274617184087
  0
ARC
  8
_e-0_
  6
CONTINUOUS
 62
    3
 10
2060.9627907212702
 20
188.16274617184092
 40
0.8
 50
0
 51
90
  0
CIRCLE
  8
_e-0_
  6
CONTINUOUS
 62
    3
 10
2090.1255789798478
 20
150.9546895112785
 40
10.67019036466452
  0
CIRCLE
  8
_e-0_
  6
CONTINUOUS
 62
    3
 10
2089.8986050219477
 20
150.7277155533784
 40
20.553366051118132
  0
ARC
  8
_e-0_
  6
CONTINUOUS
 62
    3
 10
1893.1754669792758
 20
167.70869102623703
 40
4
 50
90
 51
106.05338143786269
  0
ARC
  8
_e-0_
  6
CONTINUOUS
 62
    3
 10
1893.1754669792758
 20
167.70869102623703
 40
4
 50
90
 51
106.05338143786269
  0
ARC
  8
_e-0_
  6
CONTINUOUS
 62
    3
 10
1893.1754669792758
 20
167.70869102623703
 40
4
 50
90
 51
106.05338143786269
  0
ARC
  8
_e-0_
  6
CONTINUOUS
 62
    3
 10
1893.1754669792758
 20
167.70869102623703
 40
4
 50
90
 51
106.05338143786269
  0
LINE
  8
_e-0_
  6
CONTINUOUS
 62
    7
 10
1881.2086156626621
 20
164.53755137803193
 11
1898.9345175509452
 21
170.98925204088993
  0
LINE
  8
_e-0_
  6
CONTINUOUS
 62
    7
 10
1893.1241563622725
 20
164.61774242797366
 11
1905.3474189652451
 21
169.06664618107504
  0
LINE
  8
_e-0_
  6
CONTINUOUS
 62
    7
 10
1877.5318753949675
 20
158.94261627155947
 11
1893.1241563622725
 21
164.61774242797366
  0
LINE
  8
_e-0_
  6
CONTINUOUS
 62
    7
 10
1876.0732238310681
 20
154.15499943023041
 11
1889.919484854834
 21
159.1946262987617
  0
LINE
  8
_e-0_
  6
CONTINUOUS
 62
    7
 10
1875.7800366403625
 20
149.79157692984199
 11
1886.2395327203262
 21
153.59852216837271
  0
LINE
  8
_e-0_
  6
CONTINUOUS
 62
    7
 10
1876.3473137040109
 20
145.74133780568809
 11
1885.9915751011137
 21
149.251561885716
  0
LINE
  8
_e-0_
  6
CONTINUOUS
 62
    7
 10
1877.6673371960962
 20
141.96507597543586
 11
1887.3145170390364
 21
145.47636228287865
  0
LINE
  8
_e-0_
  6
CONTINUOUS
 62
    7
 10
1879.7342544954665
 20
138.46066125919287
 11
1890.182906253118
 21
142.26365948719103
  0
LINE
  8
_e-0_
  6
CONTINUOUS
 62
    7
 10
1882.6398831301016
 20
135.26151250412794
 11
1896.1213476887248
 21
140.16836431778119
  0
LINE
  8
_e-0_
  6
CONTINUOUS
 62
    7
 10
1886.6510546805061
 20
132.46474846310684
 11
1904.3337316321108
 21
138.90071653563609
  0
LINE
  8
_e-0_
  6
CONTINUOUS
 62
    7
 10
1892.628357700282
 20
130.38359775359094
 11
1904.3766337281679
 21
134.65962053168459
  0
LINE
  8
_e-0_
  6
CONTINUOUS
 62
    7
 10
1904.3766337281679
 20
134.65962053168459
 11
1912.1402258327732
 21
137.48533696874528
  0
LINE
  8
_e-0_
  6
CONTINUOUS
 62
    7
 10
1903.6510743720484
 20
138.65224961276771
 11
1915.381367705944
 21
142.92172722551686
  0
LINE
  8
_e-0_
  6
CONTINUOUS
 62
    7
 10
1903.7216556960615
 20
142.93465020370695
 11
1916.6563781097431
 21
147.64250415078277
  0
LINE
  8
_e-0_
  6
CONTINUOUS
 62
    7
 10
1906.923935985063
 20
148.35689600058458
 11
1916.8258455977727
 21
151.96089636200531
  0
LINE
  8
_e-0_
  6
CONTINUOUS
 62
    7
 10
1907.056164052539
 20
152.66173417118397
 11
1916.1566017505376
 21
155.97402261204933
  0
LINE
  8
_e-0_
  6
CONTINUOUS
 62
    7
 10
1896.2427127969253
 20
161.49609305416288
 11
1909.5422316757499
 21
166.33672205611662
  0
LINE
  8
_e-0_
  6
CONTINUOUS
 62
    7
 10
1902.6588260780386
 20
159.57465621826486
 11
1912.5715800130606
 21
163.18260359021769
  0
LINE
  8
_e-0_
  6
CONTINUOUS
 62
    7
 10
1923.7261206963871
 20
167.24252437585994
 11
1935.3405265604278
 21
171.46982239905753
  0
LINE
  8
_e-0_
  6
CONTINUOUS
 62
    7
 10
1923.7261206963871
 20
162.98581328595628
 11
1946.8245867459509
 21
171.3929673852059
  0
LINE
  8
_e-0_
  6
CONTINUOUS
 62
    7
 10
1923.7261206963871
 20
158.72910219605273
 11
1953.5503991546345
 21
169.58425181332142
  0
LINE
  8
_e-0_
  6
CONTINUOUS
 62
    7
 10
1923.7261206963871
 20
154.47239110614918
 11
1957.8197538826655
 21
166.88145876394457
  0
LINE
  8
_e-0_
  6
CONTINUOUS
 62
    7
 10
1923.7261206963871
 20
150.21568001624564
 11
1936.016495919116
 21
154.68901076528163
  0
LINE
  8
_e-0_
  6
CONTINUOUS
 62
    7
 10
1947.0981579390802
 20
158.72240588674685
 11
1960.8704782123877
 21
163.73512052301111
  0
LINE
  8
_e-0_
  6
CONTINUOUS
 62
    7
 10
1923.7261206963871
 20
145.95896892634209
 11
1936.016495919116
 21
150.43229967537808
  0
LINE
  8
_e-0_
  6
CONTINUOUS
 62
    7
 10
1926.8028661349376
 20
130.05196832477395
 11
1936.016495919116
 21
133.40545531576344
  0
LINE
  8
_e-0_
  6
CONTINUOUS
 62
    7
 10
1923.7261206963871
 20
133.18883565663099
 11
1936.016495919116
 21
137.66216640566744
  0
LINE
  8
_e-0_
  6
CONTINUOUS
 62
    7
 10
1923.7261206963871
 20
137.445546746535
 11
1936.016495919116
 21
141.91887749557099
  0
LINE
  8
_e-0_
  6
CONTINUOUS
 62
    7
 10
1923.7261206963871
 20
141.70225783643854
 11
1936.016495919116
 21
146.17558858547454
  0
LINE
  8
_e-0_
  6
CONTINUOUS
 62
    7
 10
1953.1377700733225
 20
148.15051166041303
 11
1965.0729321393255
 21
152.49455539358086
  0
LINE
  8
_e-0_
  6
CONTINUOUS
 62
    7
 10
1953.1377700733225
 20
143.89380057050948
 11
1965.0729321393255
 21
148.23784430367732
  0
LINE
  8
_e-0_
  6
CONTINUOUS
 62
    7
 10
1953.0149893684938
 20
152.36253422841673
 11
1964.4259256662808
 21
156.51577538591891
  0
LINE
  8
_e-0_
  6
CONTINUOUS
 62
    7
 10
1953.1377700733225
 20
139.63708948060593
 11
1965.0729321393255
 21
143.98113321377377
  0
LINE
  8
_e-0_
  6
CONTINUOUS
 62
    7
 10
1953.1377700733225
 20
135.38037839070238
 11
1965.0729321393255
 21
139.72442212387022
  0
LINE
  8
_e-0_
  6
CONTINUOUS
 62
    7
 10
1953.1377700733225
 20
131.12366730079838
 11
1965.0729321393255
 21
135.46771103396667
  0
LINE
  8
_e-0_
  6
CONTINUOUS
 62
    7
 10
1961.8885189368954
 20
130.05196832477395
 11
1965.0729321393255
 21
131.21099994406267
  0
LINE
  8
_e-0_
  6
CONTINUOUS
 62
    7
 10
1951.3460732406733
 20
156.01180952430695
 11
1963.0347003106967
 21
160.26612185723342
  0
LINE
  8
_e-0_
  6
CONTINUOUS
 62
    7
 10
1979.481658721248
 20
166.25232516288804
 11
1994.3017848462382
 21
171.64640994045487
  0
LINE
  8
_e-0_
  6
CONTINUOUS
 62
    7
 10
1975.0362624312069
 20
160.37762214389204
 11
2001.4833422828842
 21
170.00357199316374
  0
LINE
  8
_e-0_
  6
CONTINUOUS
 62
    7
 10
1973.3012705854544
 20
155.48942566543973
 11
2005.9544952752421
 21
167.37422750532857
  0
LINE
  8
_e-0_
  6
CONTINUOUS
 62
    7
 10
1973.3303449058316
 20
151.24329676273509
 11
1983.322525053783
 21
154.88015291201509
  0
LINE
  8
_e-0_
  6
CONTINUOUS
 62
    7
 10
1997.8516166210242
 20
160.16830977341851
 11
2009.1618056823317
 21
164.28488193565783
  0
LINE
  8
_e-0_
  6
CONTINUOUS
 62
    7
 10
2001.4851336038009
 20
157.23409071094647
 11
2011.4737448169212
 21
160.86964787417991
  0
LINE
  8
_e-0_
  6
CONTINUOUS
 62
    7
 10
1974.6984254791341
 20
147.48452627959159
 11
1994.9144232634203
 21
154.84254772906297
  0
LINE
  8
_e-0_
  6
CONTINUOUS
 62
    7
 10
1974.4420548838816
 20
143.13450392407503
 11
2013.022194416631
 21
157.17652634783189
  0
LINE
  8
_e-0_
  6
CONTINUOUS
 62
    7
 10
1976.3711847013269
 20
139.57993866575679
 11
1985.6736257666566
 21
142.96575031955217
  0
LINE
  8
_e-0_
  6
CONTINUOUS
 62
    7
 10
1994.6289683475988
 20
146.22522845667162
 11
2013.8292257457906
 21
153.21355063986266
  0
LINE
  8
_e-0_
  6
CONTINUOUS
 62
    7
 10
2006.3241859482513
 20
146.22522845667162
 11
2013.8230810063378
 21
148.95460304770085
  0
LINE
  8
_e-0_
  6
CONTINUOUS
 62
    7
 10
1979.113490587385
 20
136.32134529163113
 11
1990.1749625942134
 21
140.34739184928548
  0
LINE
  8
_e-0_
  6
CONTINUOUS
 62
    7
 10
1982.8916377773243
 20
133.43976731954217
 11
2006.1288404803767
 21
141.89741743106287
  0
LINE
  8
_e-0_
  6
CONTINUOUS
 62
    7
 10
1988.3765109640426
 20
131.17938680832867
 11
2010.0323829228905
 21
139.06147959842928
  0
LINE
  8
_e-0_
  6
CONTINUOUS
 62
    7
 10
2046.2294865899182
 20
130.95259245035686
 11
2051.1244611839165
 21
132.73421750006127
  0
LINE
  8
_e-0_
  6
CONTINUOUS
 62
    7
 10
2035.6519653973673
 20
131.35940067385172
 11
2058.9658212298627
 21
139.84495024285342
  0
LINE
  8
_e-0_
  6
CONTINUOUS
 62
    7
 10
2030.5290953885596
 20
133.75153956653457
 11
2061.352530092065
 21
144.97035231645804
  0
LINE
  8
_e-0_
  6
CONTINUOUS
 62
    7
 10
2021.7964428000009
 20
156.11338049753339
 11
2061.7627907212699
 21
170.65994151320171
  0
LINE
  8
_e-0_
  6
CONTINUOUS
 62
    7
 10
2023.8026976998294
 20
161.1003086533251
 11
2061.7627907212699
 21
174.91665260310526
  0
LINE
  8
_e-0_
  6
CONTINUOUS
 62
    7
 10
2050.0454133528346
 20
187.67872037694507
 11
2053.5732452303086
 21
188.96274617184087
  0
LINE
  8
_e-0_
  6
CONTINUOUS
 62
    7
 10
2050.0454133528346
 20
183.42200928704153
 11
2061.7627907212699
 21
187.68678587281613
  0
LINE
  8
_e-0_
  6
CONTINUOUS
 62
    7
 10
2050.0454133528346
 20
179.16529819713775
 11
2061.7627907212699
 21
183.43007478291258
  0
LINE
  8
_e-0_
  6
CONTINUOUS
 62
    7
 10
2050.0454133528346
 20
174.90858710723398
 11
2061.7627907212699
 21
179.17336369300903
  0
LINE
  8
_e-0_
  6
CONTINUOUS
 62
    7
 10
2029.2189769003862
 20
167.32838415270646
 11
2040.7733594073965
 21
171.53383546058432
  0
LINE
  8
_e-0_
  6
CONTINUOUS
 62
    7
 10
2042.5730280199397
 20
159.41872799738212
 11
2061.7627907212699
 21
166.40323042329816
  0
LINE
  8
_e-0_
  6
CONTINUOUS
 62
    7
 10
2021.1600731486878
 20
151.62504979656114
 11
2034.8311180695477
 21
156.60090321907046
  0
LINE
  8
_e-0_
  6
CONTINUOUS
 62
    7
 10
2021.4552799350876
 20
147.47578518986074
 11
2032.5186866222093
 21
151.50253591355431
  0
LINE
  8
_e-0_
  6
CONTINUOUS
 62
    7
 10
2022.5261604849429
 20
143.60884274455884
 11
2033.0433127550422
 21
147.43677312012005
  0
LINE
  8
_e-0_
  6
CONTINUOUS
 62
    7
 10
2024.3360261792245
 20
140.01086889539328
 11
2035.3593420170927
 21
144.02302774329245
  0
LINE
  8
_e-0_
  6
CONTINUOUS
 62
    7
 10
2026.9403363024048
 20
136.7020491711255
 11
2040.7358609747477
 21
141.72320951794335
  0
LINE
  8
_e-0_
  6
CONTINUOUS
 62
    7
 10
2047.4953437384708
 20
144.18346004297382
 11
2061.7627907212699
 21
149.37638606368363
  0
LINE
  8
_e-0_
  6
CONTINUOUS
 62
    7
 10
2050.1357015495209
 20
149.40118278391173
 11
2061.7627907212699
 21
153.63309715358718
  0
LINE
  8
_e-0_
  6
CONTINUOUS
 62
    7
 10
2050.2032362370982
 20
153.68247448987403
 11
2061.7627907212699
 21
157.88980824349073
  0
LINE
  8
_e-0_
  6
CONTINUOUS
 62
    7
 10
2050.2032362370982
 20
157.93918557977758
 11
2061.7627907212699
 21
162.14651933339428
  0
LINE
  8
_e-0_
  6
CONTINUOUS
 62
    7
 10
2080.248361571269
 20
168.87471688621292
 11
2085.6264527823745
 21
170.8321820042239
  0
LINE
  8
_e-0_
  6
CONTINUOUS
 62
    7
 10
2072.6058681509234
 20
161.8363656757283
 11
2096.0051073493254
 21
170.35299224842094
  0
LINE
  8
_e-0_
  6
CONTINUOUS
 62
    7
 10
2090.9454453140697
 20
130.20102606300906
 11
2102.2909805056269
 21
134.33046316455511
  0
LINE
  8
_e-0_
  6
CONTINUOUS
 62
    7
 10
2082.7265322348339
 20
131.46629743404946
 11
2107.7737324382569
 21
140.58273275980172
  0
LINE
  8
_e-0_
  6
CONTINUOUS
 62
    7
 10
2070.2374250171033
 20
156.717611783562
 11
2101.109711629751
 21
167.95420517430022
  0
LINE
  8
_e-0_
  6
CONTINUOUS
 62
    7
 10
2077.9684061806133
 20
133.99119226933044
 11
2109.7956973458726
 21
145.57537889080822
  0
LINE
  8
_e-0_
  6
CONTINUOUS
 62
    7
 10
2074.5865909892077
 20
137.01702329177305
 11
2085.9278408684017
 21
141.14490066717507
  0
LINE
  8
_e-0_
  6
CONTINUOUS
 62
    7
 10
2072.1384948217432
 20
140.38270024609846
 11
2082.0436981254465
 21
143.98789941300174
  0
LINE
  8
_e-0_
  6
CONTINUOUS
 62
    7
 10
2070.4668153031352
 20
144.03096974999652
 11
2080.0265657212776
 21
147.51043434921393
  0
LINE
  8
_e-0_
  6
CONTINUOUS
 62
    7
 10
2069.534051211533
 20
147.94818247496459
 11
2079.4728929232223
 21
151.56562502110273
  0
LINE
  8
_e-0_
  6
CONTINUOUS
 62
    7
 10
2069.3948012889891
 20
152.15421073793822
 11
2080.9192226082459
 21
156.34875706529055
  0
LINE
  8
_e-0_
  6
CONTINUOUS
 62
    7
 10
2093.7108173301553
 20
161.00451679286197
 11
2104.6884965044705
 21
165.00006525363653
  0
LINE
  8
_e-0_
  6
CONTINUOUS
 62
    7
 10
2097.8933081617838
 20
158.27010787076233
 11
2107.2854077285314
 21
161.68855255032303
  0
LINE
  8
_e-0_
  6
CONTINUOUS
 62
    7
 10
2100.0757965103339
 20
154.80775757636365
 11
2109.0888047835346
 21
158.08822430900363
  0
LINE
  8
_e-0_
  6
CONTINUOUS
 62
    7
 10
2100.7948252527703
 20
150.81275154628883
 11
2110.153286411532
 21
154.21895284661422
  0
LINE
  8
_e-0_
  6
CONTINUOUS
 62
    7
 10
2099.64684365642
 20
146.13820932582848
 11
2110.4413513906724
 21
150.06708883465262
  0
TEXT
  8
_e-0_
 62
    7
 10
2118.417897376195
 20
165.30979580173413
 40
28
 41
0.5714285714285713
 50
0
  1
ワンド
  0
TEXT
  8
_e-0_
 62
    7
 10
2123.8945593281041
 20
138.47415223737743
 40
24
 41
0.6666666666666666
 50
0
  1
株式
  0
TEXT
  8
_e-0_
 62
    7
 10
2123.3468931329134
 20
116.01983823454884
 40
24
 41
0.6666666666666666
 50
0
  1
会社
  0
TEXT
  8
_f-1_
 62
    7
 10
1384.4504480574855
 20
130.38808348827774
 40
36
 41
0.6666666666666666
 50
0
  1
水切棚　１段
  0
TEXT
  8
_f-1_
 62
    7
 10
2439.5112164767301
 20
134.85981934213805
 40
28
 41
0.5714285714285713
 50
0
  1
２０２３.０５．０１
  0
ENDSEC
  0
EOF
