  0
SECTION
  2
HEADER
  9
$ACADVER
  1
AC1009
  9
$INSBASE
 10
0
 20
0
 30
0
  9
$EXTMIN
 10
0
 20
0
  9
$EXTMAX
 10
3360
 20
2376
  9
$LIMMIN
 10
0
 20
0
  9
$LIMMAX
 10
3360
 20
2376
  9
$LTSCALE
 40
8
  0
ENDSEC
  0
SECTION
  2
TABLES
  0
TABLE
  2
LTYPE
 70
     9
  0
LTYPE
  2
CONTINUOUS
 70
    64
  3
実線
 72
    65
 73
     0
 40
0.0
  0
LTYPE
  2
DASHED1
 70
    64
  3
--  --  --  --  --  --  --  --  
 72
    65
 73
     2
 40
2.5
 49
1.25
 49
-1.25
  0
LTYPE
  2
DASHED2
 70
    64
  3
----    ----    ----    ----    
 72
    65
 73
     2
 40
5.0
 49
2.5
 49
-2.5
  0
LTYPE
  2
DASHED3
 70
    64
  3
------  ------  ------  ------  
 72
    65
 73
     2
 40
5.0
 49
3.75
 49
-1.25
  0
LTYPE
  2
CENTER1
 70
    64
  3
----- - ----- - ----- - ----- - 
 72
    65
 73
     4
 40
10.0
 49
6.25
 49
-1.25
 49
1.25
 49
-1.25
  0
LTYPE
  2
CENTER2
 70
    64
  3
----------  --  ----------  --  
 72
    65
 73
     4
 40
20.0
 49
12.5
 49
-2.5
 49
2.5
 49
-2.5
  0
LTYPE
  2
PHANTOM1
 70
    64
  3
--- - - --- - - --- - - --- - - 
 72
    65
 73
     6
 40
10.0
 49
3.25
 49
-1.25
 49
1.25
 49
-1.25
 49
1.25
 49
-1.25
  0
LTYPE
  2
PHANTOM2
 70
    64
  3
--------  -  -  --------  -  -  
 72
    65
 73
     6
 40
20.0
 49
10.0
 49
-2.5
 49
1.25
 49
-2.5
 49
1.25
 49
-2.5
  0
LTYPE
  2
DOT
 70
    64
  3
-   -   -   -   -   -   -   -   
 72
    65
 73
     2
 40
2.5
 49
0.625
 49
-1.875
  0
LTYPE
  2
DUMMY
 70
    64
  3
ダミー
 72
    65
 73
     0
 40
0.0
  0
LTYPE
  2
RAND1
 70
    64
  3
ランダム線1
 72
    65
 73
     4
 40
10.0
 49
1.0
 49
-2.0
 49
3.0
 49
-4.0
  0
LTYPE
  2
RAND2
 70
    64
  3
ランダム線2
 72
    65
 73
     4
 40
14.0
 49
2.0
 49
-3.0
 49
4.0
 49
-5.0
  0
LTYPE
  2
RAND3
 70
    64
  3
ランダム線3
 72
    65
 73
     4
 40
18.0
 49
3.0
 49
-4.0
 49
5.0
 49
-6.0
  0
LTYPE
  2
RAND4
 70
    64
  3
ランダム線4
 72
    65
 73
     4
 40
22.0
 49
4.0
 49
-5.0
 49
6.0
 49
-7.0
  0
LTYPE
  2
RAND5
 70
    64
  3
ランダム線5
 72
    65
 73
     4
 40
26.0
 49
5.0
 49
-6.0
 49
7.0
 49
-8.0
  0
LTYPE
  2
LONG1
 70
    64
  3
----------  --  ----------  --  
 72
    65
 73
     4
 40
40.0
 49
32.5
 49
-2.5
 49
2.5
 49
-2.5
  0
LTYPE
  2
LONG2
 70
    64
  3
--------  -  -  --------  -  -  
 72
    65
 73
     6
 40
40.0
 49
30.0
 49
-2.5
 49
1.25
 49
-2.5
 49
1.25
 49
-2.5
  0
LTYPE
  2
LONG3
 70
    64
  3
+++++++++++++++..+++++++++++++++
 72
    65
 73
     2
 40
40.0
 49
37.5
 49
-2.5
  0
LTYPE
  2
LONG4
 70
    64
  3
+++++++++++++++..+++++++++++++++
 72
    65
 73
     2
 40
80.0
 49
75.0
 49
-5.0
  0
LTYPE
  2
LONG5
 70
    64
  3
----------  --  ----------  --  
 72
    65
 73
     4
 40
60.0
 49
37.5
 49
-7.5
 49
7.5
 49
-7.5
  0
LTYPE
  2
dashed
 70
   64
  3
-------   -------------   ------
 72
   65
 73
    2
 40
7.5
 49
6
 49
-1.5
  0
LTYPE
  2
dashed_spaced
 70
   64
  3
----        --------        ----
 72
   65
 73
    2
 40
12
 49
6
 49
-6
  0
LTYPE
  2
long_dashed_dotted
 70
   64
  3
------------- --- --------------
 72
   65
 73
    4
 40
15.25
 49
12
 49
-1.5
 49
0.25
 49
-1.5
  0
LTYPE
  2
long_dashed_double-dotted
 70
   64
  3
----------- --- --- ------------
 72
   65
 73
    6
 40
17
 49
12
 49
-1.5
 49
0.25
 49
-1.5
 49
0.25
 49
-1.5
  0
LTYPE
  2
long_dashed_triplicate-dotted
 70
   64
  3
--------- --- --- --- ----------
 72
   65
 73
    8
 40
18.75
 49
12
 49
-1.5
 49
0.25
 49
-1.5
 49
0.25
 49
-1.5
 49
0.25
 49
-1.5
  0
LTYPE
  2
dotted
 70
   64
  3
   -       -       -       -    
 72
   65
 73
    2
 40
1.75
 49
0.25
 49
-1.5
  0
LTYPE
  2
chain
 70
   64
  3
-------------- -- --------------
 72
   65
 73
    4
 40
18.5
 49
12
 49
-1.5
 49
3.5
 49
-1.5
  0
LTYPE
  2
chain_double_dash
 70
   64
  3
------------ -- -- -------------
 72
   65
 73
    6
 40
23.5
 49
12
 49
-1.5
 49
3.5
 49
-1.5
 49
3.5
 49
-1.5
  0
LTYPE
  2
dashed_dotted
 70
   64
  3
-----------     -     ----------
 72
   65
 73
    4
 40
9.25
 49
6
 49
-1.5
 49
0.25
 49
-1.5
  0
LTYPE
  2
double-dashed_dotted
 70
   64
  3
------   -----------   -   -----
 72
   65
 73
    6
 40
16.75
 49
6
 49
-1.5
 49
6
 49
-1.5
 49
0.25
 49
-1.5
  0
LTYPE
  2
dashed_double-dotted
 70
   64
  3
---------    -    -    ---------
 72
   65
 73
    6
 40
11
 49
6
 49
-1.5
 49
0.25
 49
-1.5
 49
0.25
 49
-1.5
  0
LTYPE
  2
double-dashed_double-dotted
 70
   64
  3
-----   ---------   -   -   ----
 72
   65
 73
    8
 40
18.5
 49
6
 49
-1.5
 49
6
 49
-1.5
 49
0.25
 49
-1.5
 49
0.25
 49
-1.5
  0
LTYPE
  2
dashed_triplicate-dotted
 70
   64
  3
-------    -    -    -    ------
 72
   65
 73
    8
 40
12.75
 49
6
 49
-1.5
 49
0.25
 49
-1.5
 49
0.25
 49
-1.5
 49
0.25
 49
-1.5
  0
LTYPE
  2
double-dashed_triplicate-dotted
 70
   64
  3
-----  ---------  -  -  -  -----
 72
   65
 73
   10
 40
20.25
 49
6
 49
-1.5
 49
6
 49
-1.5
 49
0.25
 49
-1.5
 49
0.25
 49
-1.5
 49
0.25
 49
-1.5
  0
LTYPE
  2
undefined
 70
   64
  3
--------------------------------
 72
   65
 73
    0
 40
0
  0
LTYPE
  2
_
 70
   64
  3
                                
 72
   65
 73
    0
 40
0
  0
LTYPE
  2
__18
 70
   64
  3
                                
 72
   65
 73
    0
 40
0
  0
LTYPE
  2
__19
 70
   64
  3
                                
 72
   65
 73
    0
 40
0
  0
LTYPE
  2
__20
 70
   64
  3
                                
 72
   65
 73
    0
 40
0
  0
LTYPE
  2
__21
 70
   64
  3
                                
 72
   65
 73
    0
 40
0
  0
LTYPE
  2
__22
 70
   64
  3
                                
 72
   65
 73
    0
 40
0
  0
LTYPE
  2
__23
 70
   64
  3
                                
 72
   65
 73
    0
 40
0
  0
LTYPE
  2
__24
 70
   64
  3
                                
 72
   65
 73
    0
 40
0
  0
LTYPE
  2
__25
 70
   64
  3
                                
 72
   65
 73
    0
 40
0
  0
LTYPE
  2
__26
 70
   64
  3
                                
 72
   65
 73
    0
 40
0
  0
LTYPE
  2
__27
 70
   64
  3
                                
 72
   65
 73
    0
 40
0
  0
LTYPE
  2
__28
 70
   64
  3
                                
 72
   65
 73
    0
 40
0
  0
LTYPE
  2
__29
 70
   64
  3
                                
 72
   65
 73
    0
 40
0
  0
LTYPE
  2
__30
 70
   64
  3
                                
 72
   65
 73
    0
 40
0
  0
LTYPE
  2
__31
 70
   64
  3
                                
 72
   65
 73
    0
 40
0
  0
LTYPE
  2
__32
 70
   64
  3
                                
 72
   65
 73
    0
 40
0
  0
ENDTAB
  0
TABLE
  2
STYLE
  5
3
100
AcDbSymbolTable
 70
     1
  0
STYLE
  5
10
100
AcDbSymbolTableRecord
100
AcDbTextStyleTableRecord
  2
STANDARD
 70
     0
 40
0.0
 41
1.0
 50
0.0
 71
     0
 42
0.2
  3
txt
  4
bigfont.shx
  0
STYLE
  5
26
100
AcDbSymbolTableRecord
100
AcDbTextStyleTableRecord
  2
TATEGAKI
 70
    68
 40
0.0
 41
1.0
 50
0.0
 71
     0
 42
1.0
  3
txt
  4
bigfont.shx
  0
ENDTAB
  0
TABLE
  2
LAYER
 70
    6
  0
LAYER
  2
_0-0_
 70
   64
 62
    7
  6
CONTINUOUS
  0
LAYER
  2
_1-0_
 70
   64
 62
    7
  6
CONTINUOUS
  0
LAYER
  2
_e-0_
 70
   64
 62
    7
  6
CONTINUOUS
  0
LAYER
  2
_f-0_
 70
   64
 62
    7
  6
CONTINUOUS
  0
LAYER
  2
_f-1_
 70
   64
 62
    7
  6
CONTINUOUS
  0
LAYER
  2
ADD_LINE
 70
   64
 62
    7
  6
CONTINUOUS
  0
ENDTAB
  0
ENDSEC
  0
SECTION
  2
BLOCKS
  0
BLOCK
  2
-000-33-108X-2__35
 70
   64
 10
0
 20
0
 30
0
  0
ENDBLK
  0
BLOCK
  2
-001-33-108X-2__36
 70
   64
 10
0
 20
0
 30
0
  0
ENDBLK
  0
BLOCK
  2
-002-33-108X-2__37
 70
   64
 10
0
 20
0
 30
0
  0
ENDBLK
  0
BLOCK
  2
-003-33-108X-1__38
 70
   64
 10
0
 20
0
 30
0
  0
ENDBLK
  0
BLOCK
  2
-004-33-108AX__39
 70
   64
 10
0
 20
0
 30
0
  0
INSERT
  2
-000-33-108X-2__35
  8
_0-0_
 10
1351.3280407312272
 20
254.27143387645347
 41
1
 42
1
 50
0
  0
INSERT
  2
-001-33-108X-2__36
  8
_0-0_
 10
1059.3280407312272
 20
4207.90330463612
 41
1
 42
1
 50
0
  0
INSERT
  2
-002-33-108X-2__37
  8
_0-0_
 10
1013.2388964125376
 20
254.27143387645347
 41
1
 42
1
 50
0
  0
INSERT
  2
-003-33-108X-1__38
  8
_0-0_
 10
1150.2654685718828
 20
1557.4471479583023
 41
1
 42
1
 50
0
  0
ENDBLK
  0
BLOCK
  2
-005-33-108X-1__40
 70
   64
 10
0
 20
0
 30
0
  0
ENDBLK
  0
BLOCK
  2
-006-33-108X-2__41
 70
   64
 10
0
 20
0
 30
0
  0
ENDBLK
  0
BLOCK
  2
-007-33-108AX__42
 70
   64
 10
0
 20
0
 30
0
  0
INSERT
  2
-005-33-108X-1__40
  8
_0-0_
 10
1214.3014685718824
 20
1557.4471479583023
 41
1
 42
1
 50
0
  0
INSERT
  2
-006-33-108X-2__41
  8
_0-0_
 10
1351.3280407312272
 20
254.27143387645347
 41
1
 42
1
 50
0
  0
ENDBLK
  0
BLOCK
  2
-008-87-63
 70
   64
 10
0
 20
0
 30
0
  0
ENDBLK
  0
ENDSEC
  0
SECTION
  2
ENTITIES
  0
LINE
  8
_f-0_
  6
CONTINUOUS
 62
    7
 10
508.13095131618092
 20
196.85981934213771
 11
1772.1309513161809
 21
196.85981934213771
  0
LINE
  8
_f-0_
  6
CONTINUOUS
 62
    7
 10
508.13095131618092
 20
116.85981934213805
 11
508.13095131618092
 21
196.85981934213771
  0
LINE
  8
_f-0_
  6
CONTINUOUS
 62
    7
 10
140.13095131618092
 20
116.85981934213805
 11
492.13095131618092
 21
116.85981934213805
  0
LINE
  8
_f-0_
  6
CONTINUOUS
 62
    7
 10
140.13095131618092
 20
196.85981934213771
 11
492.13095131618092
 21
196.85981934213771
  0
LINE
  8
_f-0_
  6
CONTINUOUS
 62
    7
 10
1140.1309513161809
 20
116.85981934213805
 11
1140.1309513161809
 21
196.85981934213771
  0
LINE
  8
_f-0_
  6
CONTINUOUS
 62
    7
 10
1772.1309513161809
 20
116.85981934213805
 11
1772.1309513161809
 21
196.85981934213771
  0
LINE
  8
_f-0_
  6
CONTINUOUS
 62
    7
 10
1780.1309513161809
 20
116.85981934213805
 11
1780.1309513161809
 21
196.85981934213771
  0
LINE
  8
_f-0_
  6
CONTINUOUS
 62
    7
 10
508.13095131618092
 20
116.85981934213805
 11
1772.1309513161809
 21
116.85981934213805
  0
LINE
  8
_f-0_
  6
CONTINUOUS
 62
    7
 10
2172.1309513161809
 20
116.85981934213805
 11
2172.1309513161809
 21
196.85981934213771
  0
LINE
  8
_f-0_
  6
CONTINUOUS
 62
    7
 10
2180.1309513161809
 20
116.85981934213805
 11
2180.1309513161809
 21
196.85981934213771
  0
LINE
  8
_f-0_
  6
CONTINUOUS
 62
    7
 10
1780.1309513161809
 20
116.85981934213805
 11
2172.1309513161809
 21
116.85981934213805
  0
LINE
  8
_f-0_
  6
CONTINUOUS
 62
    7
 10
1780.1309513161809
 20
196.85981934213771
 11
2172.1309513161809
 21
196.85981934213771
  0
LINE
  8
_f-0_
  6
CONTINUOUS
 62
    7
 10
2420.1309513161809
 20
116.85981934213805
 11
2420.1309513161809
 21
196.85981934213771
  0
LINE
  8
_f-0_
  6
CONTINUOUS
 62
    7
 10
2660.1309513161813
 20
116.85981934213805
 11
2660.1309513161813
 21
196.85981934213771
  0
LINE
  8
_f-0_
  6
CONTINUOUS
 62
    7
 10
2964.1309513161809
 20
116.85981934213805
 11
2964.1309513161809
 21
196.85981934213771
  0
LINE
  8
_f-0_
  6
CONTINUOUS
 62
    7
 10
2180.1309513161809
 20
116.85981934213805
 11
3292.1309513161809
 21
116.85981934213805
  0
LINE
  8
_f-0_
  6
CONTINUOUS
 62
    7
 10
3292.1309513161809
 20
116.85981934213805
 11
3292.1309513161809
 21
196.85981934213771
  0
LINE
  8
_f-0_
  6
CONTINUOUS
 62
    7
 10
2180.1309513161809
 20
196.85981934213771
 11
3292.1309513161809
 21
196.85981934213771
  0
LINE
  8
_f-0_
  6
CONTINUOUS
 62
    7
 10
3308.1309513161809
 20
2308.8598193421375
 11
3308.1309513161809
 21
100.85981934213805
  0
LINE
  8
_f-0_
  6
CONTINUOUS
 62
    7
 10
124.13095131618092
 20
2308.8598193421375
 11
3308.1309513161809
 21
2308.8598193421375
  0
LINE
  8
_f-0_
  6
CONTINUOUS
 62
    7
 10
124.13095131618092
 20
100.85981934213805
 11
3308.1309513161809
 21
100.85981934213805
  0
LINE
  8
_f-0_
  6
CONTINUOUS
 62
    7
 10
124.13095131618092
 20
100.85981934213805
 11
124.13095131618092
 21
2308.8598193421375
  0
TEXT
  8
_f-0_
 62
    7
 10
2676.1309513161809
 20
170.85981934213793
 40
20
 41
0.64
 50
0
  1
ＣＨＥＣＫＥＤ
  0
TEXT
  8
_f-0_
 62
    7
 10
2980.1309513161813
 20
170.85981934213793
 40
20
 41
0.64
 50
0
  1
ＳＨＥＥＴ　ＮＯ．
  0
TEXT
  8
_f-0_
 62
    7
 10
2837.7309513161808
 20
170.85981934213793
 40
20
 41
0.64
 50
0
  1
ＤＲＡＷＩＮＧ
  0
LINE
  8
_f-0_
  6
CONTINUOUS
 62
    7
 10
140.13095131618092
 20
156.85981934213805
 11
492.13095131618092
 21
156.85981934213805
  0
TEXT
  8
_f-0_
 62
    7
 10
2196.4301385845174
 20
170.83531773801769
 40
20
 41
0.64
 50
0
  1
ＳＣＡＬＥ
  0
TEXT
  8
_f-0_
 62
    7
 10
1160.1309513161809
 20
170.85981934213793
 40
20
 41
0.8
 50
0
  1
図面名称
  0
TEXT
  8
_f-0_
 62
    7
 10
528.13095131618092
 20
170.85981934213793
 40
20
 41
0.8
 50
0
  1
名　称
  0
LINE
  8
_f-0_
  6
CONTINUOUS
 62
    7
 10
1736.1309513161809
 20
2318.4598193421379
 11
1737.0509513161809
 21
2320.0598193421383
  0
LINE
  8
_f-0_
  6
CONTINUOUS
 62
    7
 10
1731.0429513161809
 20
2322.4598193421379
 11
1736.1309513161809
 21
2313.6598193421377
  0
LINE
  8
_f-0_
  6
CONTINUOUS
 62
    7
 10
1736.1309513161809
 20
2313.6598193421377
 11
1741.2109513161808
 21
2322.4598193421379
  0
LINE
  8
_f-0_
  6
CONTINUOUS
 62
    7
 10
1736.1309513161809
 20
2308.8598193421375
 11
1745.3629513161808
 21
2324.8598193421375
  0
LINE
  8
_f-0_
  6
CONTINUOUS
 62
    7
 10
1726.8909513161809
 20
2324.8598193421375
 11
1736.1309513161809
 21
2308.8598193421375
  0
LINE
  8
_f-0_
  6
CONTINUOUS
 62
    7
 10
1745.3629513161808
 20
2324.8598193421375
 11
1726.8909513161809
 21
2324.8598193421375
  0
LINE
  8
_f-0_
  6
CONTINUOUS
 62
    7
 10
1735.202951316181
 20
2320.0598193421383
 11
1736.1309513161809
 21
2318.4598193421379
  0
LINE
  8
_f-0_
  6
CONTINUOUS
 62
    7
 10
1737.0509513161809
 20
2320.0598193421383
 11
1735.202951316181
 21
2320.0598193421383
  0
LINE
  8
_f-0_
  6
CONTINUOUS
 62
    7
 10
1741.2109513161808
 20
2322.4598193421379
 11
1731.0429513161809
 21
2322.4598193421379
  0
LINE
  8
_f-0_
  6
CONTINUOUS
 62
    7
 10
100.13095131618092
 20
1191.0034128815868
 11
100.13095131618092
 21
1218.7162258026889
  0
LINE
  8
_f-0_
  6
CONTINUOUS
 62
    7
 10
100.13095131618092
 20
1218.7162258026889
 11
124.13095131618092
 21
1204.859819342138
  0
LINE
  8
_f-0_
  6
CONTINUOUS
 62
    7
 10
124.13095131618092
 20
1204.859819342138
 11
100.13095131618092
 21
1191.0034128815868
  0
LINE
  8
_f-0_
  6
CONTINUOUS
 62
    7
 10
104.13095131618092
 20
1197.9316161118622
 11
104.13095131618092
 21
1211.7880225724134
  0
LINE
  8
_f-0_
  6
CONTINUOUS
 62
    7
 10
104.13095131618092
 20
1211.7880225724134
 11
116.13095131618092
 21
1204.859819342138
  0
LINE
  8
_f-0_
  6
CONTINUOUS
 62
    7
 10
116.13095131618092
 20
1204.859819342138
 11
104.13095131618092
 21
1197.9316161118622
  0
LINE
  8
_f-0_
  6
CONTINUOUS
 62
    7
 10
107.33095131618028
 20
1203.4741786960826
 11
107.33095131618028
 21
1206.245459988193
  0
LINE
  8
_f-0_
  6
CONTINUOUS
 62
    7
 10
107.33095131618028
 20
1206.245459988193
 11
109.73095131618129
 21
1204.859819342138
  0
LINE
  8
_f-0_
  6
CONTINUOUS
 62
    7
 10
109.73095131618129
 20
1204.859819342138
 11
107.33095131618028
 21
1203.4741786960826
  0
TEXT
  8
_f-0_
 62
    7
 10
124.11895131618075
 20
72.859819342138052
 40
16
 41
1
 50
0
  1
%f
  0
TEXT
  8
_f-0_
 62
    7
 10
3196.1309513161809
 20
72.859821926161657
 40
16
 41
1
 50
0
  1
%y
  0
TEXT
  8
_f-0_
 62
    7
 10
3220.1309513161813
 20
72.859821926161657
 40
16
 41
1
 50
0
  1
．
  0
TEXT
  8
_f-0_
 62
    7
 10
3244.1309513161809
 20
72.859821926161657
 40
16
 41
1
 50
0
  1
%m
  0
TEXT
  8
_f-0_
 62
    7
 10
3268.1309513161809
 20
72.859821926161657
 40
16
 41
1
 50
0
  1
．
  0
TEXT
  8
_f-0_
 62
    7
 10
3292.1309513161813
 20
72.859821926161657
 40
16
 41
1
 50
0
  1
%d
  0
INSERT
  2
-004-33-108AX__39
  8
_f-0_
 10
15213.279215645097
 20
19067.279649635689
 41
2
 42
2
 50
0
  0
INSERT
  2
-007-33-108AX__42
  8
_f-0_
 10
14380.188668943546
 20
19067.279649635693
 41
2
 42
2
 50
0
  0
INSERT
  2
-008-87-63
  8
_f-0_
 10
14097.338874194476
 20
18508.994591684622
 41
2
 42
2
 50
0
  0
TEXT
  8
_f-0_
 62
    7
 10
2436.1309513161809
 20
170.85981934213793
 40
20
 41
0.64
 50
0
  1
ＤＡＴＡ
  0
TEXT
  8
_f-1_
 62
    7
 10
2861.7676397657587
 20
134.85981934213805
 40
28
 41
0.5714285714285713
 50
0
  1
Ｍ．Ｉ
  0
TEXT
  8
_f-1_
 62
    7
 10
2303.3309513161811
 20
134.85981934213805
 40
28
 41
0.5714285714285713
 50
0
  1
１／８
  0
TEXT
  8
_0-0_
 62
    7
 10
620.9331118786863
 20
1631.9541332097039
 40
25.600000000000001
 41
1
 50
0
  1
20
  0
POINT
  8
_0-0_
 62
    7
 10
605.93311187868675
 20
1629.5141332097041
  0
POINT
  8
_0-0_
 62
    7
 10
605.93311187868675
 20
1629.5141332097041
  0
ARC
  8
_0-0_
  6
CONTINUOUS
 62
    7
 10
2375.565911878687
 20
1075.387733209704
 40
4
 50
270.00000000000005
 51
0.0000000000000508
  0
ARC
  8
_0-0_
  6
CONTINUOUS
 62
    7
 10
2375.565911878687
 20
1075.387733209704
 40
4
 50
270.00000000000005
 51
0.0000000000000508
  0
LINE
  8
_0-0_
  6
CONTINUOUS
 62
    7
 10
585.93311187868675
 20
1574.387733209704
 11
585.93311187868675
 21
1634.5141332097041
  0
LINE
  8
_0-0_
  6
CONTINUOUS
 62
    7
 10
605.93311187868675
 20
1574.387733209704
 11
605.93311187868675
 21
1634.5141332097041
  0
LINE
  8
_0-0_
  6
CONTINUOUS
 62
    7
 10
585.93311187868675
 20
1629.5141332097041
 11
605.93311187868675
 21
1629.5141332097041
  0
LINE
  8
_0-0_
  6
CONTINUOUS
 62
    7
 10
585.93311187868675
 20
1629.5141332097041
 11
570.93311187868675
 21
1629.5141332097041
  0
LINE
  8
_0-0_
  6
CONTINUOUS
 62
    7
 10
605.93311187868675
 20
1629.5141332097041
 11
660.93311187868675
 21
1629.5141332097041
  0
LINE
  8
_0-0_
  6
CONTINUOUS
 62
    7
 10
605.93311187868675
 20
1629.5141332097041
 11
585.93311187868675
 21
1629.5141332097041
  0
LINE
  8
_0-0_
  6
CONTINUOUS
 62
    7
 10
1765.9331118786867
 20
1574.387733209704
 11
1765.9331118786867
 21
1654.0629332097039
  0
LINE
  8
_0-0_
  6
CONTINUOUS
 62
    7
 10
1785.9331118786867
 20
1574.387733209704
 11
1785.9331118786867
 21
1654.0629332097039
  0
LINE
  8
_0-0_
  6
CONTINUOUS
 62
    7
 10
1765.9331118786867
 20
1649.0629332097039
 11
1785.9331118786867
 21
1649.0629332097039
  0
LINE
  8
_0-0_
  6
CONTINUOUS
 62
    7
 10
1765.9331118786867
 20
1649.0629332097039
 11
1710.9331118786867
 21
1649.0629332097039
  0
LINE
  8
_0-0_
  6
CONTINUOUS
 62
    7
 10
1785.9331118786867
 20
1649.0629332097039
 11
1800.9331118786867
 21
1649.0629332097039
  0
LINE
  8
_0-0_
  6
CONTINUOUS
 62
    7
 10
1785.9331118786867
 20
1649.0629332097039
 11
1765.9331118786867
 21
1649.0629332097039
  0
LINE
  8
_0-0_
  6
CONTINUOUS
 62
    7
 10
1790.9331118786867
 20
2090.3989332097039
 11
1842.0275118786867
 21
2090.3989332097039
  0
LINE
  8
_0-0_
  6
CONTINUOUS
 62
    7
 10
1837.0275118786867
 20
2063.3989332097039
 11
1837.0275118786867
 21
2090.3989332097039
  0
LINE
  8
_0-0_
  6
CONTINUOUS
 62
    7
 10
1837.0275118786867
 20
2063.3989332097039
 11
1837.0275118786867
 21
2048.3989332097039
  0
LINE
  8
_0-0_
  6
CONTINUOUS
 62
    7
 10
1837.0275118786867
 20
2090.3989332097039
 11
1837.0275118786867
 21
2145.3989332097039
  0
LINE
  8
_0-0_
  6
CONTINUOUS
 62
    7
 10
1787.8123118786866
 20
1898.3989332097039
 11
1842.0275118786867
 21
1898.3989332097039
  0
LINE
  8
_0-0_
  6
CONTINUOUS
 62
    7
 10
1787.8123118786866
 20
2063.3989332097039
 11
1842.0275118786867
 21
2063.3989332097039
  0
LINE
  8
_0-0_
  6
CONTINUOUS
 62
    7
 10
1837.0275118786867
 20
1898.3989332097039
 11
1837.0275118786867
 21
2063.3989332097039
  0
LINE
  8
_0-0_
  6
CONTINUOUS
 62
    7
 10
1837.0275118786867
 20
2063.3989332097039
 11
1837.0275118786867
 21
1898.3989332097039
  0
LINE
  8
_0-0_
  6
CONTINUOUS
 62
    7
 10
1790.9331118786867
 20
1855.8989332097039
 11
1891.5523118786868
 21
1855.8989332097039
  0
LINE
  8
_0-0_
  6
CONTINUOUS
 62
    7
 10
1790.9331118786867
 20
2090.3989332097039
 11
1891.5523118786868
 21
2090.3989332097039
  0
LINE
  8
_0-0_
  6
CONTINUOUS
 62
    7
 10
1886.5523118786868
 20
1855.8989332097039
 11
1886.5523118786868
 21
2090.3989332097039
  0
LINE
  8
_0-0_
  6
CONTINUOUS
 62
    7
 10
1886.5523118786868
 20
2090.3989332097039
 11
1886.5523118786868
 21
1855.8989332097039
  0
LINE
  8
_0-0_
  6
CONTINUOUS
 62
    7
 10
585.93311187868675
 20
1064.387733209704
 11
585.93311187868675
 21
955.00933320970398
  0
LINE
  8
_0-0_
  6
CONTINUOUS
 62
    7
 10
1785.9331118786867
 20
1064.387733209704
 11
1785.9331118786867
 21
955.00933320970398
  0
LINE
  8
_0-0_
  6
CONTINUOUS
 62
    7
 10
585.93311187868675
 20
960.00933320970398
 11
1785.9331118786867
 21
960.00933320970398
  0
LINE
  8
_0-0_
  6
CONTINUOUS
 62
    7
 10
1785.9331118786867
 20
960.00933320970398
 11
585.93311187868675
 21
960.00933320970398
  0
LINE
  8
_0-0_
  6
CONTINUOUS
 62
    7
 10
2380.565911878687
 20
1069.387733209704
 11
2483.5467118786864
 21
1069.387733209704
  0
LINE
  8
_0-0_
  6
CONTINUOUS
 62
    7
 10
2380.565911878687
 20
1569.387733209704
 11
2483.5467118786864
 21
1569.387733209704
  0
LINE
  8
_0-0_
  6
CONTINUOUS
 62
    7
 10
2478.5467118786864
 20
1069.387733209704
 11
2478.5467118786864
 21
1569.387733209704
  0
LINE
  8
_0-0_
  6
CONTINUOUS
 62
    7
 10
2478.5467118786864
 20
1569.387733209704
 11
2478.5467118786864
 21
1069.387733209704
  0
LINE
  8
_0-0_
  6
CONTINUOUS
 62
    7
 10
2433.5467118786864
 20
1516.887733209704
 11
2433.5467118786864
 21
1569.387733209704
  0
LINE
  8
_0-0_
  6
CONTINUOUS
 62
    7
 10
2433.5467118786864
 20
1516.887733209704
 11
2433.5467118786864
 21
1501.887733209704
  0
LINE
  8
_0-0_
  6
CONTINUOUS
 62
    7
 10
2433.5467118786864
 20
1569.387733209704
 11
2433.5467118786864
 21
1664.387733209704
  0
LINE
  8
_0-0_
  6
CONTINUOUS
 62
    7
 10
2394.9147118786868
 20
1516.887733209704
 11
2438.5467118786864
 21
1516.887733209704
  0
LINE
  8
_0-0_
  6
CONTINUOUS
 62
    7
 10
2433.5467118786864
 20
1121.887733209704
 11
2433.5467118786864
 21
1516.887733209704
  0
LINE
  8
_0-0_
  6
CONTINUOUS
 62
    7
 10
2433.5467118786864
 20
1516.887733209704
 11
2433.5467118786864
 21
1121.887733209704
  0
LINE
  8
_0-0_
  6
CONTINUOUS
 62
    7
 10
2393.3795118786865
 20
1121.887733209704
 11
2438.5467118786864
 21
1121.887733209704
  0
LINE
  8
_0-0_
  6
CONTINUOUS
 62
    7
 10
2433.5467118786864
 20
1069.387733209704
 11
2433.5467118786864
 21
1121.887733209704
  0
LINE
  8
_0-0_
  6
CONTINUOUS
 62
    7
 10
2433.5467118786864
 20
1069.387733209704
 11
2433.5467118786864
 21
974.38773320970403
  0
LINE
  8
_0-0_
  6
CONTINUOUS
 62
    7
 10
2433.5467118786864
 20
1121.887733209704
 11
2433.5467118786864
 21
1136.887733209704
  0
LINE
  8
_0-0_
  6
CONTINUOUS
 62
    7
 10
2189.5659118786866
 20
1582.4653332097041
 11
2189.5659118786866
 21
1652.6877332097039
  0
LINE
  8
_0-0_
  6
CONTINUOUS
 62
    7
 10
2354.565911878687
 20
1579.2885332097039
 11
2354.565911878687
 21
1652.6877332097039
  0
LINE
  8
_0-0_
  6
CONTINUOUS
 62
    7
 10
2189.5659118786866
 20
1647.6877332097039
 11
2354.565911878687
 21
1647.6877332097039
  0
LINE
  8
_0-0_
  6
CONTINUOUS
 62
    7
 10
2354.565911878687
 20
1647.6877332097039
 11
2189.5659118786866
 21
1647.6877332097039
  0
LINE
  8
_0-0_
  6
CONTINUOUS
 62
    7
 10
2187.3843118786867
 20
1069.387733209704
 11
2090.3091118786869
 21
1069.387733209704
  0
LINE
  8
_0-0_
  6
CONTINUOUS
 62
    7
 10
2148.0659118786866
 20
1304.387733209704
 11
2090.3091118786869
 21
1304.387733209704
  0
LINE
  8
_0-0_
  6
CONTINUOUS
 62
    7
 10
2095.3091118786869
 20
1069.387733209704
 11
2095.3091118786869
 21
1304.387733209704
  0
LINE
  8
_0-0_
  6
CONTINUOUS
 62
    7
 10
2095.3091118786869
 20
1304.387733209704
 11
2095.3091118786869
 21
1069.387733209704
  0
LINE
  8
_0-0_
  6
CONTINUOUS
 62
    7
 10
585.93311187868675
 20
1569.387733209704
 11
605.93311187868675
 21
1569.387733209704
  0
LINE
  8
_0-0_
  6
CONTINUOUS
 62
    7
 10
1765.9331118786867
 20
1569.387733209704
 11
1785.9331118786867
 21
1569.387733209704
  0
LINE
  8
_0-0_
  6
CONTINUOUS
 62
    7
 10
585.93311187868675
 20
2090.3989332097039
 11
585.93311187868675
 21
1855.8989332097039
  0
LINE
  8
_0-0_
  6
CONTINUOUS
 62
    7
 10
605.93311187868675
 20
2090.3989332097039
 11
605.93311187868675
 21
1855.8989332097039
  0
LINE
  8
_0-0_
  6
CONTINUOUS
 62
    7
 10
585.93311187868675
 20
1069.387733209704
 11
605.93311187868675
 21
1069.387733209704
  0
LINE
  8
_0-0_
  6
CONTINUOUS
 62
    7
 10
1765.9331118786867
 20
1069.387733209704
 11
1785.9331118786867
 21
1069.387733209704
  0
LINE
  8
_0-0_
  6
CONTINUOUS
 62
    7
 10
2192.3843118786867
 20
1069.387733209704
 11
2375.565911878687
 21
1069.387733209704
  0
LINE
  8
_0-0_
  6
CONTINUOUS
 62
    7
 10
2192.3843118786867
 20
1071.387733209704
 11
2375.565911878687
 21
1071.387733209704
  0
LINE
  8
_0-0_
  6
CONTINUOUS
 62
    7
 10
2279.3155118786867
 20
1565.387733209704
 11
2279.3155118786867
 21
1567.387733209704
  0
LINE
  8
_0-0_
  6
CONTINUOUS
 62
    7
 10
2279.3155118786867
 20
1565.387733209704
 11
2249.3155118786867
 21
1565.387733209704
  0
LINE
  8
_0-0_
  6
CONTINUOUS
 62
    7
 10
2249.3155118786867
 20
1567.387733209704
 11
2249.3155118786867
 21
1569.387733209704
  0
LINE
  8
_0-0_
  6
CONTINUOUS
 62
    7
 10
2153.0659118786866
 20
1569.387733209704
 11
2245.8515118786867
 21
1569.387733209704
  0
LINE
  8
_0-0_
  6
CONTINUOUS
 62
    7
 10
2249.3155118786867
 20
1569.387733209704
 11
2375.565911878687
 21
1569.387733209704
  0
LINE
  8
_0-0_
  6
CONTINUOUS
 62
    7
 10
2245.8515118786867
 20
1569.387733209704
 11
2153.0659118786866
 21
1569.387733209704
  0
LINE
  8
_0-0_
  6
CONTINUOUS
 62
    7
 10
2249.3155118786867
 20
1569.387733209704
 11
2375.565911878687
 21
1569.387733209704
  0
LINE
  8
_0-0_
  6
CONTINUOUS
 62
    7
 10
2244.8435118786865
 20
1567.387733209704
 11
2153.0659118786866
 21
1567.387733209704
  0
LINE
  8
_0-0_
  6
CONTINUOUS
 62
    7
 10
2249.3155118786867
 20
1567.387733209704
 11
2375.565911878687
 21
1567.387733209704
  0
LINE
  8
_0-0_
  6
CONTINUOUS
 62
    7
 10
2379.3155118786867
 20
1075.387733209704
 11
2379.3155118786867
 21
1088.387733209704
  0
LINE
  8
_0-0_
  6
CONTINUOUS
 62
    7
 10
2189.3155118786867
 20
1075.387733209704
 11
2189.3155118786867
 21
1088.387733209704
  0
LINE
  8
_0-0_
  6
CONTINUOUS
 62
    7
 10
2378.3155118786867
 20
1089.387733209704
 11
2190.3155118786867
 21
1089.387733209704
  0
LINE
  8
_0-0_
  6
CONTINUOUS
 62
    7
 10
1178.4331118786867
 20
1083.8237332097039
 11
1178.4331118786867
 21
1073.387733209704
  0
LINE
  8
_0-0_
  6
CONTINUOUS
 62
    7
 10
1193.4331118786867
 20
1083.8237332097039
 11
1193.4331118786867
 21
1073.387733209704
  0
LINE
  8
_0-0_
  6
CONTINUOUS
 62
    7
 10
1192.4331118786867
 20
1072.387733209704
 11
1179.4331118786867
 21
1072.387733209704
  0
LINE
  8
_0-0_
  6
CONTINUOUS
 62
    7
 10
1192.4331118786867
 20
1084.8237332097039
 11
1179.4331118786867
 21
1084.8237332097039
  0
LINE
  8
_0-0_
  6
CONTINUOUS
 62
    7
 10
1785.9331118786867
 20
2090.3989332097039
 11
1785.9331118786867
 21
1855.8989332097039
  0
LINE
  8
_0-0_
  6
CONTINUOUS
 62
    7
 10
1765.9331118786867
 20
1855.8989332097039
 11
1765.9331118786867
 21
2090.3989332097039
  0
LINE
  8
_0-0_
  6
CONTINUOUS
 62
    7
 10
1785.9331118786867
 20
600.86053320970393
 11
1785.9331118786867
 21
832.11013320970391
  0
LINE
  8
_0-0_
  6
CONTINUOUS
 62
    7
 10
1765.9331118786867
 20
600.86053320970393
 11
1765.9331118786867
 21
832.11013320970391
  0
LINE
  8
_0-0_
  6
CONTINUOUS
 62
    7
 10
1179.4331118786867
 20
822.7605332097039
 11
1192.4331118786867
 21
822.7605332097039
  0
LINE
  8
_0-0_
  6
CONTINUOUS
 62
    7
 10
1179.4331118786867
 20
606.96053320970395
 11
1192.4331118786867
 21
606.96053320970395
  0
LINE
  8
_0-0_
  6
CONTINUOUS
 62
    7
 10
1193.4331118786867
 20
820.46053320970395
 11
1193.4331118786867
 21
821.7605332097039
  0
LINE
  8
_0-0_
  6
CONTINUOUS
 62
    7
 10
1178.4331118786867
 20
820.46053320970395
 11
1178.4331118786867
 21
821.7605332097039
  0
LINE
  8
_0-0_
  6
CONTINUOUS
 62
    7
 10
1193.4331118786867
 20
809.86053320970404
 11
1193.4331118786867
 21
779.86053320970404
  0
LINE
  8
_0-0_
  6
CONTINUOUS
 62
    7
 10
1178.4331118786867
 20
809.86053320970404
 11
1178.4331118786867
 21
779.86053320970404
  0
LINE
  8
_0-0_
  6
CONTINUOUS
 62
    7
 10
1193.4331118786867
 20
739.86053320970404
 11
1193.4331118786867
 21
769.86053320970404
  0
LINE
  8
_0-0_
  6
CONTINUOUS
 62
    7
 10
1178.4331118786867
 20
739.86053320970404
 11
1178.4331118786867
 21
769.86053320970404
  0
LINE
  8
_0-0_
  6
CONTINUOUS
 62
    7
 10
1193.4331118786867
 20
699.86053320970404
 11
1193.4331118786867
 21
729.86053320970404
  0
LINE
  8
_0-0_
  6
CONTINUOUS
 62
    7
 10
1178.4331118786867
 20
699.86053320970404
 11
1178.4331118786867
 21
729.86053320970404
  0
LINE
  8
_0-0_
  6
CONTINUOUS
 62
    7
 10
1193.4331118786867
 20
659.86053320970393
 11
1193.4331118786867
 21
689.86053320970404
  0
LINE
  8
_0-0_
  6
CONTINUOUS
 62
    7
 10
1178.4331118786867
 20
659.86053320970393
 11
1178.4331118786867
 21
689.86053320970404
  0
LINE
  8
_0-0_
  6
CONTINUOUS
 62
    7
 10
1193.4331118786867
 20
607.96053320970395
 11
1193.4331118786867
 21
609.86053320970393
  0
LINE
  8
_0-0_
  6
CONTINUOUS
 62
    7
 10
1193.4331118786867
 20
619.86053320970393
 11
1193.4331118786867
 21
649.86053320970393
  0
LINE
  8
_0-0_
  6
CONTINUOUS
 62
    7
 10
1178.4331118786867
 20
607.96053320970395
 11
1178.4331118786867
 21
609.86053320970393
  0
LINE
  8
_0-0_
  6
CONTINUOUS
 62
    7
 10
1178.4331118786867
 20
619.86053320970393
 11
1178.4331118786867
 21
649.86053320970393
  0
LINE
  8
_0-0_
  6
CONTINUOUS
 62
    7
 10
1178.4331118786867
 20
820.46053320970395
 11
1178.4331118786867
 21
819.86053320970404
  0
LINE
  8
_0-0_
  6
CONTINUOUS
 62
    7
 10
1193.4331118786867
 20
820.46053320970395
 11
1193.4331118786867
 21
819.86053320970404
  0
LINE
  8
_0-0_
  6
CONTINUOUS
 62
    7
 10
1178.4331118786867
 20
819.86053320970404
 11
1178.4331118786867
 21
809.86053320970404
  0
LINE
  8
_0-0_
  6
CONTINUOUS
 62
    7
 10
1193.4331118786867
 20
819.86053320970404
 11
1193.4331118786867
 21
809.86053320970404
  0
LINE
  8
_0-0_
  6
CONTINUOUS
 62
    7
 10
1178.4331118786867
 20
779.86053320970404
 11
1178.4331118786867
 21
769.86693320970402
  0
LINE
  8
_0-0_
  6
CONTINUOUS
 62
    7
 10
1193.4331118786867
 20
779.86053320970404
 11
1193.4331118786867
 21
769.86053320970404
  0
LINE
  8
_0-0_
  6
CONTINUOUS
 62
    7
 10
1178.4331118786867
 20
739.86053320970404
 11
1178.4331118786867
 21
729.86053320970404
  0
LINE
  8
_0-0_
  6
CONTINUOUS
 62
    7
 10
1193.4331118786867
 20
739.86053320970404
 11
1193.4331118786867
 21
729.86053320970404
  0
LINE
  8
_0-0_
  6
CONTINUOUS
 62
    7
 10
1193.4331118786867
 20
699.86053320970404
 11
1193.4331118786867
 21
689.86053320970404
  0
LINE
  8
_0-0_
  6
CONTINUOUS
 62
    7
 10
1178.4331118786867
 20
699.86053320970404
 11
1178.4331118786867
 21
689.86053320970404
  0
LINE
  8
_0-0_
  6
CONTINUOUS
 62
    7
 10
1178.4331118786867
 20
659.86053320970393
 11
1178.4331118786867
 21
649.86053320970393
  0
LINE
  8
_0-0_
  6
CONTINUOUS
 62
    7
 10
1193.4331118786867
 20
659.86053320970393
 11
1193.4331118786867
 21
649.86053320970393
  0
LINE
  8
_0-0_
  6
CONTINUOUS
 62
    7
 10
1178.4331118786867
 20
619.86053320970393
 11
1178.4331118786867
 21
609.86053320970393
  0
LINE
  8
_0-0_
  6
CONTINUOUS
 62
    7
 10
1193.4331118786867
 20
619.86053320970393
 11
1193.4331118786867
 21
609.86053320970393
  0
LINE
  8
_0-0_
  6
CONTINUOUS
 62
    7
 10
585.93311187868675
 20
828.80773320970411
 11
585.93311187868675
 21
594.30773320970399
  0
LINE
  8
_0-0_
  6
CONTINUOUS
 62
    7
 10
605.93311187868675
 20
828.80773320970411
 11
605.93311187868675
 21
594.30773320970399
  0
LINE
  8
_0-0_
  6
CONTINUOUS
 62
    7
 10
1765.9331118786867
 20
1958.148533209704
 11
1785.9331118786867
 21
1958.148533209704
  0
LINE
  8
_0-0_
  6
CONTINUOUS
 62
    7
 10
585.93311187868675
 20
1958.148533209704
 11
605.93311187868675
 21
1958.148533209704
  0
LINE
  8
_0-0_
  6
CONTINUOUS
 62
    7
 10
2603.5787118786865
 20
1284.574133209704
 11
2603.5787118786865
 21
1563.387733209704
  0
LINE
  8
_0-0_
  6
CONTINUOUS
 62
    7
 10
2838.0787118786865
 20
1563.387733209704
 11
2838.0787118786865
 21
1075.387733209704
  0
LINE
  8
_0-0_
  6
CONTINUOUS
 62
    7
 10
2605.5787118786865
 20
1284.7605332097039
 11
2605.5787118786865
 21
1563.387733209704
  0
LINE
  8
_0-0_
  6
CONTINUOUS
 62
    7
 10
2836.0787118786865
 20
1563.387733209704
 11
2836.0787118786865
 21
1075.387733209704
  0
LINE
  8
_0-0_
  6
CONTINUOUS
 62
    7
 10
2735.8283118786866
 20
1565.387733209704
 11
2735.8283118786866
 21
1567.387733209704
  0
LINE
  8
_0-0_
  6
CONTINUOUS
 62
    7
 10
2735.8283118786866
 20
1565.387733209704
 11
2705.8283118786866
 21
1565.387733209704
  0
LINE
  8
_0-0_
  6
CONTINUOUS
 62
    7
 10
2705.8283118786866
 20
1567.387733209704
 11
2705.8283118786866
 21
1569.387733209704
  0
LINE
  8
_0-0_
  6
CONTINUOUS
 62
    7
 10
2609.5787118786865
 20
1569.387733209704
 11
2702.3643118786867
 21
1569.387733209704
  0
LINE
  8
_0-0_
  6
CONTINUOUS
 62
    7
 10
2705.8283118786866
 20
1569.387733209704
 11
2832.3283118786866
 21
1569.387733209704
  0
LINE
  8
_0-0_
  6
CONTINUOUS
 62
    7
 10
2702.3643118786867
 20
1569.387733209704
 11
2609.5787118786865
 21
1569.387733209704
  0
LINE
  8
_0-0_
  6
CONTINUOUS
 62
    7
 10
2705.8283118786866
 20
1569.387733209704
 11
2832.0787118786865
 21
1569.387733209704
  0
LINE
  8
_0-0_
  6
CONTINUOUS
 62
    7
 10
2701.3563118786869
 20
1567.387733209704
 11
2609.5787118786865
 21
1567.387733209704
  0
LINE
  8
_0-0_
  6
CONTINUOUS
 62
    7
 10
2705.8283118786866
 20
1567.387733209704
 11
2832.0787118786865
 21
1567.387733209704
  0
LINE
  8
_0-0_
  6
CONTINUOUS
 62
    7
 10
2612.928311878687
 20
1314.387733209704
 11
2612.928311878687
 21
1305.387733209704
  0
LINE
  8
_0-0_
  6
CONTINUOUS
 62
    7
 10
2828.7283118786863
 20
1314.387733209704
 11
2828.7283118786863
 21
1305.387733209704
  0
LINE
  8
_0-0_
  6
CONTINUOUS
 62
    7
 10
2629.6723118786867
 20
1314.387733209704
 11
2651.9851118786864
 21
1314.387733209704
  0
LINE
  8
_0-0_
  6
CONTINUOUS
 62
    7
 10
2669.6723118786867
 20
1314.387733209704
 11
2691.9851118786864
 21
1314.387733209704
  0
LINE
  8
_0-0_
  6
CONTINUOUS
 62
    7
 10
2709.6723118786867
 20
1314.387733209704
 11
2731.9851118786864
 21
1314.387733209704
  0
LINE
  8
_0-0_
  6
CONTINUOUS
 62
    7
 10
2749.6723118786867
 20
1314.387733209704
 11
2771.9851118786864
 21
1314.387733209704
  0
LINE
  8
_0-0_
  6
CONTINUOUS
 62
    7
 10
2789.6723118786867
 20
1314.387733209704
 11
2811.9851118786864
 21
1314.387733209704
  0
LINE
  8
_0-0_
  6
CONTINUOUS
 62
    7
 10
2700.8283118786866
 20
1299.052533209704
 11
2700.8283118786866
 21
1323.326133209704
  0
LINE
  8
_0-0_
  6
CONTINUOUS
 62
    7
 10
2740.8283118786866
 20
1299.052533209704
 11
2740.8283118786866
 21
1323.326133209704
  0
LINE
  8
_0-0_
  6
CONTINUOUS
 62
    7
 10
2780.8283118786866
 20
1299.052533209704
 11
2780.8283118786866
 21
1323.326133209704
  0
LINE
  8
_0-0_
  6
CONTINUOUS
 62
    7
 10
2820.8283118786866
 20
1299.052533209704
 11
2820.8283118786866
 21
1323.326133209704
  0
LINE
  8
_0-0_
  6
CONTINUOUS
 62
    7
 10
2660.8283118786866
 20
1299.052533209704
 11
2660.8283118786866
 21
1323.326133209704
  0
LINE
  8
_0-0_
  6
CONTINUOUS
 62
    7
 10
2620.8283118786866
 20
1299.052533209704
 11
2620.8283118786866
 21
1323.326133209704
  0
LINE
  8
_0-0_
  6
CONTINUOUS
 62
    7
 10
2653.4659118786867
 20
1308.387733209704
 11
2628.1915118786864
 21
1308.387733209704
  0
LINE
  8
_0-0_
  6
CONTINUOUS
 62
    7
 10
2693.4659118786867
 20
1308.387733209704
 11
2668.1915118786864
 21
1308.387733209704
  0
LINE
  8
_0-0_
  6
CONTINUOUS
 62
    7
 10
2733.4659118786867
 20
1308.387733209704
 11
2708.1915118786864
 21
1308.387733209704
  0
LINE
  8
_0-0_
  6
CONTINUOUS
 62
    7
 10
2773.4659118786867
 20
1308.387733209704
 11
2748.1915118786864
 21
1308.387733209704
  0
LINE
  8
_0-0_
  6
CONTINUOUS
 62
    7
 10
2813.4659118786867
 20
1308.387733209704
 11
2788.1915118786864
 21
1308.387733209704
  0
LINE
  8
_0-0_
  6
CONTINUOUS
 62
    7
 10
1772.6835118786866
 20
1900.648533209704
 11
1779.1835118786866
 21
1900.648533209704
  0
LINE
  8
_0-0_
  6
CONTINUOUS
 62
    7
 10
1772.6835118786866
 20
1896.148533209704
 11
1779.1835118786866
 21
1896.148533209704
  0
LINE
  8
_0-0_
  6
CONTINUOUS
 62
    7
 10
1779.1835118786866
 20
1902.9253332097039
 11
1779.1835118786866
 21
1892.8245332097039
  0
LINE
  8
_0-0_
  6
CONTINUOUS
 62
    7
 10
1772.6835118786866
 20
1902.7621332097039
 11
1772.6835118786866
 21
1892.3357332097039
  0
LINE
  8
_0-0_
  6
CONTINUOUS
 62
    7
 10
1782.8123118786866
 20
1898.3989332097039
 11
1768.4763118786868
 21
1898.3989332097039
  0
LINE
  8
_0-0_
  6
CONTINUOUS
 62
    7
 10
1772.6835118786866
 20
2065.648533209704
 11
1779.1835118786866
 21
2065.648533209704
  0
LINE
  8
_0-0_
  6
CONTINUOUS
 62
    7
 10
1772.6835118786866
 20
2061.148533209704
 11
1779.1835118786866
 21
2061.148533209704
  0
LINE
  8
_0-0_
  6
CONTINUOUS
 62
    7
 10
1779.1835118786866
 20
2067.9253332097041
 11
1779.1835118786866
 21
2057.8245332097039
  0
LINE
  8
_0-0_
  6
CONTINUOUS
 62
    7
 10
1772.6835118786866
 20
2067.7621332097041
 11
1772.6835118786866
 21
2057.3357332097039
  0
LINE
  8
_0-0_
  6
CONTINUOUS
 62
    7
 10
1782.8123118786866
 20
2063.3989332097039
 11
1768.4763118786868
 21
2063.3989332097039
  0
LINE
  8
_0-0_
  6
CONTINUOUS
 62
    7
 10
592.68351187868665
 20
1900.648533209704
 11
599.18351187868665
 21
1900.648533209704
  0
LINE
  8
_0-0_
  6
CONTINUOUS
 62
    7
 10
592.68351187868665
 20
1896.148533209704
 11
599.18351187868665
 21
1896.148533209704
  0
LINE
  8
_0-0_
  6
CONTINUOUS
 62
    7
 10
599.18351187868665
 20
1902.9253332097039
 11
599.18351187868665
 21
1892.8245332097039
  0
LINE
  8
_0-0_
  6
CONTINUOUS
 62
    7
 10
592.68351187868665
 20
1902.7621332097039
 11
592.68351187868665
 21
1892.3357332097039
  0
LINE
  8
_0-0_
  6
CONTINUOUS
 62
    7
 10
602.81231187868661
 20
1898.3989332097039
 11
588.47631187868682
 21
1898.3989332097039
  0
LINE
  8
_0-0_
  6
CONTINUOUS
 62
    7
 10
592.68351187868665
 20
2065.648533209704
 11
599.18351187868665
 21
2065.648533209704
  0
LINE
  8
_0-0_
  6
CONTINUOUS
 62
    7
 10
592.68351187868665
 20
2061.148533209704
 11
599.18351187868665
 21
2061.148533209704
  0
LINE
  8
_0-0_
  6
CONTINUOUS
 62
    7
 10
599.18351187868665
 20
2067.9253332097041
 11
599.18351187868665
 21
2057.8245332097039
  0
LINE
  8
_0-0_
  6
CONTINUOUS
 62
    7
 10
592.68351187868665
 20
2067.7621332097041
 11
592.68351187868665
 21
2057.3357332097039
  0
LINE
  8
_0-0_
  6
CONTINUOUS
 62
    7
 10
602.81231187868661
 20
2063.3989332097039
 11
588.47631187868682
 21
2063.3989332097039
  0
LINE
  8
_0-0_
  6
CONTINUOUS
 62
    7
 10
2832.0787118786865
 20
1516.887733209704
 11
2841.7963118786865
 21
1516.887733209704
  0
LINE
  8
_0-0_
  6
CONTINUOUS
 62
    7
 10
2832.0787118786865
 20
1121.887733209704
 11
2844.8915118786862
 21
1121.887733209704
  0
LINE
  8
_0-0_
  6
CONTINUOUS
 62
    7
 10
2389.9147118786868
 20
1516.887733209704
 11
2371.0171118786865
 21
1516.887733209704
  0
LINE
  8
_0-0_
  6
CONTINUOUS
 62
    7
 10
2611.2059118786864
 20
1314.387733209704
 11
2630.3475118786864
 21
1314.387733209704
  0
LINE
  8
_0-0_
  6
CONTINUOUS
 62
    7
 10
2651.2059118786864
 20
1314.387733209704
 11
2670.3475118786864
 21
1314.387733209704
  0
LINE
  8
_0-0_
  6
CONTINUOUS
 62
    7
 10
2691.2059118786864
 20
1314.387733209704
 11
2710.3475118786864
 21
1314.387733209704
  0
LINE
  8
_0-0_
  6
CONTINUOUS
 62
    7
 10
2731.2059118786864
 20
1314.387733209704
 11
2750.3475118786864
 21
1314.387733209704
  0
LINE
  8
_0-0_
  6
CONTINUOUS
 62
    7
 10
2771.2059118786864
 20
1314.387733209704
 11
2790.3475118786864
 21
1314.387733209704
  0
LINE
  8
_0-0_
  6
CONTINUOUS
 62
    7
 10
2811.2059118786864
 20
1314.387733209704
 11
2830.3475118786864
 21
1314.387733209704
  0
LINE
  8
_0-0_
  6
CONTINUOUS
 62
    7
 10
1775.9331118786867
 20
2070.0573332097037
 11
1775.9331118786867
 21
2053.929333209704
  0
LINE
  8
_0-0_
  6
CONTINUOUS
 62
    7
 10
1775.9331118786867
 20
1906.8349332097041
 11
1775.9331118786867
 21
1888.751733209704
  0
LINE
  8
_0-0_
  6
CONTINUOUS
 62
    7
 10
595.93311187868675
 20
2070.0573332097037
 11
595.93311187868675
 21
2053.929333209704
  0
LINE
  8
_0-0_
  6
CONTINUOUS
 62
    7
 10
595.93311187868675
 20
1906.8349332097041
 11
595.93311187868675
 21
1888.751733209704
  0
LINE
  8
_0-0_
  6
CONTINUOUS
 62
    7
 10
585.93311187868675
 20
1988.148533209704
 11
605.93311187868675
 21
1988.148533209704
  0
LINE
  8
_0-0_
  6
CONTINUOUS
 62
    7
 10
1765.9331118786867
 20
1988.148533209704
 11
1785.9331118786867
 21
1988.148533209704
  0
LINE
  8
_0-0_
  6
CONTINUOUS
 62
    7
 10
1770.8387118786868
 20
749.86053320970404
 11
1781.4283118786865
 21
749.86053320970404
  0
LINE
  8
_0-0_
  6
CONTINUOUS
 62
    7
 10
1782.1611118786868
 20
639.86053320970393
 11
1769.7803118786866
 21
639.86053320970393
  0
LINE
  8
_0-0_
  6
CONTINUOUS
 62
    7
 10
1775.9331118786867
 20
757.07093320970398
 11
1775.9331118786867
 21
742.571733209704
  0
LINE
  8
_0-0_
  6
CONTINUOUS
 62
    7
 10
1775.9331118786867
 20
646.64453320970392
 11
1775.9331118786867
 21
631.65733320970389
  0
LINE
  8
_0-0_
  6
CONTINUOUS
 62
    7
 10
1785.9331118786867
 20
2090.3989332097039
 11
1765.9331118786867
 21
2090.3989332097039
  0
LINE
  8
_0-0_
  6
CONTINUOUS
 62
    7
 10
1785.9331118786867
 20
1855.8989332097039
 11
1765.9331118786867
 21
1855.8989332097039
  0
LINE
  8
_0-0_
  6
CONTINUOUS
 62
    7
 10
585.93311187868675
 20
2090.3989332097039
 11
605.93311187868675
 21
2090.3989332097039
  0
LINE
  8
_0-0_
  6
CONTINUOUS
 62
    7
 10
605.93311187868675
 20
1855.8989332097039
 11
585.93311187868675
 21
1855.8989332097039
  0
LINE
  8
_0-0_
  6
CONTINUOUS
 62
    7
 10
1785.9331118786867
 20
832.11013320970391
 11
1765.9331118786867
 21
832.11013320970391
  0
LINE
  8
_0-0_
  6
CONTINUOUS
 62
    7
 10
605.93311187868675
 20
594.30773320970399
 11
585.93311187868675
 21
594.30773320970399
  0
LINE
  8
_0-0_
  6
CONTINUOUS
 62
    7
 10
585.93311187868675
 20
828.80773320970411
 11
605.93311187868675
 21
828.80773320970411
  0
LINE
  8
_0-0_
  6
CONTINUOUS
 62
    7
 10
2811.0787118786865
 20
1563.387733209704
 11
2811.0787118786865
 21
1574.2885332097039
  0
LINE
  8
_0-0_
  6
CONTINUOUS
 62
    7
 10
2646.0787118786865
 20
1563.387733209704
 11
2646.0787118786865
 21
1577.4653332097041
  0
LINE
  8
_0-0_
  6
CONTINUOUS
 62
    7
 10
2189.5659118786866
 20
1563.387733209704
 11
2189.5659118786866
 21
1577.4653332097041
  0
LINE
  8
_0-0_
  6
CONTINUOUS
 62
    7
 10
2354.565911878687
 20
1563.387733209704
 11
2354.565911878687
 21
1574.2885332097039
  0
LINE
  8
_0-0_
  6
CONTINUOUS
 62
    7
 10
2328.9091118786864
 20
2032.942133209704
 11
2238.9091118786868
 21
2032.942133209704
  0
LINE
  8
_0-0_
  6
CONTINUOUS
 62
    7
 10
2233.9091118786868
 20
1947.942133209704
 11
2233.9091118786868
 21
2027.942133209704
  0
LINE
  8
_0-0_
  6
CONTINUOUS
 62
    7
 10
2333.9091118786864
 20
2027.942133209704
 11
2333.9091118786864
 21
1947.942133209704
  0
LINE
  8
_0-0_
  6
CONTINUOUS
 62
    7
 10
2245.1595118786867
 20
1962.942133209704
 11
2238.9091118786868
 21
1962.942133209704
  0
LINE
  8
_0-0_
  6
CONTINUOUS
 62
    7
 10
2267.6595118786867
 20
1942.942133209704
 11
2267.6595118786867
 21
1971.442133209704
  0
LINE
  8
_0-0_
  6
CONTINUOUS
 62
    7
 10
2300.1595118786867
 20
1942.942133209704
 11
2300.1595118786867
 21
1971.442133209704
  0
LINE
  8
_0-0_
  6
CONTINUOUS
 62
    7
 10
2250.1595118786867
 20
1967.942133209704
 11
2250.1595118786867
 21
2027.942133209704
  0
LINE
  8
_0-0_
  6
CONTINUOUS
 62
    7
 10
2333.9091118786864
 20
1942.942133209704
 11
2328.9091118786864
 21
1942.942133209704
  0
LINE
  8
_0-0_
  6
CONTINUOUS
 62
    7
 10
2233.9091118786868
 20
1942.942133209704
 11
2238.9091118786868
 21
1942.942133209704
  0
LINE
  8
_0-0_
  6
CONTINUOUS
 62
    7
 10
2233.9091118786868
 20
1942.942133209704
 11
2233.9091118786868
 21
1932.942133209704
  0
LINE
  8
_0-0_
  6
CONTINUOUS
 62
    7
 10
2333.9091118786864
 20
1932.942133209704
 11
2333.9091118786864
 21
1942.942133209704
  0
LINE
  8
_0-0_
  6
CONTINUOUS
 62
    7
 10
2233.9091118786868
 20
1942.942133209704
 11
2233.9091118786868
 21
1947.942133209704
  0
LINE
  8
_0-0_
  6
CONTINUOUS
 62
    7
 10
2333.9091118786864
 20
1942.942133209704
 11
2333.9091118786864
 21
1947.942133209704
  0
LINE
  8
_0-0_
  6
CONTINUOUS
 62
    7
 10
2283.9091118786868
 20
1921.2997332097038
 11
2283.9091118786868
 21
2038.6445332097039
  0
LINE
  8
_0-0_
  6
CONTINUOUS
 62
    7
 10
2301.4091118786868
 20
1932.942133209704
 11
2301.4091118786868
 21
1942.942133209704
  0
LINE
  8
_0-0_
  6
CONTINUOUS
 62
    7
 10
2266.4091118786868
 20
1932.942133209704
 11
2266.4091118786868
 21
1942.942133209704
  0
LINE
  8
_0-0_
  6
CONTINUOUS
 62
    7
 10
2268.9091118786868
 20
1971.7309332097038
 11
2262.9091118786868
 21
1975.1949332097037
  0
LINE
  8
_0-0_
  6
CONTINUOUS
 62
    7
 10
2298.9091118786868
 20
1971.7309332097038
 11
2304.9091118786868
 21
1975.1949332097037
  0
LINE
  8
_0-0_
  6
CONTINUOUS
 62
    7
 10
2300.1595118786867
 20
1971.442133209704
 11
2307.6595118786867
 21
1975.7725332097038
  0
LINE
  8
_0-0_
  6
CONTINUOUS
 62
    7
 10
2267.6595118786867
 20
1971.442133209704
 11
2260.1595118786867
 21
1975.7725332097038
  0
LINE
  8
_0-0_
  6
CONTINUOUS
 62
    7
 10
2260.1595118786867
 20
1975.7725332097038
 11
2260.1595118786867
 21
2032.942133209704
  0
LINE
  8
_0-0_
  6
CONTINUOUS
 62
    7
 10
2307.6595118786867
 20
1975.7725332097038
 11
2307.6595118786867
 21
2032.942133209704
  0
LINE
  8
_0-0_
  6
CONTINUOUS
 62
    7
 10
2269.9091118786868
 20
1973.4629332097038
 11
2263.9091118786868
 21
1976.9269332097039
  0
LINE
  8
_0-0_
  6
CONTINUOUS
 62
    7
 10
2297.9091118786868
 20
1973.4629332097038
 11
2303.9091118786868
 21
1976.9269332097039
  0
LINE
  8
_0-0_
  6
CONTINUOUS
 62
    7
 10
2281.4475118786867
 20
2007.523733209704
 11
2261.9475118786867
 21
1979.5069332097039
  0
LINE
  8
_0-0_
  6
CONTINUOUS
 62
    7
 10
2286.3715118786867
 20
2007.523733209704
 11
2305.8715118786867
 21
1979.5069332097039
  0
LINE
  8
_0-0_
  6
CONTINUOUS
 62
    7
 10
2283.0883118786869
 20
2006.380533209704
 11
2263.5883118786869
 21
1978.3645332097039
  0
LINE
  8
_0-0_
  6
CONTINUOUS
 62
    7
 10
2284.7299118786868
 20
2006.380533209704
 11
2304.2299118786868
 21
1978.3645332097039
  0
LINE
  8
_0-0_
  6
CONTINUOUS
 62
    7
 10
2326.4091118786868
 20
1930.942133209704
 11
2326.4091118786868
 21
1932.942133209704
  0
LINE
  8
_0-0_
  6
CONTINUOUS
 62
    7
 10
2241.4091118786868
 20
1930.942133209704
 11
2241.4091118786868
 21
1932.942133209704
  0
LINE
  8
_0-0_
  6
CONTINUOUS
 62
    7
 10
2233.9091118786868
 20
1932.942133209704
 11
2268.4091118786868
 21
1932.942133209704
  0
LINE
  8
_0-0_
  6
CONTINUOUS
 62
    7
 10
2271.2379118786866
 20
1932.942133209704
 11
2296.5811118786868
 21
1932.942133209704
  0
LINE
  8
_0-0_
  6
CONTINUOUS
 62
    7
 10
2299.4091118786868
 20
1932.942133209704
 11
2333.9091118786864
 21
1932.942133209704
  0
LINE
  8
_0-0_
  6
CONTINUOUS
 62
    7
 10
2326.4091118786868
 20
1930.942133209704
 11
2299.4091118786868
 21
1930.942133209704
  0
LINE
  8
_0-0_
  6
CONTINUOUS
 62
    7
 10
2268.4091118786868
 20
1930.942133209704
 11
2241.4091118786868
 21
1930.942133209704
  0
LINE
  8
_0-0_
  6
CONTINUOUS
 62
    7
 10
2269.4091118786868
 20
1933.942133209704
 11
2269.4091118786868
 21
1970.8645332097039
  0
LINE
  8
_0-0_
  6
CONTINUOUS
 62
    7
 10
2271.4091118786868
 20
1933.942133209704
 11
2271.4091118786868
 21
1970.8645332097039
  0
LINE
  8
_0-0_
  6
CONTINUOUS
 62
    7
 10
2296.4091118786868
 20
1933.942133209704
 11
2296.4091118786868
 21
1970.8645332097039
  0
LINE
  8
_0-0_
  6
CONTINUOUS
 62
    7
 10
2298.4091118786868
 20
1933.942133209704
 11
2298.4091118786868
 21
1970.8645332097039
  0
LINE
  8
_0-0_
  6
CONTINUOUS
 62
    7
 10
2260.1595118786867
 20
1975.7725332097038
 11
2262.1923118786867
 21
1975.7725332097038
  0
LINE
  8
_0-0_
  6
CONTINUOUS
 62
    7
 10
2307.6595118786867
 20
1975.7725332097038
 11
2305.6267118786868
 21
1975.7725332097038
  0
LINE
  8
_0-0_
  6
CONTINUOUS
 62
    7
 10
2300.1595118786867
 20
1971.442133209704
 11
2298.5931118786866
 21
1971.442133209704
  0
LINE
  8
_0-0_
  6
CONTINUOUS
 62
    7
 10
2269.2259118786869
 20
1971.442133209704
 11
2267.6595118786867
 21
1971.442133209704
  0
LINE
  8
_0-0_
  6
CONTINUOUS
 62
    7
 10
2328.9091118786864
 20
1942.942133209704
 11
2298.4091118786868
 21
1942.942133209704
  0
LINE
  8
_0-0_
  6
CONTINUOUS
 62
    7
 10
2296.4091118786868
 20
1942.942133209704
 11
2271.4091118786868
 21
1942.942133209704
  0
LINE
  8
_0-0_
  6
CONTINUOUS
 62
    7
 10
2269.4091118786868
 20
1942.942133209704
 11
2238.9091118786868
 21
1942.942133209704
  0
LINE
  8
_0-0_
  6
CONTINUOUS
 62
    7
 10
2682.084311878687
 20
2033.3757332097038
 11
2592.084311878687
 21
2033.3757332097038
  0
LINE
  8
_0-0_
  6
CONTINUOUS
 62
    7
 10
2587.084311878687
 20
1948.3757332097038
 11
2587.084311878687
 21
2028.3757332097038
  0
LINE
  8
_0-0_
  6
CONTINUOUS
 62
    7
 10
2687.084311878687
 20
2028.3757332097038
 11
2687.084311878687
 21
1948.3757332097038
  0
LINE
  8
_0-0_
  6
CONTINUOUS
 62
    7
 10
2672.084311878687
 20
1963.3757332097038
 11
2592.084311878687
 21
1963.3757332097038
  0
LINE
  8
_0-0_
  6
CONTINUOUS
 62
    7
 10
2687.084311878687
 20
1943.3757332097038
 11
2682.084311878687
 21
1943.3757332097038
  0
LINE
  8
_0-0_
  6
CONTINUOUS
 62
    7
 10
2587.084311878687
 20
1943.3757332097038
 11
2592.084311878687
 21
1943.3757332097038
  0
LINE
  8
_0-0_
  6
CONTINUOUS
 62
    7
 10
2587.084311878687
 20
1943.3757332097038
 11
2587.084311878687
 21
1933.3757332097038
  0
LINE
  8
_0-0_
  6
CONTINUOUS
 62
    7
 10
2687.084311878687
 20
1933.3757332097038
 11
2687.084311878687
 21
1943.3757332097038
  0
LINE
  8
_0-0_
  6
CONTINUOUS
 62
    7
 10
2587.084311878687
 20
1943.3757332097038
 11
2587.084311878687
 21
1948.3757332097038
  0
LINE
  8
_0-0_
  6
CONTINUOUS
 62
    7
 10
2687.084311878687
 20
1943.3757332097038
 11
2687.084311878687
 21
1948.3757332097038
  0
LINE
  8
_0-0_
  6
CONTINUOUS
 62
    7
 10
2647.084311878687
 20
1918.3757332097038
 11
2627.084311878687
 21
1918.3757332097038
  0
LINE
  8
_0-0_
  6
CONTINUOUS
 62
    7
 10
2637.084311878687
 20
1913.5285332097039
 11
2637.084311878687
 21
2039.0773332097039
  0
LINE
  8
_0-0_
  6
CONTINUOUS
 62
    7
 10
2652.084311878687
 20
1941.8757332097038
 11
2652.084311878687
 21
1923.3757332097038
  0
LINE
  8
_0-0_
  6
CONTINUOUS
 62
    7
 10
2622.084311878687
 20
1941.8757332097038
 11
2622.084311878687
 21
1923.3757332097038
  0
LINE
  8
_0-0_
  6
CONTINUOUS
 62
    7
 10
2653.584311878687
 20
1943.3757332097038
 11
2682.084311878687
 21
1943.3757332097038
  0
LINE
  8
_0-0_
  6
CONTINUOUS
 62
    7
 10
2620.584311878687
 20
1943.3757332097038
 11
2592.084311878687
 21
1943.3757332097038
  0
LINE
  8
_0-0_
  6
CONTINUOUS
 62
    7
 10
2672.084311878687
 20
1963.3757332097038
 11
2672.084311878687
 21
2033.3757332097038
  0
LINE
  8
_0-0_
  6
CONTINUOUS
 62
    7
 10
2587.084311878687
 20
1933.3757332097038
 11
2622.084311878687
 21
1933.3757332097038
  0
LINE
  8
_0-0_
  6
CONTINUOUS
 62
    7
 10
2652.084311878687
 20
1933.3757332097038
 11
2687.084311878687
 21
1933.3757332097038
  0
LINE
  8
_0-0_
  6
CONTINUOUS
 62
    7
 10
2620.8339118786871
 20
1933.3757332097038
 11
2620.8339118786871
 21
1943.3541332097038
  0
LINE
  8
_0-0_
  6
CONTINUOUS
 62
    7
 10
2653.3339118786871
 20
1933.3757332097038
 11
2653.3339118786871
 21
1943.3541332097038
  0
LINE
  8
_0-0_
  6
CONTINUOUS
 62
    7
 10
2231.3155118786867
 20
1066.387733209704
 11
2227.3155118786867
 21
1066.387733209704
  0
LINE
  8
_0-0_
  6
CONTINUOUS
 62
    7
 10
2336.3155118786867
 20
1067.387733209704
 11
2336.3155118786867
 21
1069.387733209704
  0
LINE
  8
_0-0_
  6
CONTINUOUS
 62
    7
 10
2342.3155118786867
 20
1067.387733209704
 11
2342.3155118786867
 21
1069.387733209704
  0
LINE
  8
_0-0_
  6
CONTINUOUS
 62
    7
 10
2226.3155118786867
 20
1067.387733209704
 11
2226.3155118786867
 21
1069.387733209704
  0
LINE
  8
_0-0_
  6
CONTINUOUS
 62
    7
 10
2232.3155118786867
 20
1067.387733209704
 11
2232.3155118786867
 21
1069.387733209704
  0
LINE
  8
_0-0_
  6
CONTINUOUS
 62
    7
 10
2341.3155118786867
 20
1066.387733209704
 11
2337.3155118786867
 21
1066.387733209704
  0
LINE
  8
_0-0_
  6
CONTINUOUS
 62
    7
 10
2339.3155118786867
 20
1052.2053332097038
 11
2339.3155118786867
 21
1100.751733209704
  0
LINE
  8
_0-0_
  6
CONTINUOUS
 62
    7
 10
1728.4819118786867
 20
1051.140533209704
 11
1708.6771118786866
 21
1051.140533209704
  0
LINE
  8
_0-0_
  6
CONTINUOUS
 62
    7
 10
1728.4819118786867
 20
1604.574133209704
 11
1708.3507118786867
 21
1604.574133209704
  0
LINE
  8
_0-0_
  6
CONTINUOUS
 62
    7
 10
2264.3155118786867
 20
1098.9597332097039
 11
2278.2907118786865
 21
1098.9597332097039
  0
LINE
  8
_0-0_
  6
CONTINUOUS
 62
    7
 10
2264.3155118786867
 20
1053.3453332097039
 11
2277.6395118786867
 21
1053.3453332097039
  0
LINE
  8
_0-0_
  6
CONTINUOUS
 62
    7
 10
2339.3155118786867
 20
1052.2053332097038
 11
2352.2515118786868
 21
1052.2053332097038
  0
LINE
  8
_0-0_
  6
CONTINUOUS
 62
    7
 10
2339.3155118786867
 20
1100.751733209704
 11
2351.5995118786868
 21
1100.751733209704
  0
LINE
  8
_0-0_
  6
CONTINUOUS
 62
    7
 10
2351.5995118786868
 20
1100.751733209704
 11
2345.8635118786869
 21
1104.0637332097039
  0
LINE
  8
_0-0_
  6
CONTINUOUS
 62
    7
 10
2278.2907118786865
 20
1098.9597332097039
 11
2272.3283118786866
 21
1102.402133209704
  0
LINE
  8
_0-0_
  6
CONTINUOUS
 62
    7
 10
1708.3507118786867
 20
1604.574133209704
 11
1719.0699118786867
 21
1610.7629332097039
  0
LINE
  8
_0-0_
  6
CONTINUOUS
 62
    7
 10
1708.6771118786866
 20
1051.140533209704
 11
1717.5627118786867
 21
1046.010133209704
  0
LINE
  8
_0-0_
  6
CONTINUOUS
 62
    7
 10
2277.6395118786867
 20
1053.3453332097039
 11
2270.7787118786868
 21
1049.3845332097039
  0
LINE
  8
_0-0_
  6
CONTINUOUS
 62
    7
 10
2352.2515118786868
 20
1052.2053332097038
 11
2344.7387118786864
 21
1047.867733209704
  0
LINE
  8
_0-0_
  6
CONTINUOUS
 62
    7
 10
2344.7387118786864
 20
1047.867733209704
 11
2344.7387118786864
 21
1056.3589332097039
  0
LINE
  8
_0-0_
  6
CONTINUOUS
 62
    7
 10
2345.8635118786869
 20
1104.0637332097039
 11
2345.8635118786869
 21
1098.3893332097038
  0
LINE
  8
_0-0_
  6
CONTINUOUS
 62
    7
 10
2270.7787118786868
 20
1049.3845332097039
 11
2270.7787118786868
 21
1056.196533209704
  0
LINE
  8
_0-0_
  6
CONTINUOUS
 62
    7
 10
2272.3283118786866
 20
1102.402133209704
 11
2272.3283118786866
 21
1096.434933209704
  0
LINE
  8
_0-0_
  6
CONTINUOUS
 62
    7
 10
1717.5627118786867
 20
1046.010133209704
 11
1717.5627118786867
 21
1054.730133209704
  0
LINE
  8
_0-0_
  6
CONTINUOUS
 62
    7
 10
1719.0699118786867
 20
1610.7629332097039
 11
1719.0699118786867
 21
1599.5301332097039
  0
LINE
  8
_0-0_
  6
CONTINUOUS
 62
    7
 10
1765.9331118786867
 20
1569.387733209704
 11
1765.9331118786867
 21
1069.387733209704
  0
LINE
  8
_0-0_
  6
CONTINUOUS
 62
    7
 10
1785.9331118786867
 20
1069.387733209704
 11
1785.9331118786867
 21
1569.387733209704
  0
LINE
  8
_0-0_
  6
CONTINUOUS
 62
    7
 10
585.93311187868675
 20
1069.387733209704
 11
585.93311187868675
 21
1569.387733209704
  0
LINE
  8
_0-0_
  6
CONTINUOUS
 62
    7
 10
605.93311187868675
 20
1569.387733209704
 11
605.93311187868675
 21
1069.387733209704
  0
LINE
  8
_0-0_
  6
CONTINUOUS
 62
    7
 10
2153.0659118786866
 20
1304.387733209704
 11
2375.565911878687
 21
1304.387733209704
  0
LINE
  8
_0-0_
  6
CONTINUOUS
 62
    7
 10
2832.0787118786865
 20
1302.387733209704
 11
2609.5787118786865
 21
1302.387733209704
  0
LINE
  8
_0-0_
  6
CONTINUOUS
 62
    7
 10
2264.3155118786867
 20
1053.3453332097039
 11
2264.3155118786867
 21
1593.0421332097039
  0
LINE
  8
_0-0_
  6
CONTINUOUS
 62
    7
 10
2720.8283118786866
 20
1056.497333209704
 11
2720.8283118786866
 21
1593.0421332097039
  0
LINE
  8
_0-0_
  6
CONTINUOUS
 62
    7
 10
2381.565911878687
 20
1563.387733209704
 11
2381.565911878687
 21
1075.387733209704
  0
LINE
  8
_0-0_
  6
CONTINUOUS
 62
    7
 10
2379.565911878687
 20
1563.387733209704
 11
2379.565911878687
 21
1075.387733209704
  0
LINE
  8
_0-0_
  6
CONTINUOUS
 62
    7
 10
2149.0659118786866
 20
1284.7605332097039
 11
2149.0659118786866
 21
1563.387733209704
  0
LINE
  8
_0-0_
  6
CONTINUOUS
 62
    7
 10
2147.0659118786866
 20
1284.574133209704
 11
2147.0659118786866
 21
1563.387733209704
  0
LINE
  8
_0-0_
  6
CONTINUOUS
 62
    7
 10
2607.5787118786865
 20
1284.387733209704
 11
2607.5787118786865
 21
1300.387733209704
  0
LINE
  8
_0-0_
  6
CONTINUOUS
 62
    7
 10
2834.0787118786865
 20
1284.387733209704
 11
2834.0787118786865
 21
1300.387733209704
  0
LINE
  8
_0-0_
  6
CONTINUOUS
 62
    7
 10
2607.5787118786865
 20
1284.387733209704
 11
2605.5787118786865
 21
1284.387733209704
  0
LINE
  8
_0-0_
  6
CONTINUOUS
 62
    7
 10
2834.0787118786865
 20
1284.387733209704
 11
2836.0787118786865
 21
1284.387733209704
  0
LINE
  8
_0-0_
  6
CONTINUOUS
 62
    7
 10
2188.4531118786867
 20
1074.649333209704
 11
2149.1347118786866
 21
1284.0221332097039
  0
LINE
  8
_0-0_
  6
CONTINUOUS
 62
    7
 10
2147.1347118786866
 20
1283.8357332097039
 11
2186.4875118786867
 21
1074.2805332097038
  0
LINE
  8
_0-0_
  6
CONTINUOUS
 62
    7
 10
2229.3155118786867
 20
1059.5357332097039
 11
2229.3155118786867
 21
1071.757333209704
  0
LINE
  8
_0-0_
  6
CONTINUOUS
 62
    7
 10
2378.3155118786867
 20
1322.387733209704
 11
2150.3155118786867
 21
1322.387733209704
  0
LINE
  8
_0-0_
  6
CONTINUOUS
 62
    7
 10
2379.3155118786867
 20
1308.387733209704
 11
2379.3155118786867
 21
1321.387733209704
  0
LINE
  8
_0-0_
  6
CONTINUOUS
 62
    7
 10
2149.3155118786867
 20
1308.387733209704
 11
2149.3155118786867
 21
1321.387733209704
  0
LINE
  8
_0-0_
  6
CONTINUOUS
 62
    7
 10
2644.9659118786867
 20
1074.649333209704
 11
2605.6475118786866
 21
1284.0221332097039
  0
LINE
  8
_0-0_
  6
CONTINUOUS
 62
    7
 10
2603.6475118786866
 20
1283.8357332097039
 11
2643.0003118786867
 21
1074.2805332097038
  0
LINE
  8
_0-0_
  6
CONTINUOUS
 62
    7
 10
2648.8971118786867
 20
1069.387733209704
 11
2832.0787118786865
 21
1069.387733209704
  0
LINE
  8
_0-0_
  6
CONTINUOUS
 62
    7
 10
2648.8971118786867
 20
1071.387733209704
 11
2832.0787118786865
 21
1071.387733209704
  0
LINE
  8
_0-0_
  6
CONTINUOUS
 62
    7
 10
2609.5787118786865
 20
1304.387733209704
 11
2832.0787118786865
 21
1304.387733209704
  0
LINE
  8
_0-0_
  6
CONTINUOUS
 62
    7
 10
2652.928311878687
 20
1081.387733209704
 11
2652.928311878687
 21
1072.387733209704
  0
LINE
  8
_0-0_
  6
CONTINUOUS
 62
    7
 10
2669.6723118786867
 20
1081.387733209704
 11
2691.9851118786864
 21
1081.387733209704
  0
LINE
  8
_0-0_
  6
CONTINUOUS
 62
    7
 10
2709.6723118786867
 20
1081.387733209704
 11
2731.9851118786864
 21
1081.387733209704
  0
LINE
  8
_0-0_
  6
CONTINUOUS
 62
    7
 10
2700.8283118786866
 20
1066.052533209704
 11
2700.8283118786866
 21
1090.326133209704
  0
LINE
  8
_0-0_
  6
CONTINUOUS
 62
    7
 10
2660.8283118786866
 20
1066.052533209704
 11
2660.8283118786866
 21
1090.326133209704
  0
LINE
  8
_0-0_
  6
CONTINUOUS
 62
    7
 10
2693.4659118786867
 20
1075.387733209704
 11
2668.1915118786864
 21
1075.387733209704
  0
LINE
  8
_0-0_
  6
CONTINUOUS
 62
    7
 10
2733.4659118786867
 20
1075.387733209704
 11
2708.1915118786864
 21
1075.387733209704
  0
LINE
  8
_0-0_
  6
CONTINUOUS
 62
    7
 10
2651.2059118786864
 20
1081.387733209704
 11
2670.3475118786864
 21
1081.387733209704
  0
LINE
  8
_0-0_
  6
CONTINUOUS
 62
    7
 10
2691.2059118786864
 20
1081.387733209704
 11
2710.3475118786864
 21
1081.387733209704
  0
LINE
  8
_0-0_
  6
CONTINUOUS
 62
    7
 10
2731.2059118786864
 20
1081.387733209704
 11
2750.3475118786864
 21
1081.387733209704
  0
LINE
  8
_0-0_
  6
CONTINUOUS
 62
    7
 10
2749.6723118786867
 20
1081.387733209704
 11
2771.9851118786864
 21
1081.387733209704
  0
LINE
  8
_0-0_
  6
CONTINUOUS
 62
    7
 10
2740.8283118786866
 20
1066.052533209704
 11
2740.8283118786866
 21
1090.326133209704
  0
LINE
  8
_0-0_
  6
CONTINUOUS
 62
    7
 10
2773.4659118786867
 20
1075.387733209704
 11
2748.1915118786864
 21
1075.387733209704
  0
LINE
  8
_0-0_
  6
CONTINUOUS
 62
    7
 10
2789.6723118786867
 20
1081.387733209704
 11
2811.9851118786864
 21
1081.387733209704
  0
LINE
  8
_0-0_
  6
CONTINUOUS
 62
    7
 10
2780.8283118786866
 20
1066.052533209704
 11
2780.8283118786866
 21
1090.326133209704
  0
LINE
  8
_0-0_
  6
CONTINUOUS
 62
    7
 10
2813.4659118786867
 20
1075.387733209704
 11
2788.1915118786864
 21
1075.387733209704
  0
LINE
  8
_0-0_
  6
CONTINUOUS
 62
    7
 10
2771.2059118786864
 20
1081.387733209704
 11
2790.3475118786864
 21
1081.387733209704
  0
LINE
  8
_0-0_
  6
CONTINUOUS
 62
    7
 10
2828.7283118786863
 20
1081.387733209704
 11
2828.7283118786863
 21
1072.387733209704
  0
LINE
  8
_0-0_
  6
CONTINUOUS
 62
    7
 10
2820.8283118786866
 20
1066.052533209704
 11
2820.8283118786866
 21
1090.326133209704
  0
LINE
  8
_0-0_
  6
CONTINUOUS
 62
    7
 10
2811.2059118786864
 20
1081.387733209704
 11
2830.3475118786864
 21
1081.387733209704
  0
LINE
  8
_0-0_
  6
CONTINUOUS
 62
    7
 10
2151.0659118786866
 20
1284.387733209704
 11
2151.0659118786866
 21
1300.387733209704
  0
LINE
  8
_0-0_
  6
CONTINUOUS
 62
    7
 10
2151.0659118786866
 20
1284.387733209704
 11
2149.0659118786866
 21
1284.387733209704
  0
LINE
  8
_0-0_
  6
CONTINUOUS
 62
    7
 10
2375.565911878687
 20
1302.387733209704
 11
2153.0659118786866
 21
1302.387733209704
  0
LINE
  8
_0-0_
  6
CONTINUOUS
 62
    7
 10
2153.0659118786866
 20
1304.387733209704
 11
2375.565911878687
 21
1304.387733209704
  0
LINE
  8
_0-0_
  6
CONTINUOUS
 62
    7
 10
2377.565911878687
 20
1284.387733209704
 11
2377.565911878687
 21
1300.387733209704
  0
LINE
  8
_0-0_
  6
CONTINUOUS
 62
    7
 10
2377.565911878687
 20
1284.387733209704
 11
2379.565911878687
 21
1284.387733209704
  0
LINE
  8
_0-0_
  6
CONTINUOUS
 62
    7
 10
1178.4331118786867
 20
1316.8237332097039
 11
1178.4331118786867
 21
1306.387733209704
  0
LINE
  8
_0-0_
  6
CONTINUOUS
 62
    7
 10
1193.4331118786867
 20
1316.8237332097039
 11
1193.4331118786867
 21
1306.387733209704
  0
LINE
  8
_0-0_
  6
CONTINUOUS
 62
    7
 10
1192.4331118786867
 20
1305.387733209704
 11
1179.4331118786867
 21
1305.387733209704
  0
LINE
  8
_0-0_
  6
CONTINUOUS
 62
    7
 10
1192.4331118786867
 20
1317.8237332097039
 11
1179.4331118786867
 21
1317.8237332097039
  0
LINE
  8
_0-0_
  6
CONTINUOUS
 62
    7
 10
605.93311187868675
 20
1304.387733209704
 11
585.93311187868675
 21
1304.387733209704
  0
LINE
  8
_0-0_
  6
CONTINUOUS
 62
    7
 10
605.93311187868675
 20
1284.387733209704
 11
585.93311187868675
 21
1284.387733209704
  0
LINE
  8
_0-0_
  6
CONTINUOUS
 62
    7
 10
1785.9331118786867
 20
1304.387733209704
 11
1765.9331118786867
 21
1304.387733209704
  0
LINE
  8
_0-0_
  6
CONTINUOUS
 62
    7
 10
1785.9331118786867
 20
1284.387733209704
 11
1765.9331118786867
 21
1284.387733209704
  0
LINE
  8
_0-0_
  6
CONTINUOUS
 62
    7
 10
1785.9331118786867
 20
791.77013320970399
 11
1765.9331118786867
 21
791.77013320970399
  0
LINE
  8
_0-0_
  6
CONTINUOUS
 62
    7
 10
1775.9331118786867
 20
685.52293320970397
 11
1775.9331118786867
 21
663.85653320970391
  0
LINE
  8
_0-0_
  6
CONTINUOUS
 62
    7
 10
1772.4331118786867
 20
669.36053320970393
 11
1779.4331118786867
 21
669.36053320970393
  0
LINE
  8
_0-0_
  6
CONTINUOUS
 62
    7
 10
1772.4331118786867
 20
680.36053320970404
 11
1779.4331118786867
 21
680.36053320970404
  0
LINE
  8
_0-0_
  6
CONTINUOUS
 62
    7
 10
1779.4331118786867
 20
709.86053320970404
 11
1779.4331118786867
 21
719.86053320970404
  0
LINE
  8
_0-0_
  6
CONTINUOUS
 62
    7
 10
1784.4331118786867
 20
709.86053320970404
 11
1784.4331118786867
 21
719.86053320970404
  0
LINE
  8
_0-0_
  6
CONTINUOUS
 62
    7
 10
1778.4331118786867
 20
709.86053320970404
 11
1778.4331118786867
 21
719.86053320970404
  0
LINE
  8
_0-0_
  6
CONTINUOUS
 62
    7
 10
1784.4331118786867
 20
719.86053320970404
 11
1767.4331118786867
 21
719.86053320970404
  0
LINE
  8
_0-0_
  6
CONTINUOUS
 62
    7
 10
1779.4331118786867
 20
719.86053320970404
 11
1779.4331118786867
 21
720.36053320970404
  0
LINE
  8
_0-0_
  6
CONTINUOUS
 62
    7
 10
1772.4331118786867
 20
720.36053320970404
 11
1779.4331118786867
 21
720.36053320970404
  0
LINE
  8
_0-0_
  6
CONTINUOUS
 62
    7
 10
1772.4331118786867
 20
709.86053320970404
 11
1772.4331118786867
 21
719.86053320970404
  0
LINE
  8
_0-0_
  6
CONTINUOUS
 62
    7
 10
1767.4331118786867
 20
709.86053320970404
 11
1767.4331118786867
 21
719.86053320970404
  0
LINE
  8
_0-0_
  6
CONTINUOUS
 62
    7
 10
1773.4331118786867
 20
709.86053320970404
 11
1773.4331118786867
 21
719.86053320970404
  0
LINE
  8
_0-0_
  6
CONTINUOUS
 62
    7
 10
1772.4331118786867
 20
719.86053320970404
 11
1772.4331118786867
 21
720.36053320970404
  0
LINE
  8
_0-0_
  6
CONTINUOUS
 62
    7
 10
1775.9331118786867
 20
725.52293320970397
 11
1775.9331118786867
 21
703.85653320970391
  0
LINE
  8
_0-0_
  6
CONTINUOUS
 62
    7
 10
1767.4331118786867
 20
709.86053320970404
 11
1784.4331118786867
 21
709.86053320970404
  0
LINE
  8
_0-0_
  6
CONTINUOUS
 62
    7
 10
1772.4331118786867
 20
709.86053320970404
 11
1772.4331118786867
 21
709.36053320970404
  0
LINE
  8
_0-0_
  6
CONTINUOUS
 62
    7
 10
1772.4331118786867
 20
709.36053320970404
 11
1779.4331118786867
 21
709.36053320970404
  0
LINE
  8
_0-0_
  6
CONTINUOUS
 62
    7
 10
1779.4331118786867
 20
709.86053320970404
 11
1779.4331118786867
 21
709.36053320970404
  0
LINE
  8
_0-0_
  6
CONTINUOUS
 62
    7
 10
590.8387118786868
 20
749.86053320970404
 11
601.42831187868659
 21
749.86053320970404
  0
LINE
  8
_0-0_
  6
CONTINUOUS
 62
    7
 10
602.16111187868682
 20
639.86053320970393
 11
589.78031187868691
 21
639.86053320970393
  0
LINE
  8
_0-0_
  6
CONTINUOUS
 62
    7
 10
595.93311187868675
 20
757.07093320970398
 11
595.93311187868675
 21
742.571733209704
  0
LINE
  8
_0-0_
  6
CONTINUOUS
 62
    7
 10
595.93311187868675
 20
646.64453320970392
 11
595.93311187868675
 21
631.65733320970389
  0
LINE
  8
_0-0_
  6
CONTINUOUS
 62
    7
 10
595.93311187868675
 20
685.52293320970397
 11
595.93311187868675
 21
663.85653320970391
  0
LINE
  8
_0-0_
  6
CONTINUOUS
 62
    7
 10
592.43311187868675
 20
669.36053320970393
 11
599.43311187868675
 21
669.36053320970393
  0
LINE
  8
_0-0_
  6
CONTINUOUS
 62
    7
 10
592.43311187868675
 20
680.36053320970404
 11
599.43311187868675
 21
680.36053320970404
  0
LINE
  8
_0-0_
  6
CONTINUOUS
 62
    7
 10
598.43311187868675
 20
709.86053320970404
 11
598.43311187868675
 21
719.86053320970404
  0
LINE
  8
_0-0_
  6
CONTINUOUS
 62
    7
 10
604.43311187868675
 20
719.86053320970404
 11
587.43311187868675
 21
719.86053320970404
  0
LINE
  8
_0-0_
  6
CONTINUOUS
 62
    7
 10
592.43311187868675
 20
720.36053320970404
 11
599.43311187868675
 21
720.36053320970404
  0
LINE
  8
_0-0_
  6
CONTINUOUS
 62
    7
 10
592.43311187868675
 20
709.86053320970404
 11
592.43311187868675
 21
719.86053320970404
  0
LINE
  8
_0-0_
  6
CONTINUOUS
 62
    7
 10
593.43311187868675
 20
709.86053320970404
 11
593.43311187868675
 21
719.86053320970404
  0
LINE
  8
_0-0_
  6
CONTINUOUS
 62
    7
 10
592.43311187868675
 20
719.86053320970404
 11
592.43311187868675
 21
720.36053320970404
  0
LINE
  8
_0-0_
  6
CONTINUOUS
 62
    7
 10
595.93311187868675
 20
725.52293320970397
 11
595.93311187868675
 21
703.85653320970391
  0
LINE
  8
_0-0_
  6
CONTINUOUS
 62
    7
 10
587.43311187868675
 20
709.86053320970404
 11
604.43311187868675
 21
709.86053320970404
  0
LINE
  8
_0-0_
  6
CONTINUOUS
 62
    7
 10
592.43311187868675
 20
709.86053320970404
 11
592.43311187868675
 21
709.36053320970404
  0
LINE
  8
_0-0_
  6
CONTINUOUS
 62
    7
 10
592.43311187868675
 20
709.36053320970404
 11
599.43311187868675
 21
709.36053320970404
  0
LINE
  8
_0-0_
  6
CONTINUOUS
 62
    7
 10
599.43311187868675
 20
709.86053320970404
 11
599.43311187868675
 21
719.86053320970404
  0
LINE
  8
_0-0_
  6
CONTINUOUS
 62
    7
 10
604.43311187868675
 20
709.86053320970404
 11
604.43311187868675
 21
719.86053320970404
  0
LINE
  8
_0-0_
  6
CONTINUOUS
 62
    7
 10
599.43311187868675
 20
719.86053320970404
 11
599.43311187868675
 21
720.36053320970404
  0
LINE
  8
_0-0_
  6
CONTINUOUS
 62
    7
 10
599.43311187868675
 20
709.86053320970404
 11
599.43311187868675
 21
709.36053320970404
  0
LINE
  8
_0-0_
  6
CONTINUOUS
 62
    7
 10
587.43311187868675
 20
709.86053320970404
 11
587.43311187868675
 21
719.86053320970404
  0
LINE
  8
_0-0_
  6
CONTINUOUS
 62
    7
 10
605.93311187868675
 20
788.46773320970396
 11
585.93311187868675
 21
788.46773320970396
  0
LINE
  8
_0-0_
  6
CONTINUOUS
 62
    7
 10
1179.4331118786867
 20
782.7605332097039
 11
1192.4331118786867
 21
782.7605332097039
  0
LINE
  8
_0-0_
  6
CONTINUOUS
 62
    7
 10
1178.4331118786867
 20
1309.387733209704
 11
605.93311187868675
 21
1309.387733209704
  0
LINE
  8
_0-0_
  6
CONTINUOUS
 62
    7
 10
1178.4331118786867
 20
1076.387733209704
 11
605.93311187868675
 21
1076.387733209704
  0
LINE
  8
_0-0_
  6
CONTINUOUS
 62
    7
 10
1765.9331118786867
 20
1076.387733209704
 11
1193.4331118786867
 21
1076.387733209704
  0
LINE
  8
_0-0_
  6
CONTINUOUS
 62
    7
 10
1765.9331118786867
 20
1309.387733209704
 11
1193.4331118786867
 21
1309.387733209704
  0
LINE
  8
_0-0_
  6
CONTINUOUS
 62
    7
 10
1192.4331118786867
 20
2081.0485332097041
 11
1179.4331118786867
 21
2081.0485332097041
  0
LINE
  8
_0-0_
  6
CONTINUOUS
 62
    7
 10
1192.4331118786867
 20
1865.2485332097039
 11
1179.4331118786867
 21
1865.2485332097039
  0
LINE
  8
_0-0_
  6
CONTINUOUS
 62
    7
 10
1192.4331118786867
 20
2068.5485332097041
 11
1179.4331118786867
 21
2068.5485332097041
  0
LINE
  8
_0-0_
  6
CONTINUOUS
 62
    7
 10
1192.4331118786867
 20
2077.7485332097039
 11
1179.4331118786867
 21
2077.7485332097039
  0
LINE
  8
_0-0_
  6
CONTINUOUS
 62
    7
 10
1178.4331118786867
 20
2078.7485332097039
 11
1178.4331118786867
 21
2080.0485332097041
  0
LINE
  8
_0-0_
  6
CONTINUOUS
 62
    7
 10
1193.4331118786867
 20
2078.7485332097039
 11
1193.4331118786867
 21
2080.0485332097041
  0
LINE
  8
_0-0_
  6
CONTINUOUS
 62
    7
 10
1178.4331118786867
 20
2067.5485332097041
 11
1178.4331118786867
 21
2038.148533209704
  0
LINE
  8
_0-0_
  6
CONTINUOUS
 62
    7
 10
1193.4331118786867
 20
2067.5485332097041
 11
1193.4331118786867
 21
2038.148533209704
  0
LINE
  8
_0-0_
  6
CONTINUOUS
 62
    7
 10
1178.4331118786867
 20
1998.148533209704
 11
1178.4331118786867
 21
2028.148533209704
  0
LINE
  8
_0-0_
  6
CONTINUOUS
 62
    7
 10
1193.4331118786867
 20
1998.148533209704
 11
1193.4331118786867
 21
2028.148533209704
  0
LINE
  8
_0-0_
  6
CONTINUOUS
 62
    7
 10
1178.4331118786867
 20
1958.148533209704
 11
1178.4331118786867
 21
1988.148533209704
  0
LINE
  8
_0-0_
  6
CONTINUOUS
 62
    7
 10
1193.4331118786867
 20
1958.148533209704
 11
1193.4331118786867
 21
1988.148533209704
  0
LINE
  8
_0-0_
  6
CONTINUOUS
 62
    7
 10
1178.4331118786867
 20
1918.148533209704
 11
1178.4331118786867
 21
1948.148533209704
  0
LINE
  8
_0-0_
  6
CONTINUOUS
 62
    7
 10
1193.4331118786867
 20
1918.148533209704
 11
1193.4331118786867
 21
1948.148533209704
  0
LINE
  8
_0-0_
  6
CONTINUOUS
 62
    7
 10
1178.4331118786867
 20
1866.2485332097039
 11
1178.4331118786867
 21
1868.148533209704
  0
LINE
  8
_0-0_
  6
CONTINUOUS
 62
    7
 10
1178.4331118786867
 20
1878.148533209704
 11
1178.4331118786867
 21
1908.148533209704
  0
LINE
  8
_0-0_
  6
CONTINUOUS
 62
    7
 10
1193.4331118786867
 20
1866.2485332097039
 11
1193.4331118786867
 21
1868.148533209704
  0
LINE
  8
_0-0_
  6
CONTINUOUS
 62
    7
 10
1193.4331118786867
 20
1878.148533209704
 11
1193.4331118786867
 21
1908.148533209704
  0
LINE
  8
_0-0_
  6
CONTINUOUS
 62
    7
 10
1179.4331118786867
 20
2065.2485332097039
 11
1192.4331118786867
 21
2065.2485332097039
  0
LINE
  8
_0-0_
  6
CONTINUOUS
 62
    7
 10
1179.4331118786867
 20
2041.0485332097039
 11
1192.4331118786867
 21
2041.0485332097039
  0
LINE
  8
_0-0_
  6
CONTINUOUS
 62
    7
 10
1179.4331118786867
 20
2025.2485332097039
 11
1192.4331118786867
 21
2025.2485332097039
  0
LINE
  8
_0-0_
  6
CONTINUOUS
 62
    7
 10
1179.4331118786867
 20
2001.0485332097039
 11
1192.4331118786867
 21
2001.0485332097039
  0
LINE
  8
_0-0_
  6
CONTINUOUS
 62
    7
 10
1179.4331118786867
 20
1985.2485332097039
 11
1192.4331118786867
 21
1985.2485332097039
  0
LINE
  8
_0-0_
  6
CONTINUOUS
 62
    7
 10
1179.4331118786867
 20
1961.0485332097039
 11
1192.4331118786867
 21
1961.0485332097039
  0
LINE
  8
_0-0_
  6
CONTINUOUS
 62
    7
 10
1179.4331118786867
 20
1945.2485332097039
 11
1192.4331118786867
 21
1945.2485332097039
  0
LINE
  8
_0-0_
  6
CONTINUOUS
 62
    7
 10
1179.4331118786867
 20
1921.0485332097039
 11
1192.4331118786867
 21
1921.0485332097039
  0
LINE
  8
_0-0_
  6
CONTINUOUS
 62
    7
 10
1179.4331118786867
 20
1905.2485332097039
 11
1192.4331118786867
 21
1905.2485332097039
  0
LINE
  8
_0-0_
  6
CONTINUOUS
 62
    7
 10
1179.4331118786867
 20
1881.0485332097039
 11
1192.4331118786867
 21
1881.0485332097039
  0
LINE
  8
_0-0_
  6
CONTINUOUS
 62
    7
 10
1193.4331118786867
 20
2078.7485332097039
 11
1193.4331118786867
 21
2078.148533209704
  0
LINE
  8
_0-0_
  6
CONTINUOUS
 62
    7
 10
1178.4331118786867
 20
2078.7485332097039
 11
1178.4331118786867
 21
2078.148533209704
  0
LINE
  8
_0-0_
  6
CONTINUOUS
 62
    7
 10
1179.4331118786867
 20
2037.7485332097039
 11
1192.4331118786867
 21
2037.7485332097039
  0
LINE
  8
_0-0_
  6
CONTINUOUS
 62
    7
 10
1179.4331118786867
 20
2028.5485332097039
 11
1192.4331118786867
 21
2028.5485332097039
  0
LINE
  8
_0-0_
  6
CONTINUOUS
 62
    7
 10
1179.4331118786867
 20
1997.7485332097039
 11
1192.4331118786867
 21
1997.7485332097039
  0
LINE
  8
_0-0_
  6
CONTINUOUS
 62
    7
 10
1179.4331118786867
 20
1988.5485332097039
 11
1192.4331118786867
 21
1988.5485332097039
  0
LINE
  8
_0-0_
  6
CONTINUOUS
 62
    7
 10
1179.4331118786867
 20
1957.7485332097039
 11
1192.4331118786867
 21
1957.7485332097039
  0
LINE
  8
_0-0_
  6
CONTINUOUS
 62
    7
 10
1179.4331118786867
 20
1948.5485332097039
 11
1192.4331118786867
 21
1948.5485332097039
  0
LINE
  8
_0-0_
  6
CONTINUOUS
 62
    7
 10
1179.4331118786867
 20
1917.7485332097039
 11
1192.4331118786867
 21
1917.7485332097039
  0
LINE
  8
_0-0_
  6
CONTINUOUS
 62
    7
 10
1179.4331118786867
 20
1908.5485332097039
 11
1192.4331118786867
 21
1908.5485332097039
  0
LINE
  8
_0-0_
  6
CONTINUOUS
 62
    7
 10
1179.4331118786867
 20
1877.7485332097039
 11
1192.4331118786867
 21
1877.7485332097039
  0
LINE
  8
_0-0_
  6
CONTINUOUS
 62
    7
 10
1179.4331118786867
 20
1868.5485332097039
 11
1192.4331118786867
 21
1868.5485332097039
  0
LINE
  8
_0-0_
  6
CONTINUOUS
 62
    7
 10
1184.4331118786867
 20
2041.0485332097039
 11
1184.4331118786867
 21
2065.2485332097039
  0
LINE
  8
_0-0_
  6
CONTINUOUS
 62
    7
 10
1187.4331118786867
 20
2041.0485332097039
 11
1187.4331118786867
 21
2065.2485332097039
  0
LINE
  8
_0-0_
  6
CONTINUOUS
 62
    7
 10
1184.4331118786867
 20
2001.0485332097039
 11
1184.4331118786867
 21
2025.2485332097039
  0
LINE
  8
_0-0_
  6
CONTINUOUS
 62
    7
 10
1187.4331118786867
 20
2001.0485332097039
 11
1187.4331118786867
 21
2025.2485332097039
  0
LINE
  8
_0-0_
  6
CONTINUOUS
 62
    7
 10
1184.4331118786867
 20
1961.0485332097039
 11
1184.4331118786867
 21
1985.2485332097039
  0
LINE
  8
_0-0_
  6
CONTINUOUS
 62
    7
 10
1187.4331118786867
 20
1961.0485332097039
 11
1187.4331118786867
 21
1985.2485332097039
  0
LINE
  8
_0-0_
  6
CONTINUOUS
 62
    7
 10
1184.4331118786867
 20
1881.0485332097039
 11
1184.4331118786867
 21
1905.2485332097039
  0
LINE
  8
_0-0_
  6
CONTINUOUS
 62
    7
 10
1184.4331118786867
 20
1921.0485332097039
 11
1184.4331118786867
 21
1945.2485332097039
  0
LINE
  8
_0-0_
  6
CONTINUOUS
 62
    7
 10
1187.4331118786867
 20
1881.0485332097039
 11
1187.4331118786867
 21
1905.2485332097039
  0
LINE
  8
_0-0_
  6
CONTINUOUS
 62
    7
 10
1187.4331118786867
 20
1921.0485332097039
 11
1187.4331118786867
 21
1945.2485332097039
  0
LINE
  8
_0-0_
  6
CONTINUOUS
 62
    7
 10
1185.9331118786867
 20
2090.3989332097039
 11
1185.9331118786867
 21
1855.8989332097039
  0
LINE
  8
_0-0_
  6
CONTINUOUS
 62
    7
 10
574.29231187868663
 20
714.86053320970404
 11
1798.5187118786866
 21
714.86053320970404
  0
LINE
  8
_0-0_
  6
CONTINUOUS
 62
    7
 10
565.87551187868666
 20
1973.148533209704
 11
1802.4035118786866
 21
1973.148533209704
  0
LINE
  8
_0-0_
  6
CONTINUOUS
 62
    7
 10
1185.9331118786867
 20
1064.7053332097038
 11
1185.9331118786867
 21
1569.387733209704
  0
LINE
  8
_0-0_
  6
CONTINUOUS
 62
    7
 10
1765.9331118786867
 20
1319.387733209704
 11
605.93311187868675
 21
1319.387733209704
  0
LINE
  8
_0-0_
  6
CONTINUOUS
 62
    7
 10
1765.9331118786867
 20
1086.387733209704
 11
605.93311187868675
 21
1086.387733209704
  0
LINE
  8
_0-0_
  6
CONTINUOUS
 62
    7
 10
1765.9331118786867
 20
1314.387733209704
 11
605.93311187868675
 21
1314.387733209704
  0
LINE
  8
_0-0_
  6
CONTINUOUS
 62
    7
 10
1765.9331118786867
 20
1081.387733209704
 11
605.93311187868675
 21
1081.387733209704
  0
LINE
  8
_0-0_
  6
CONTINUOUS
 62
    7
 10
605.93311187868675
 20
2078.148533209704
 11
1178.6331118786865
 21
2078.148533209704
  0
LINE
  8
_0-0_
  6
CONTINUOUS
 62
    7
 10
605.93311187868675
 20
2068.148533209704
 11
1178.6331118786865
 21
2068.148533209704
  0
LINE
  8
_0-0_
  6
CONTINUOUS
 62
    7
 10
605.93311187868675
 20
2038.148533209704
 11
1178.6331118786865
 21
2038.148533209704
  0
LINE
  8
_0-0_
  6
CONTINUOUS
 62
    7
 10
605.93311187868675
 20
2028.148533209704
 11
1178.6331118786865
 21
2028.148533209704
  0
LINE
  8
_0-0_
  6
CONTINUOUS
 62
    7
 10
605.93311187868675
 20
1998.148533209704
 11
1178.6331118786865
 21
1998.148533209704
  0
LINE
  8
_0-0_
  6
CONTINUOUS
 62
    7
 10
605.93311187868675
 20
1988.148533209704
 11
1178.6331118786865
 21
1988.148533209704
  0
LINE
  8
_0-0_
  6
CONTINUOUS
 62
    7
 10
605.93311187868675
 20
1958.148533209704
 11
1178.6331118786865
 21
1958.148533209704
  0
LINE
  8
_0-0_
  6
CONTINUOUS
 62
    7
 10
605.93311187868675
 20
1948.148533209704
 11
1178.6331118786865
 21
1948.148533209704
  0
LINE
  8
_0-0_
  6
CONTINUOUS
 62
    7
 10
605.93311187868675
 20
1918.148533209704
 11
1178.6331118786865
 21
1918.148533209704
  0
LINE
  8
_0-0_
  6
CONTINUOUS
 62
    7
 10
605.93311187868675
 20
1908.148533209704
 11
1178.6331118786865
 21
1908.148533209704
  0
LINE
  8
_0-0_
  6
CONTINUOUS
 62
    7
 10
605.93311187868675
 20
1878.148533209704
 11
1178.6331118786865
 21
1878.148533209704
  0
LINE
  8
_0-0_
  6
CONTINUOUS
 62
    7
 10
605.93311187868675
 20
1868.148533209704
 11
1178.6331118786865
 21
1868.148533209704
  0
LINE
  8
_0-0_
  6
CONTINUOUS
 62
    7
 10
1765.9331118786867
 20
2078.148533209704
 11
1193.2331118786867
 21
2078.148533209704
  0
LINE
  8
_0-0_
  6
CONTINUOUS
 62
    7
 10
1765.9331118786867
 20
2068.148533209704
 11
1193.2331118786867
 21
2068.148533209704
  0
LINE
  8
_0-0_
  6
CONTINUOUS
 62
    7
 10
1765.9331118786867
 20
2038.148533209704
 11
1193.2331118786867
 21
2038.148533209704
  0
LINE
  8
_0-0_
  6
CONTINUOUS
 62
    7
 10
1765.9331118786867
 20
2028.148533209704
 11
1193.2331118786867
 21
2028.148533209704
  0
LINE
  8
_0-0_
  6
CONTINUOUS
 62
    7
 10
1765.9331118786867
 20
1998.148533209704
 11
1193.2331118786867
 21
1998.148533209704
  0
LINE
  8
_0-0_
  6
CONTINUOUS
 62
    7
 10
1765.9331118786867
 20
1988.148533209704
 11
1193.2331118786867
 21
1988.148533209704
  0
LINE
  8
_0-0_
  6
CONTINUOUS
 62
    7
 10
1765.9331118786867
 20
1958.148533209704
 11
1193.2331118786867
 21
1958.148533209704
  0
LINE
  8
_0-0_
  6
CONTINUOUS
 62
    7
 10
1765.9331118786867
 20
1948.148533209704
 11
1193.2331118786867
 21
1948.148533209704
  0
LINE
  8
_0-0_
  6
CONTINUOUS
 62
    7
 10
1765.9331118786867
 20
1918.148533209704
 11
1193.2331118786867
 21
1918.148533209704
  0
LINE
  8
_0-0_
  6
CONTINUOUS
 62
    7
 10
1765.9331118786867
 20
1908.148533209704
 11
1193.2331118786867
 21
1908.148533209704
  0
LINE
  8
_0-0_
  6
CONTINUOUS
 62
    7
 10
1765.9331118786867
 20
1878.148533209704
 11
1193.2331118786867
 21
1878.148533209704
  0
LINE
  8
_0-0_
  6
CONTINUOUS
 62
    7
 10
1765.9331118786867
 20
1868.148533209704
 11
1193.2331118786867
 21
1868.148533209704
  0
LINE
  8
_0-0_
  6
CONTINUOUS
 62
    7
 10
605.93311187868675
 20
2073.148533209704
 11
1765.9331118786867
 21
2073.148533209704
  0
LINE
  8
_0-0_
  6
CONTINUOUS
 62
    7
 10
605.93311187868675
 20
2033.148533209704
 11
1765.9331118786867
 21
2033.148533209704
  0
LINE
  8
_0-0_
  6
CONTINUOUS
 62
    7
 10
605.93311187868675
 20
1993.148533209704
 11
1765.9331118786867
 21
1993.148533209704
  0
LINE
  8
_0-0_
  6
CONTINUOUS
 62
    7
 10
605.93311187868675
 20
1953.148533209704
 11
1765.9331118786867
 21
1953.148533209704
  0
LINE
  8
_0-0_
  6
CONTINUOUS
 62
    7
 10
605.93311187868675
 20
1913.148533209704
 11
1765.9331118786867
 21
1913.148533209704
  0
LINE
  8
_0-0_
  6
CONTINUOUS
 62
    7
 10
605.93311187868675
 20
1873.148533209704
 11
1765.9331118786867
 21
1873.148533209704
  0
LINE
  8
_0-0_
  6
CONTINUOUS
 62
    7
 10
1784.9331118786867
 20
599.86053320970393
 11
1766.9331118786867
 21
599.86053320970393
  0
LINE
  8
_0-0_
  6
CONTINUOUS
 62
    7
 10
1797.6507118786867
 20
669.60053320970393
 11
1795.5547118786867
 21
667.98453320970395
  0
LINE
  8
_0-0_
  6
CONTINUOUS
 62
    7
 10
1795.5547118786867
 20
667.98453320970395
 11
1793.4115118786867
 21
666.44773320970398
  0
LINE
  8
_0-0_
  6
CONTINUOUS
 62
    7
 10
1793.4115118786867
 20
666.44773320970398
 11
1791.1763118786866
 21
665.0685332097039
  0
LINE
  8
_0-0_
  6
CONTINUOUS
 62
    7
 10
1791.1763118786866
 20
665.0685332097039
 11
1789.0947118786866
 21
664.0309332097039
  0
LINE
  8
_0-0_
  6
CONTINUOUS
 62
    7
 10
1789.0947118786866
 20
664.0309332097039
 11
1786.9275118786868
 21
663.15893320970394
  0
LINE
  8
_0-0_
  6
CONTINUOUS
 62
    7
 10
1786.9275118786868
 20
663.15893320970394
 11
1784.7003118786867
 21
662.43253320970393
  0
LINE
  8
_0-0_
  6
CONTINUOUS
 62
    7
 10
1784.7003118786867
 20
662.43253320970393
 11
1782.4371118786866
 21
661.83173320970399
  0
LINE
  8
_0-0_
  6
CONTINUOUS
 62
    7
 10
1782.4371118786866
 20
661.83173320970399
 11
1780.1635118786866
 21
661.33093320970397
  0
LINE
  8
_0-0_
  6
CONTINUOUS
 62
    7
 10
1780.1635118786866
 20
661.33093320970397
 11
1777.8867118786865
 21
660.87893320970397
  0
LINE
  8
_0-0_
  6
CONTINUOUS
 62
    7
 10
1777.8867118786865
 20
660.87893320970397
 11
1775.6131118786865
 21
660.41813320970391
  0
LINE
  8
_0-0_
  6
CONTINUOUS
 62
    7
 10
1775.6131118786865
 20
660.41813320970391
 11
1773.3507118786867
 21
659.89093320970391
  0
LINE
  8
_0-0_
  6
CONTINUOUS
 62
    7
 10
1773.3507118786867
 20
659.89093320970391
 11
1771.1075118786866
 21
659.24213320970397
  0
LINE
  8
_0-0_
  6
CONTINUOUS
 62
    7
 10
1771.1075118786866
 20
659.24213320970397
 11
1768.1443118786867
 21
658.10053320970393
  0
LINE
  8
_0-0_
  6
CONTINUOUS
 62
    7
 10
1768.1443118786867
 20
658.10053320970393
 11
1765.2995118786866
 21
656.64533320970394
  0
LINE
  8
_0-0_
  6
CONTINUOUS
 62
    7
 10
1765.2995118786866
 20
656.64533320970394
 11
1762.6403118786865
 21
654.88613320970398
  0
LINE
  8
_0-0_
  6
CONTINUOUS
 62
    7
 10
1762.6403118786865
 20
654.88613320970398
 11
1760.2379118786866
 21
652.83493320970399
  0
LINE
  8
_0-0_
  6
CONTINUOUS
 62
    7
 10
1760.2379118786866
 20
652.83493320970399
 11
1758.1595118786867
 21
650.50213320970397
  0
LINE
  8
_0-0_
  6
CONTINUOUS
 62
    7
 10
1758.1595118786867
 20
650.50213320970397
 11
1756.7451118786866
 21
648.43493320970389
  0
LINE
  8
_0-0_
  6
CONTINUOUS
 62
    7
 10
1756.7451118786866
 20
648.43493320970389
 11
1755.4843118786866
 21
646.25573320970397
  0
LINE
  8
_0-0_
  6
CONTINUOUS
 62
    7
 10
1755.4843118786866
 20
646.25573320970397
 11
1754.2747118786867
 21
644.02773320970391
  0
LINE
  8
_0-0_
  6
CONTINUOUS
 62
    7
 10
1754.2747118786867
 20
644.02773320970391
 11
1752.9971118786866
 21
641.72453320970396
  0
LINE
  8
_0-0_
  6
CONTINUOUS
 62
    7
 10
1752.9971118786866
 20
641.72453320970396
 11
1751.7203118786867
 21
639.42293320970395
  0
LINE
  8
_0-0_
  6
CONTINUOUS
 62
    7
 10
1751.7203118786867
 20
639.42293320970395
 11
1750.4995118786866
 21
637.10773320970395
  0
LINE
  8
_0-0_
  6
CONTINUOUS
 62
    7
 10
1750.4995118786866
 20
637.10773320970395
 11
1749.3907118786867
 21
634.7637332097039
  0
LINE
  8
_0-0_
  6
CONTINUOUS
 62
    7
 10
1749.3907118786867
 20
634.7637332097039
 11
1748.4483118786865
 21
632.37493320970395
  0
LINE
  8
_0-0_
  6
CONTINUOUS
 62
    7
 10
1748.4483118786865
 20
632.37493320970395
 11
1747.6459118786867
 21
629.6645332097039
  0
LINE
  8
_0-0_
  6
CONTINUOUS
 62
    7
 10
1747.6459118786867
 20
629.6645332097039
 11
1747.0667118786866
 21
626.88293320970399
  0
LINE
  8
_0-0_
  6
CONTINUOUS
 62
    7
 10
1747.0667118786866
 20
626.88293320970399
 11
1746.6619118786866
 21
624.03253320970395
  0
LINE
  8
_0-0_
  6
CONTINUOUS
 62
    7
 10
1746.6619118786866
 20
624.03253320970395
 11
1746.3835118786867
 21
621.11493320970396
  0
LINE
  8
_0-0_
  6
CONTINUOUS
 62
    7
 10
1746.3835118786867
 20
621.11493320970396
 11
1746.1827118786868
 21
618.13253320970397
  0
LINE
  8
_0-0_
  6
CONTINUOUS
 62
    7
 10
1746.1827118786868
 20
618.13253320970397
 11
1746.0139118786867
 21
615.72373320970393
  0
LINE
  8
_0-0_
  6
CONTINUOUS
 62
    7
 10
1746.0139118786867
 20
615.72373320970393
 11
1745.6531118786867
 21
613.41253320970395
  0
LINE
  8
_0-0_
  6
CONTINUOUS
 62
    7
 10
1745.6531118786867
 20
613.41253320970395
 11
1744.8875118786868
 21
611.33413320970396
  0
LINE
  8
_0-0_
  6
CONTINUOUS
 62
    7
 10
1744.8875118786868
 20
611.33413320970396
 11
1743.5891118786867
 21
609.5925332097039
  0
LINE
  8
_0-0_
  6
CONTINUOUS
 62
    7
 10
1743.5891118786867
 20
609.5925332097039
 11
1741.8907118786867
 21
608.08053320970395
  0
LINE
  8
_0-0_
  6
CONTINUOUS
 62
    7
 10
1741.8907118786867
 20
608.08053320970395
 11
1740.0003118786867
 21
606.66293320970396
  0
LINE
  8
_0-0_
  6
CONTINUOUS
 62
    7
 10
1740.0003118786867
 20
606.66293320970396
 11
1738.1251118786867
 21
605.20293320970392
  0
LINE
  8
_0-0_
  6
CONTINUOUS
 62
    7
 10
1738.1251118786867
 20
605.20293320970392
 11
1736.4715118786866
 21
603.56613320970393
  0
LINE
  8
_0-0_
  6
CONTINUOUS
 62
    7
 10
1736.4715118786866
 20
603.56613320970393
 11
1735.3011118786866
 21
601.83013320970394
  0
LINE
  8
_0-0_
  6
CONTINUOUS
 62
    7
 10
1735.3011118786866
 20
601.83013320970394
 11
1734.4555118786865
 21
599.89573320970396
  0
LINE
  8
_0-0_
  6
CONTINUOUS
 62
    7
 10
1734.4555118786865
 20
599.89573320970396
 11
1733.9043118786867
 21
597.82613320970392
  0
LINE
  8
_0-0_
  6
CONTINUOUS
 62
    7
 10
1733.9043118786867
 20
597.82613320970392
 11
1733.6163118786867
 21
595.68373320970397
  0
LINE
  8
_0-0_
  6
CONTINUOUS
 62
    7
 10
1733.6163118786867
 20
595.68373320970397
 11
1733.5579118786868
 21
593.5309332097039
  0
LINE
  8
_0-0_
  6
CONTINUOUS
 62
    7
 10
1733.5579118786868
 20
593.5309332097039
 11
1733.7011118786867
 21
591.37973320970388
  0
LINE
  8
_0-0_
  6
CONTINUOUS
 62
    7
 10
1733.7011118786867
 20
591.37973320970388
 11
1733.9987118786866
 21
589.26853320970394
  0
LINE
  8
_0-0_
  6
CONTINUOUS
 62
    7
 10
1733.9987118786866
 20
589.26853320970394
 11
1734.4003118786868
 21
587.18453320970388
  0
LINE
  8
_0-0_
  6
CONTINUOUS
 62
    7
 10
1734.4003118786868
 20
587.18453320970388
 11
1734.8531118786868
 21
585.11493320970396
  0
LINE
  8
_0-0_
  6
CONTINUOUS
 62
    7
 10
1775.9331118786867
 20
648.92373320970398
 11
1775.9331118786867
 21
660.48533320970398
  0
LINE
  8
_0-0_
  6
CONTINUOUS
 62
    7
 10
1770.6619118786866
 20
654.86053320970393
 11
1781.5059118786866
 21
654.86053320970393
  0
LINE
  8
_0-0_
  6
CONTINUOUS
 62
    7
 10
1775.9331118786867
 20
619.9933332097039
 11
1775.9331118786867
 21
610.12053320970392
  0
LINE
  8
_0-0_
  6
CONTINUOUS
 62
    7
 10
1770.6619118786866
 20
614.86053320970393
 11
1781.3443118786867
 21
614.86053320970393
  0
LINE
  8
_0-0_
  6
CONTINUOUS
 62
    7
 10
1185.9331118786867
 20
839.68373320970408
 11
1185.9331118786867
 21
586.55173320970391
  0
LINE
  8
_0-0_
  6
CONTINUOUS
 62
    7
 10
2687.8283118786866
 20
1066.387733209704
 11
2683.8283118786866
 21
1066.387733209704
  0
LINE
  8
_0-0_
  6
CONTINUOUS
 62
    7
 10
2682.8283118786866
 20
1067.387733209704
 11
2682.8283118786866
 21
1069.387733209704
  0
LINE
  8
_0-0_
  6
CONTINUOUS
 62
    7
 10
2688.8283118786866
 20
1067.387733209704
 11
2688.8283118786866
 21
1069.387733209704
  0
LINE
  8
_0-0_
  6
CONTINUOUS
 62
    7
 10
2685.8283118786866
 20
1059.5357332097039
 11
2685.8283118786866
 21
1071.757333209704
  0
LINE
  8
_0-0_
  6
CONTINUOUS
 62
    7
 10
2797.8283118786866
 20
1066.387733209704
 11
2793.8283118786866
 21
1066.387733209704
  0
LINE
  8
_0-0_
  6
CONTINUOUS
 62
    7
 10
2792.8283118786866
 20
1067.387733209704
 11
2792.8283118786866
 21
1069.387733209704
  0
LINE
  8
_0-0_
  6
CONTINUOUS
 62
    7
 10
2798.8283118786866
 20
1067.387733209704
 11
2798.8283118786866
 21
1069.387733209704
  0
LINE
  8
_0-0_
  6
CONTINUOUS
 62
    7
 10
2795.8283118786866
 20
1061.8213332097038
 11
2795.8283118786866
 21
1073.394133209704
  0
LINE
  8
_0-0_
  6
CONTINUOUS
 62
    7
 10
2264.1355118786868
 20
1942.942133209704
 11
2267.6595118786867
 21
1946.4661332097039
  0
LINE
  8
_0-0_
  6
CONTINUOUS
 62
    7
 10
2257.0643118786865
 20
1942.942133209704
 11
2267.6595118786867
 21
1953.5373332097037
  0
LINE
  8
_0-0_
  6
CONTINUOUS
 62
    7
 10
2249.9931118786867
 20
1942.942133209704
 11
2267.6595118786867
 21
1960.608533209704
  0
LINE
  8
_0-0_
  6
CONTINUOUS
 62
    7
 10
2242.9219118786868
 20
1942.942133209704
 11
2267.6595118786867
 21
1967.6797332097039
  0
LINE
  8
_0-0_
  6
CONTINUOUS
 62
    7
 10
2236.4803118786867
 20
1943.5717332097037
 11
2265.5619118786867
 21
1972.6533332097039
  0
LINE
  8
_0-0_
  6
CONTINUOUS
 62
    7
 10
2233.9091118786868
 20
1948.0717332097037
 11
2261.0787118786865
 21
1975.2413332097039
  0
LINE
  8
_0-0_
  6
CONTINUOUS
 62
    7
 10
2233.9091118786868
 20
1955.142933209704
 11
2241.7091118786865
 21
1962.942133209704
  0
LINE
  8
_0-0_
  6
CONTINUOUS
 62
    7
 10
2250.1595118786867
 20
1971.3925332097039
 11
2260.1595118786867
 21
1981.3925332097039
  0
LINE
  8
_0-0_
  6
CONTINUOUS
 62
    7
 10
2250.1595118786867
 20
1978.463733209704
 11
2260.1595118786867
 21
1988.463733209704
  0
LINE
  8
_0-0_
  6
CONTINUOUS
 62
    7
 10
2250.1595118786867
 20
1985.5349332097039
 11
2260.1595118786867
 21
1995.5349332097039
  0
LINE
  8
_0-0_
  6
CONTINUOUS
 62
    7
 10
2250.1595118786867
 20
1992.6061332097037
 11
2260.1595118786867
 21
2002.6061332097037
  0
LINE
  8
_0-0_
  6
CONTINUOUS
 62
    7
 10
2250.1595118786867
 20
1999.6773332097041
 11
2260.1595118786867
 21
2009.6773332097041
  0
LINE
  8
_0-0_
  6
CONTINUOUS
 62
    7
 10
2250.1595118786867
 20
2006.7477332097039
 11
2260.1595118786867
 21
2016.7477332097039
  0
LINE
  8
_0-0_
  6
CONTINUOUS
 62
    7
 10
2250.1595118786867
 20
2013.818933209704
 11
2260.1595118786867
 21
2023.818933209704
  0
LINE
  8
_0-0_
  6
CONTINUOUS
 62
    7
 10
2250.1595118786867
 20
2020.8901332097038
 11
2260.1595118786867
 21
2030.8901332097038
  0
LINE
  8
_0-0_
  6
CONTINUOUS
 62
    7
 10
2250.1595118786867
 20
2027.9613332097039
 11
2255.1403118786865
 21
2032.942133209704
  0
LINE
  8
_0-0_
  6
CONTINUOUS
 62
    7
 10
2327.7747118786865
 20
1942.942133209704
 11
2333.9091118786864
 21
1949.0765332097039
  0
LINE
  8
_0-0_
  6
CONTINUOUS
 62
    7
 10
2320.7035118786866
 20
1942.942133209704
 11
2333.9091118786864
 21
1956.1477332097038
  0
LINE
  8
_0-0_
  6
CONTINUOUS
 62
    7
 10
2313.6331118786865
 20
1942.942133209704
 11
2333.9091118786864
 21
1963.2189332097038
  0
LINE
  8
_0-0_
  6
CONTINUOUS
 62
    7
 10
2306.5619118786867
 20
1942.942133209704
 11
2333.9091118786864
 21
1970.2901332097039
  0
LINE
  8
_0-0_
  6
CONTINUOUS
 62
    7
 10
2300.1595118786867
 20
1943.6109332097039
 11
2333.9091118786864
 21
1977.3613332097038
  0
LINE
  8
_0-0_
  6
CONTINUOUS
 62
    7
 10
2300.1595118786867
 20
1950.6821332097038
 11
2333.9091118786864
 21
1984.4317332097039
  0
LINE
  8
_0-0_
  6
CONTINUOUS
 62
    7
 10
2300.1595118786867
 20
1957.7533332097038
 11
2333.9091118786864
 21
1991.5029332097039
  0
LINE
  8
_0-0_
  6
CONTINUOUS
 62
    7
 10
2300.1595118786867
 20
1964.8245332097039
 11
2333.9091118786864
 21
1998.574133209704
  0
LINE
  8
_0-0_
  6
CONTINUOUS
 62
    7
 10
2307.6595118786867
 20
1979.394933209704
 11
2333.9091118786864
 21
2005.6453332097039
  0
LINE
  8
_0-0_
  6
CONTINUOUS
 62
    7
 10
2307.6595118786867
 20
1986.4661332097039
 11
2333.9091118786864
 21
2012.7165332097038
  0
LINE
  8
_0-0_
  6
CONTINUOUS
 62
    7
 10
2307.6595118786867
 20
1993.5373332097037
 11
2333.9091118786864
 21
2019.7877332097039
  0
LINE
  8
_0-0_
  6
CONTINUOUS
 62
    7
 10
2307.6595118786867
 20
2000.608533209704
 11
2333.9091118786864
 21
2026.8581332097039
  0
LINE
  8
_0-0_
  6
CONTINUOUS
 62
    7
 10
2307.6595118786867
 20
2007.6797332097039
 11
2331.9163118786864
 21
2031.936533209704
  0
LINE
  8
_0-0_
  6
CONTINUOUS
 62
    7
 10
2307.6595118786867
 20
2014.7509332097038
 11
2325.8507118786865
 21
2032.942133209704
  0
LINE
  8
_0-0_
  6
CONTINUOUS
 62
    7
 10
2307.6595118786867
 20
2021.8213332097038
 11
2318.7803118786869
 21
2032.942133209704
  0
LINE
  8
_0-0_
  6
CONTINUOUS
 62
    7
 10
2307.6595118786867
 20
2028.8925332097039
 11
2311.7091118786865
 21
2032.942133209704
  0
LINE
  8
_0-0_
  6
CONTINUOUS
 62
    7
 10
2681.7619118786869
 20
1943.3757332097038
 11
2687.084311878687
 21
1948.6981332097038
  0
LINE
  8
_0-0_
  6
CONTINUOUS
 62
    7
 10
2674.6907118786866
 20
1943.3757332097038
 11
2687.084311878687
 21
1955.7693332097039
  0
LINE
  8
_0-0_
  6
CONTINUOUS
 62
    7
 10
2642.6195118786863
 20
1918.3757332097038
 11
2652.084311878687
 21
1927.840533209704
  0
LINE
  8
_0-0_
  6
CONTINUOUS
 62
    7
 10
2667.6195118786863
 20
1943.3757332097038
 11
2687.084311878687
 21
1962.840533209704
  0
LINE
  8
_0-0_
  6
CONTINUOUS
 62
    7
 10
2635.5483118786869
 20
1918.3757332097038
 11
2652.084311878687
 21
1934.9117332097039
  0
LINE
  8
_0-0_
  6
CONTINUOUS
 62
    7
 10
2660.5483118786869
 20
1943.3757332097038
 11
2687.084311878687
 21
1969.9117332097039
  0
LINE
  8
_0-0_
  6
CONTINUOUS
 62
    7
 10
2628.4771118786866
 20
1918.3757332097038
 11
2652.0883118786869
 21
1941.9869332097039
  0
LINE
  8
_0-0_
  6
CONTINUOUS
 62
    7
 10
2653.4731118786867
 20
1943.3717332097039
 11
2687.084311878687
 21
1976.9821332097039
  0
LINE
  8
_0-0_
  6
CONTINUOUS
 62
    7
 10
2623.2259118786869
 20
1920.194933209704
 11
2666.4059118786867
 21
1963.3757332097038
  0
LINE
  8
_0-0_
  6
CONTINUOUS
 62
    7
 10
2672.084311878687
 20
1969.0533332097038
 11
2687.084311878687
 21
1984.0533332097038
  0
LINE
  8
_0-0_
  6
CONTINUOUS
 62
    7
 10
2622.084311878687
 20
1926.1245332097039
 11
2659.3355118786867
 21
1963.3757332097038
  0
LINE
  8
_0-0_
  6
CONTINUOUS
 62
    7
 10
2672.084311878687
 20
1976.1245332097039
 11
2687.084311878687
 21
1991.1245332097039
  0
LINE
  8
_0-0_
  6
CONTINUOUS
 62
    7
 10
2622.084311878687
 20
1933.195733209704
 11
2652.2643118786863
 21
1963.3757332097038
  0
LINE
  8
_0-0_
  6
CONTINUOUS
 62
    7
 10
2672.084311878687
 20
1983.195733209704
 11
2687.084311878687
 21
1998.195733209704
  0
LINE
  8
_0-0_
  6
CONTINUOUS
 62
    7
 10
2622.084311878687
 20
1940.2669332097038
 11
2645.1931118786869
 21
1963.3757332097038
  0
LINE
  8
_0-0_
  6
CONTINUOUS
 62
    7
 10
2672.084311878687
 20
1990.2669332097038
 11
2687.084311878687
 21
2005.2669332097038
  0
LINE
  8
_0-0_
  6
CONTINUOUS
 62
    7
 10
2618.1219118786866
 20
1943.3757332097038
 11
2638.1219118786866
 21
1963.3757332097038
  0
LINE
  8
_0-0_
  6
CONTINUOUS
 62
    7
 10
2672.084311878687
 20
1997.3381332097039
 11
2687.084311878687
 21
2012.3381332097039
  0
LINE
  8
_0-0_
  6
CONTINUOUS
 62
    7
 10
2611.0507118786863
 20
1943.3757332097038
 11
2631.0507118786863
 21
1963.3757332097038
  0
LINE
  8
_0-0_
  6
CONTINUOUS
 62
    7
 10
2672.084311878687
 20
2004.4085332097038
 11
2687.084311878687
 21
2019.4085332097038
  0
LINE
  8
_0-0_
  6
CONTINUOUS
 62
    7
 10
2603.9795118786869
 20
1943.3757332097038
 11
2623.9795118786869
 21
1963.3757332097038
  0
LINE
  8
_0-0_
  6
CONTINUOUS
 62
    7
 10
2672.084311878687
 20
2011.4797332097039
 11
2687.084311878687
 21
2026.4797332097039
  0
LINE
  8
_0-0_
  6
CONTINUOUS
 62
    7
 10
2596.9091118786864
 20
1943.3757332097038
 11
2616.9091118786864
 21
1963.3757332097038
  0
LINE
  8
_0-0_
  6
CONTINUOUS
 62
    7
 10
2672.084311878687
 20
2018.5509332097039
 11
2685.5307118786868
 21
2031.9973332097038
  0
LINE
  8
_0-0_
  6
CONTINUOUS
 62
    7
 10
2590.2043118786868
 20
1943.7421332097039
 11
2609.837911878687
 21
1963.3757332097038
  0
LINE
  8
_0-0_
  6
CONTINUOUS
 62
    7
 10
2672.084311878687
 20
2025.6221332097038
 11
2679.837911878687
 21
2033.3757332097038
  0
LINE
  8
_0-0_
  6
CONTINUOUS
 62
    7
 10
2587.1259118786865
 20
1947.7341332097039
 11
2602.7667118786866
 21
1963.3757332097038
  0
LINE
  8
_0-0_
  6
CONTINUOUS
 62
    7
 10
2672.084311878687
 20
2032.6933332097039
 11
2672.7667118786866
 21
2033.3757332097038
  0
LINE
  8
_0-0_
  6
CONTINUOUS
 62
    7
 10
2587.084311878687
 20
1954.764533209704
 11
2595.6955118786863
 21
1963.3757332097038
  0
LINE
  8
_0-0_
  6
CONTINUOUS
 62
    7
 10
1779.4331118786867
 20
669.36053320970393
 11
1779.4331118786867
 21
680.36053320970404
  0
LINE
  8
_0-0_
  6
CONTINUOUS
 62
    7
 10
1772.4331118786867
 20
669.36053320970393
 11
1772.4331118786867
 21
680.36053320970404
  0
LINE
  8
_0-0_
  6
CONTINUOUS
 62
    7
 10
1765.9331118786867
 20
694.86053320970404
 11
1193.4331118786867
 21
694.86053320970404
  0
LINE
  8
_0-0_
  6
CONTINUOUS
 62
    7
 10
1765.9331118786867
 20
734.86053320970404
 11
1193.4331118786867
 21
734.86053320970404
  0
LINE
  8
_0-0_
  6
CONTINUOUS
 62
    7
 10
1765.9331118786867
 20
774.86053320970404
 11
1193.4331118786867
 21
774.86053320970404
  0
LINE
  8
_0-0_
  6
CONTINUOUS
 62
    7
 10
1765.9331118786867
 20
814.86053320970404
 11
1193.4331118786867
 21
814.86053320970404
  0
LINE
  8
_0-0_
  6
CONTINUOUS
 62
    7
 10
1765.9331118786867
 20
654.86053320970393
 11
1193.4331118786867
 21
654.86053320970393
  0
LINE
  8
_0-0_
  6
CONTINUOUS
 62
    7
 10
1765.9331118786867
 20
614.86053320970393
 11
1193.4331118786867
 21
614.86053320970393
  0
LINE
  8
_0-0_
  6
CONTINUOUS
 62
    7
 10
1765.9331118786867
 20
819.86053320970404
 11
1193.4331118786867
 21
819.86053320970404
  0
LINE
  8
_0-0_
  6
CONTINUOUS
 62
    7
 10
1765.9331118786867
 20
809.86053320970404
 11
1193.4331118786867
 21
809.86053320970404
  0
LINE
  8
_0-0_
  6
CONTINUOUS
 62
    7
 10
1765.9331118786867
 20
779.86053320970404
 11
1193.4331118786867
 21
779.86053320970404
  0
LINE
  8
_0-0_
  6
CONTINUOUS
 62
    7
 10
1765.9331118786867
 20
769.86053320970404
 11
1193.4331118786867
 21
769.86053320970404
  0
LINE
  8
_0-0_
  6
CONTINUOUS
 62
    7
 10
1765.9331118786867
 20
739.86053320970404
 11
1193.4331118786867
 21
739.86053320970404
  0
LINE
  8
_0-0_
  6
CONTINUOUS
 62
    7
 10
1765.9331118786867
 20
729.86053320970404
 11
1193.4331118786867
 21
729.86053320970404
  0
LINE
  8
_0-0_
  6
CONTINUOUS
 62
    7
 10
1765.9331118786867
 20
699.86053320970404
 11
1193.4331118786867
 21
699.86053320970404
  0
LINE
  8
_0-0_
  6
CONTINUOUS
 62
    7
 10
1765.9331118786867
 20
689.86053320970404
 11
1193.4331118786867
 21
689.86053320970404
  0
LINE
  8
_0-0_
  6
CONTINUOUS
 62
    7
 10
1765.9331118786867
 20
659.86053320970393
 11
1193.4331118786867
 21
659.86053320970393
  0
LINE
  8
_0-0_
  6
CONTINUOUS
 62
    7
 10
1765.9331118786867
 20
649.86053320970393
 11
1193.4331118786867
 21
649.86053320970393
  0
LINE
  8
_0-0_
  6
CONTINUOUS
 62
    7
 10
1765.9331118786867
 20
619.86053320970393
 11
1193.4331118786867
 21
619.86053320970393
  0
LINE
  8
_0-0_
  6
CONTINUOUS
 62
    7
 10
1765.9331118786867
 20
609.86053320970393
 11
1193.4331118786867
 21
609.86053320970393
  0
LINE
  8
_0-0_
  6
CONTINUOUS
 62
    7
 10
605.93311187868675
 20
814.86053320970404
 11
1178.4331118786867
 21
814.86053320970404
  0
LINE
  8
_0-0_
  6
CONTINUOUS
 62
    7
 10
605.93311187868675
 20
774.86053320970404
 11
1178.4331118786867
 21
774.86053320970404
  0
LINE
  8
_0-0_
  6
CONTINUOUS
 62
    7
 10
605.93311187868675
 20
734.86053320970404
 11
1178.4331118786867
 21
734.86053320970404
  0
LINE
  8
_0-0_
  6
CONTINUOUS
 62
    7
 10
605.93311187868675
 20
694.86053320970404
 11
1178.4331118786867
 21
694.86053320970404
  0
LINE
  8
_0-0_
  6
CONTINUOUS
 62
    7
 10
605.93311187868675
 20
654.86053320970393
 11
1178.4331118786867
 21
654.86053320970393
  0
LINE
  8
_0-0_
  6
CONTINUOUS
 62
    7
 10
605.93311187868675
 20
614.86053320970393
 11
1178.4331118786867
 21
614.86053320970393
  0
LINE
  8
_0-0_
  6
CONTINUOUS
 62
    7
 10
605.93311187868675
 20
819.86053320970404
 11
1178.4331118786867
 21
819.86053320970404
  0
LINE
  8
_0-0_
  6
CONTINUOUS
 62
    7
 10
605.93311187868675
 20
809.86053320970404
 11
1178.4331118786867
 21
809.86053320970404
  0
LINE
  8
_0-0_
  6
CONTINUOUS
 62
    7
 10
605.93311187868675
 20
779.86053320970404
 11
1178.4331118786867
 21
779.86053320970404
  0
LINE
  8
_0-0_
  6
CONTINUOUS
 62
    7
 10
605.93311187868675
 20
769.86053320970404
 11
1178.4331118786867
 21
769.86053320970404
  0
LINE
  8
_0-0_
  6
CONTINUOUS
 62
    7
 10
605.93311187868675
 20
739.86053320970404
 11
1178.4331118786867
 21
739.86053320970404
  0
LINE
  8
_0-0_
  6
CONTINUOUS
 62
    7
 10
605.93311187868675
 20
729.86053320970404
 11
1178.4331118786867
 21
729.86053320970404
  0
LINE
  8
_0-0_
  6
CONTINUOUS
 62
    7
 10
605.93311187868675
 20
699.86053320970404
 11
1178.4331118786867
 21
699.86053320970404
  0
LINE
  8
_0-0_
  6
CONTINUOUS
 62
    7
 10
605.93311187868675
 20
689.86053320970404
 11
1178.4331118786867
 21
689.86053320970404
  0
LINE
  8
_0-0_
  6
CONTINUOUS
 62
    7
 10
605.93311187868675
 20
659.86053320970393
 11
1178.4331118786867
 21
659.86053320970393
  0
LINE
  8
_0-0_
  6
CONTINUOUS
 62
    7
 10
605.93311187868675
 20
649.86053320970393
 11
1178.4331118786867
 21
649.86053320970393
  0
LINE
  8
_0-0_
  6
CONTINUOUS
 62
    7
 10
605.93311187868675
 20
619.86053320970393
 11
1178.4331118786867
 21
619.86053320970393
  0
LINE
  8
_0-0_
  6
CONTINUOUS
 62
    7
 10
605.93311187868675
 20
609.86053320970393
 11
1178.4331118786867
 21
609.86053320970393
  0
LINE
  8
_0-0_
  6
CONTINUOUS
 62
    7
 10
599.43311187868675
 20
669.36053320970393
 11
599.43311187868675
 21
680.36053320970404
  0
LINE
  8
_0-0_
  6
CONTINUOUS
 62
    7
 10
592.43311187868675
 20
669.36053320970393
 11
592.43311187868675
 21
680.36053320970404
  0
LINE
  8
_0-0_
  6
CONTINUOUS
 62
    7
 10
2375.565911878687
 20
1121.887733209704
 11
2388.3795118786865
 21
1121.887733209704
  0
LINE
  8
_0-0_
  6
CONTINUOUS
 62
    7
 10
1728.4819118786867
 20
1604.574133209704
 11
1728.4819118786867
 21
1051.140533209704
  0
LINE
  8
_0-0_
  6
CONTINUOUS
 62
    7
 10
2422.1515118786865
 20
1352.523733209704
 11
2422.1515118786865
 21
1287.1637332097038
  0
LINE
  8
_0-0_
  6
CONTINUOUS
 62
    7
 10
2414.2139118786867
 20
1352.523733209704
 11
2414.2139118786867
 21
1287.1637332097038
  0
LINE
  8
_0-0_
  6
CONTINUOUS
 62
    7
 10
2427.5563118786867
 20
938.23893320970398
 11
2427.5563118786867
 21
963.23893320970398
  0
LINE
  8
_0-0_
  6
CONTINUOUS
 62
    7
 10
2427.5563118786867
 20
963.23893320970398
 11
2405.9051118786865
 21
950.73893320970398
  0
LINE
  8
_0-0_
  6
CONTINUOUS
 62
    7
 10
2405.9051118786865
 20
950.73893320970398
 11
2427.5563118786867
 21
938.23893320970398
  0
LINE
  8
_0-0_
  6
CONTINUOUS
 62
    7
 10
2427.8939118786865
 20
1254.736533209704
 11
2427.8939118786865
 21
1279.736533209704
  0
LINE
  8
_0-0_
  6
CONTINUOUS
 62
    7
 10
2427.8939118786865
 20
1279.736533209704
 11
2406.2427118786863
 21
1267.236533209704
  0
LINE
  8
_0-0_
  6
CONTINUOUS
 62
    7
 10
2406.2427118786863
 20
1267.236533209704
 11
2427.8939118786865
 21
1254.736533209704
  0
LINE
  8
_0-0_
  6
CONTINUOUS
 62
    7
 10
1785.2203118786867
 20
623.08373320970395
 11
1777.8707118786867
 21
615.79333320970397
  0
LINE
  8
_0-0_
  6
CONTINUOUS
 62
    7
 10
1777.8707118786867
 20
615.79333320970397
 11
1787.8811118786866
 21
618.4317332097039
  0
LINE
  8
_0-0_
  6
CONTINUOUS
 62
    7
 10
1777.8707118786867
 20
615.79333320970397
 11
1802.7411118786867
 21
630.0173332097039
  0
LINE
  8
_0-0_
  6
CONTINUOUS
 62
    7
 10
2629.7243118786864
 20
1327.723733209704
 11
2628.0251118786864
 21
1317.511733209704
  0
LINE
  8
_0-0_
  6
CONTINUOUS
 62
    7
 10
2628.0251118786864
 20
1317.511733209704
 11
2634.6027118786869
 21
1325.5061332097038
  0
LINE
  8
_0-0_
  6
CONTINUOUS
 62
    7
 10
2628.0251118786864
 20
1317.511733209704
 11
2637.9107118786869
 21
1339.257333209704
  0
LINE
  8
_0-0_
  6
CONTINUOUS
 62
    7
 10
1793.2147118786867
 20
1114.546133209704
 11
1785.9331118786867
 21
1107.1869332097039
  0
LINE
  8
_0-0_
  6
CONTINUOUS
 62
    7
 10
1785.9331118786867
 20
1107.1869332097039
 11
1795.9187118786867
 21
1109.9197332097039
  0
LINE
  8
_0-0_
  6
CONTINUOUS
 62
    7
 10
1785.9331118786867
 20
1107.1869332097039
 11
1839.0491118786867
 21
1138.230933209704
  0
LINE
  8
_0-0_
  6
CONTINUOUS
 62
    7
 10
1365.9451118786867
 20
1861.1157332097041
 11
1358.3475118786866
 21
1868.148533209704
  0
LINE
  8
_0-0_
  6
CONTINUOUS
 62
    7
 10
1358.3475118786866
 20
1868.148533209704
 11
1361.4107118786866
 21
1858.2597332097038
  0
LINE
  8
_0-0_
  6
CONTINUOUS
 62
    7
 10
1358.3475118786866
 20
1868.148533209704
 11
1385.0979118786867
 21
1825.6853332097039
  0
LINE
  8
_0-0_
  6
CONTINUOUS
 62
    7
 10
2301.2635118786865
 20
2002.3101332097039
 11
2296.3379118786865
 21
1993.2037332097038
  0
LINE
  8
_0-0_
  6
CONTINUOUS
 62
    7
 10
2296.3379118786865
 20
1993.2037332097038
 11
2305.1563118786866
 21
1998.6277332097038
  0
LINE
  8
_0-0_
  6
CONTINUOUS
 62
    7
 10
2296.3379118786865
 20
1993.2037332097038
 11
2377.9171118786866
 21
2079.4549332097039
  0
LINE
  8
_0-0_
  6
CONTINUOUS
 62
    7
 10
2286.1099118786869
 20
1332.3629332097038
 11
2283.3379118786865
 21
1322.387733209704
  0
LINE
  8
_0-0_
  6
CONTINUOUS
 62
    7
 10
2283.3379118786865
 20
1322.387733209704
 11
2290.7259118786869
 21
1329.640533209704
  0
LINE
  8
_0-0_
  6
CONTINUOUS
 62
    7
 10
2283.3379118786865
 20
1322.387733209704
 11
2300.4195118786865
 21
1351.352533209704
  0
LINE
  8
_0-0_
  6
CONTINUOUS
 62
    7
 10
2206.9235118786864
 20
1099.3549332097038
 11
2204.1235118786867
 21
1089.387733209704
  0
LINE
  8
_0-0_
  6
CONTINUOUS
 62
    7
 10
2204.1235118786867
 20
1089.387733209704
 11
2211.5315118786866
 21
1096.619733209704
  0
LINE
  8
_0-0_
  6
CONTINUOUS
 62
    7
 10
2204.1235118786867
 20
1089.387733209704
 11
2214.4971118786866
 21
1106.866133209704
  0
LINE
  8
_0-0_
  6
CONTINUOUS
 62
    7
 10
2749.4235118786864
 20
1094.661333209704
 11
2748.1083118786864
 21
1084.3925332097039
  0
LINE
  8
_0-0_
  6
CONTINUOUS
 62
    7
 10
2748.1083118786864
 20
1084.3925332097039
 11
2754.3819118786868
 21
1092.627733209704
  0
LINE
  8
_0-0_
  6
CONTINUOUS
 62
    7
 10
2748.1083118786864
 20
1084.3925332097039
 11
2764.7403118786869
 21
1124.9477332097039
  0
LINE
  8
_0-0_
  6
CONTINUOUS
 62
    7
 10
1196.9107118786866
 20
599.83253320970391
 11
1189.4027118786866
 21
606.96053320970395
  0
LINE
  8
_0-0_
  6
CONTINUOUS
 62
    7
 10
1189.4027118786866
 20
606.96053320970395
 11
1192.3411118786866
 21
597.03333320970398
  0
LINE
  8
_0-0_
  6
CONTINUOUS
 62
    7
 10
1189.4027118786866
 20
606.96053320970395
 11
1234.2963118786867
 21
533.67173320970391
  0
LINE
  8
_0-0_
  6
CONTINUOUS
 62
    7
 10
1234.2963118786867
 20
533.67173320970391
 11
1594.2963118786867
 21
533.67173320970391
  0
ARC
  8
_0-0_
  6
CONTINUOUS
 62
    7
 10
2375.565911878687
 20
1563.387733209704
 40
4
 50
0
 51
90.000000000000028
  0
ARC
  8
_0-0_
  6
CONTINUOUS
 62
    7
 10
2153.0659118786866
 20
1563.387733209704
 40
4
 50
90.000000000000028
 51
180.00000000000005
  0
ARC
  8
_0-0_
  6
CONTINUOUS
 62
    7
 10
2193.3155118786867
 20
1075.387733209704
 40
4
 50
180.00000000000005
 51
270.00000000000005
  0
ARC
  8
_0-0_
  6
CONTINUOUS
 62
    7
 10
2375.565911878687
 20
1075.387733209704
 40
6
 50
270.00000000000005
 51
0.0000000000000508
  0
ARC
  8
_0-0_
  6
CONTINUOUS
 62
    7
 10
2375.565911878687
 20
1563.387733209704
 40
6
 50
0
 51
90.000000000000028
  0
ARC
  8
_0-0_
  6
CONTINUOUS
 62
    7
 10
2153.0659118786866
 20
1563.387733209704
 40
6
 50
90.000000000000028
 51
180.00000000000005
  0
ARC
  8
_0-0_
  6
CONTINUOUS
 62
    7
 10
2249.3155118786867
 20
1569.387733209704
 40
4
 50
221.81000000000005
 51
270.00000000000005
  0
ARC
  8
_0-0_
  6
CONTINUOUS
 62
    7
 10
2249.3155118786867
 20
1569.387733209704
 40
2
 50
210.00000000000005
 51
270.00000000000005
  0
ARC
  8
_0-0_
  6
CONTINUOUS
 62
    7
 10
2244.8435118786865
 20
1565.387733209704
 40
2
 50
41.810000000000016
 51
90.000000000000028
  0
ARC
  8
_0-0_
  6
CONTINUOUS
 62
    7
 10
2245.8515118786867
 20
1567.387733209704
 40
2
 50
30.000000000000003
 51
90.000000000000028
  0
ARC
  8
_0-0_
  6
CONTINUOUS
 62
    7
 10
2190.3155118786867
 20
1088.387733209704
 40
1
 50
90.000000000000028
 51
180.00000000000005
  0
ARC
  8
_0-0_
  6
CONTINUOUS
 62
    7
 10
2378.3155118786867
 20
1088.387733209704
 40
1
 50
0
 51
90.000000000000028
  0
ARC
  8
_0-0_
  6
CONTINUOUS
 62
    7
 10
2375.3155118786867
 20
1075.387733209704
 40
4
 50
270.00000000000005
 51
0.0000000000000508
  0
ARC
  8
_0-0_
  6
CONTINUOUS
 62
    7
 10
1179.4331118786867
 20
1073.387733209704
 40
1
 50
180.00000000000005
 51
270.00000000000005
  0
ARC
  8
_0-0_
  6
CONTINUOUS
 62
    7
 10
1192.4331118786867
 20
1073.387733209704
 40
1
 50
270.00000000000005
 51
0.0000000000000508
  0
ARC
  8
_0-0_
  6
CONTINUOUS
 62
    7
 10
1179.4331118786867
 20
1083.8237332097039
 40
1
 50
90.000000000000028
 51
180.00000000000005
  0
ARC
  8
_0-0_
  6
CONTINUOUS
 62
    7
 10
1192.4331118786867
 20
1083.8237332097039
 40
1
 50
0
 51
90.000000000000028
  0
ARC
  8
_0-0_
  6
CONTINUOUS
 62
    7
 10
1192.4331118786867
 20
821.7605332097039
 40
1
 50
0
 51
90.000000000000028
  0
ARC
  8
_0-0_
  6
CONTINUOUS
 62
    7
 10
1192.4331118786867
 20
607.96053320970395
 40
1
 50
270.00000000000005
 51
0.0000000000000508
  0
ARC
  8
_0-0_
  6
CONTINUOUS
 62
    7
 10
1179.4331118786867
 20
821.7605332097039
 40
1
 50
90.000000000000028
 51
180.00000000000005
  0
ARC
  8
_0-0_
  6
CONTINUOUS
 62
    7
 10
1179.4331118786867
 20
607.96053320970395
 40
1
 50
180.00000000000005
 51
270.00000000000005
  0
ARC
  8
_0-0_
  6
CONTINUOUS
 62
    7
 10
2832.0787118786865
 20
1075.387733209704
 40
4
 50
270.00000000000005
 51
0.0000000000000508
  0
ARC
  8
_0-0_
  6
CONTINUOUS
 62
    7
 10
2832.0787118786865
 20
1563.387733209704
 40
4
 50
0
 51
90.000000000000028
  0
ARC
  8
_0-0_
  6
CONTINUOUS
 62
    7
 10
2609.5787118786865
 20
1563.387733209704
 40
4
 50
90.000000000000028
 51
180.00000000000005
  0
ARC
  8
_0-0_
  6
CONTINUOUS
 62
    7
 10
2832.0787118786865
 20
1075.387733209704
 40
6
 50
270.00000000000005
 51
0.0000000000000508
  0
ARC
  8
_0-0_
  6
CONTINUOUS
 62
    7
 10
2832.0787118786865
 20
1563.387733209704
 40
6
 50
0
 51
90.000000000000028
  0
ARC
  8
_0-0_
  6
CONTINUOUS
 62
    7
 10
2609.5787118786865
 20
1563.387733209704
 40
6
 50
90.000000000000028
 51
180.00000000000005
  0
ARC
  8
_0-0_
  6
CONTINUOUS
 62
    7
 10
2705.8283118786866
 20
1569.387733209704
 40
4
 50
221.81000000000005
 51
270.00000000000005
  0
ARC
  8
_0-0_
  6
CONTINUOUS
 62
    7
 10
2705.8283118786866
 20
1569.387733209704
 40
2
 50
210.00000000000005
 51
270.00000000000005
  0
ARC
  8
_0-0_
  6
CONTINUOUS
 62
    7
 10
2701.3563118786869
 20
1565.387733209704
 40
2
 50
41.810000000000016
 51
90.000000000000028
  0
ARC
  8
_0-0_
  6
CONTINUOUS
 62
    7
 10
2702.3643118786867
 20
1567.387733209704
 40
2
 50
30.000000000000003
 51
90.000000000000028
  0
CIRCLE
  8
_0-0_
  6
CONTINUOUS
 62
    7
 10
2620.8283118786866
 20
1314.387733209704
 40
5
  0
CIRCLE
  8
_0-0_
  6
CONTINUOUS
 62
    7
 10
2620.8283118786866
 20
1314.387733209704
 40
4.5999999999999996
  0
ARC
  8
_0-0_
  6
CONTINUOUS
 62
    7
 10
2626.8787118786867
 20
1316.6237332097039
 40
1.4495999999999999
 50
20.284000000000002
 51
200.28400000000004
  0
ARC
  8
_0-0_
  6
CONTINUOUS
 62
    7
 10
2614.7787118786864
 20
1316.6237332097039
 40
1.4495999999999999
 50
339.71600000000017
 51
159.7160000000002
  0
CIRCLE
  8
_0-0_
  6
CONTINUOUS
 62
    7
 10
2660.8283118786866
 20
1314.387733209704
 40
5
  0
CIRCLE
  8
_0-0_
  6
CONTINUOUS
 62
    7
 10
2660.8283118786866
 20
1314.387733209704
 40
4.5999999999999996
  0
ARC
  8
_0-0_
  6
CONTINUOUS
 62
    7
 10
2666.8787118786867
 20
1316.6237332097039
 40
1.4495999999999999
 50
20.284000000000002
 51
200.28400000000004
  0
ARC
  8
_0-0_
  6
CONTINUOUS
 62
    7
 10
2654.7787118786864
 20
1316.6237332097039
 40
1.4495999999999999
 50
339.71600000000017
 51
159.7160000000002
  0
CIRCLE
  8
_0-0_
  6
CONTINUOUS
 62
    7
 10
2700.8283118786866
 20
1314.387733209704
 40
5
  0
CIRCLE
  8
_0-0_
  6
CONTINUOUS
 62
    7
 10
2700.8283118786866
 20
1314.387733209704
 40
4.5999999999999996
  0
ARC
  8
_0-0_
  6
CONTINUOUS
 62
    7
 10
2706.8787118786867
 20
1316.6237332097039
 40
1.4495999999999999
 50
20.284000000000002
 51
200.28400000000004
  0
ARC
  8
_0-0_
  6
CONTINUOUS
 62
    7
 10
2694.7787118786864
 20
1316.6237332097039
 40
1.4495999999999999
 50
339.71600000000017
 51
159.7160000000002
  0
CIRCLE
  8
_0-0_
  6
CONTINUOUS
 62
    7
 10
2740.8283118786866
 20
1314.387733209704
 40
5
  0
CIRCLE
  8
_0-0_
  6
CONTINUOUS
 62
    7
 10
2740.8283118786866
 20
1314.387733209704
 40
4.5999999999999996
  0
ARC
  8
_0-0_
  6
CONTINUOUS
 62
    7
 10
2746.8787118786867
 20
1316.6237332097039
 40
1.4495999999999999
 50
20.284000000000002
 51
200.28400000000004
  0
ARC
  8
_0-0_
  6
CONTINUOUS
 62
    7
 10
2734.7787118786864
 20
1316.6237332097039
 40
1.4495999999999999
 50
339.71600000000017
 51
159.7160000000002
  0
CIRCLE
  8
_0-0_
  6
CONTINUOUS
 62
    7
 10
2780.8283118786866
 20
1314.387733209704
 40
5
  0
CIRCLE
  8
_0-0_
  6
CONTINUOUS
 62
    7
 10
2780.8283118786866
 20
1314.387733209704
 40
4.5999999999999996
  0
ARC
  8
_0-0_
  6
CONTINUOUS
 62
    7
 10
2786.8787118786867
 20
1316.6237332097039
 40
1.4495999999999999
 50
20.284000000000002
 51
200.28400000000004
  0
ARC
  8
_0-0_
  6
CONTINUOUS
 62
    7
 10
2774.7787118786864
 20
1316.6237332097039
 40
1.4495999999999999
 50
339.71600000000017
 51
159.7160000000002
  0
CIRCLE
  8
_0-0_
  6
CONTINUOUS
 62
    7
 10
2820.8283118786866
 20
1314.387733209704
 40
5
  0
CIRCLE
  8
_0-0_
  6
CONTINUOUS
 62
    7
 10
2820.8283118786866
 20
1314.387733209704
 40
4.5999999999999996
  0
ARC
  8
_0-0_
  6
CONTINUOUS
 62
    7
 10
2826.8787118786867
 20
1316.6237332097039
 40
1.4495999999999999
 50
20.284000000000002
 51
200.28400000000004
  0
ARC
  8
_0-0_
  6
CONTINUOUS
 62
    7
 10
2814.7787118786864
 20
1316.6237332097039
 40
1.4495999999999999
 50
339.71600000000017
 51
159.7160000000002
  0
ARC
  8
_0-0_
  6
CONTINUOUS
 62
    7
 10
2620.8283118786866
 20
1314.387733209704
 40
7.9000000000000003
 50
159.71600000000003
 51
180.00000000000005
  0
ARC
  8
_0-0_
  6
CONTINUOUS
 62
    7
 10
2620.8283118786866
 20
1314.387733209704
 40
7.9000000000000003
 50
325.8200000000001
 51
20.284000000000087
  0
ARC
  8
_0-0_
  6
CONTINUOUS
 62
    7
 10
2820.8283118786866
 20
1314.387733209704
 40
7.9000000000000003
 50
159.71600000000003
 51
214.18000000000006
  0
ARC
  8
_0-0_
  6
CONTINUOUS
 62
    7
 10
2820.8283118786866
 20
1314.387733209704
 40
7.9000000000000003
 50
0.0000000000001017
 51
20.284000000000098
  0
ARC
  8
_0-0_
  6
CONTINUOUS
 62
    7
 10
2628.1915118786864
 20
1309.387733209704
 40
1
 50
145.82000000000002
 51
270.00000000000005
  0
ARC
  8
_0-0_
  6
CONTINUOUS
 62
    7
 10
2660.8283118786866
 20
1314.387733209704
 40
7.9000000000000003
 50
159.71600000000003
 51
214.18000000000006
  0
ARC
  8
_0-0_
  6
CONTINUOUS
 62
    7
 10
2660.8283118786866
 20
1314.387733209704
 40
7.9000000000000003
 50
325.8200000000001
 51
20.284000000000087
  0
ARC
  8
_0-0_
  6
CONTINUOUS
 62
    7
 10
2700.8283118786866
 20
1314.387733209704
 40
7.9000000000000003
 50
159.71600000000003
 51
214.18000000000006
  0
ARC
  8
_0-0_
  6
CONTINUOUS
 62
    7
 10
2700.8283118786866
 20
1314.387733209704
 40
7.9000000000000003
 50
325.8200000000001
 51
20.284000000000087
  0
ARC
  8
_0-0_
  6
CONTINUOUS
 62
    7
 10
2740.8283118786866
 20
1314.387733209704
 40
7.9000000000000003
 50
159.71600000000003
 51
214.18000000000006
  0
ARC
  8
_0-0_
  6
CONTINUOUS
 62
    7
 10
2740.8283118786866
 20
1314.387733209704
 40
7.9000000000000003
 50
325.8200000000001
 51
20.284000000000087
  0
ARC
  8
_0-0_
  6
CONTINUOUS
 62
    7
 10
2780.8283118786866
 20
1314.387733209704
 40
7.9000000000000003
 50
159.71600000000003
 51
214.18000000000006
  0
ARC
  8
_0-0_
  6
CONTINUOUS
 62
    7
 10
2780.8283118786866
 20
1314.387733209704
 40
7.9000000000000003
 50
325.8200000000001
 51
20.284000000000087
  0
ARC
  8
_0-0_
  6
CONTINUOUS
 62
    7
 10
2653.4659118786867
 20
1309.387733209704
 40
1
 50
270.00000000000005
 51
34.180000000000084
  0
ARC
  8
_0-0_
  6
CONTINUOUS
 62
    7
 10
2668.1915118786864
 20
1309.387733209704
 40
1
 50
145.82000000000002
 51
270.00000000000005
  0
ARC
  8
_0-0_
  6
CONTINUOUS
 62
    7
 10
2693.4659118786867
 20
1309.387733209704
 40
1
 50
270.00000000000005
 51
34.180000000000084
  0
ARC
  8
_0-0_
  6
CONTINUOUS
 62
    7
 10
2708.1915118786864
 20
1309.387733209704
 40
1
 50
145.82000000000002
 51
270.00000000000005
  0
ARC
  8
_0-0_
  6
CONTINUOUS
 62
    7
 10
2733.4659118786867
 20
1309.387733209704
 40
1
 50
270.00000000000005
 51
34.180000000000084
  0
ARC
  8
_0-0_
  6
CONTINUOUS
 62
    7
 10
2748.1915118786864
 20
1309.387733209704
 40
1
 50
145.82000000000002
 51
270.00000000000005
  0
ARC
  8
_0-0_
  6
CONTINUOUS
 62
    7
 10
2773.4659118786867
 20
1309.387733209704
 40
1
 50
270.00000000000005
 51
34.180000000000084
  0
ARC
  8
_0-0_
  6
CONTINUOUS
 62
    7
 10
2788.1915118786864
 20
1309.387733209704
 40
1
 50
145.82000000000002
 51
270.00000000000005
  0
ARC
  8
_0-0_
  6
CONTINUOUS
 62
    7
 10
2813.4659118786867
 20
1309.387733209704
 40
1
 50
270.00000000000005
 51
34.180000000000084
  0
ARC
  8
_0-0_
  6
CONTINUOUS
 62
    7
 10
2629.6723118786867
 20
1315.387733209704
 40
1
 50
186.45100000000007
 51
270.00000000000005
  0
ARC
  8
_0-0_
  6
CONTINUOUS
 62
    7
 10
2651.9851118786864
 20
1315.387733209704
 40
1
 50
270.00000000000005
 51
353.54900000000003
  0
ARC
  8
_0-0_
  6
CONTINUOUS
 62
    7
 10
2669.6723118786867
 20
1315.387733209704
 40
1
 50
186.45100000000007
 51
270.00000000000005
  0
ARC
  8
_0-0_
  6
CONTINUOUS
 62
    7
 10
2691.9851118786864
 20
1315.387733209704
 40
1
 50
270.00000000000005
 51
353.54900000000003
  0
ARC
  8
_0-0_
  6
CONTINUOUS
 62
    7
 10
2709.6723118786867
 20
1315.387733209704
 40
1
 50
186.45100000000007
 51
270.00000000000005
  0
ARC
  8
_0-0_
  6
CONTINUOUS
 62
    7
 10
2731.9851118786864
 20
1315.387733209704
 40
1
 50
270.00000000000005
 51
353.54900000000003
  0
ARC
  8
_0-0_
  6
CONTINUOUS
 62
    7
 10
2749.6723118786867
 20
1315.387733209704
 40
1
 50
186.45100000000007
 51
270.00000000000005
  0
ARC
  8
_0-0_
  6
CONTINUOUS
 62
    7
 10
2771.9851118786864
 20
1315.387733209704
 40
1
 50
270.00000000000005
 51
353.54900000000003
  0
ARC
  8
_0-0_
  6
CONTINUOUS
 62
    7
 10
2789.6723118786867
 20
1315.387733209704
 40
1
 50
186.45100000000007
 51
270.00000000000005
  0
ARC
  8
_0-0_
  6
CONTINUOUS
 62
    7
 10
2811.9851118786864
 20
1315.387733209704
 40
1
 50
270.00000000000005
 51
353.54900000000003
  0
ARC
  8
_0-0_
  6
CONTINUOUS
 62
    7
 10
2827.7283118786863
 20
1305.387733209704
 40
1
 50
270.00000000000005
 51
0.0000000000000508
  0
ARC
  8
_0-0_
  6
CONTINUOUS
 62
    7
 10
2613.928311878687
 20
1305.387733209704
 40
1
 50
180.00000000000005
 51
270.00000000000005
  0
ARC
  8
_0-0_
  6
CONTINUOUS
 62
    7
 10
1772.6835118786866
 20
1898.3989332097039
 40
2.2503999999999999
 50
90.000000000000028
 51
270.00000000000011
  0
ARC
  8
_0-0_
  6
CONTINUOUS
 62
    7
 10
1779.1835118786866
 20
1898.3989332097039
 40
2.2503999999999999
 50
270.00000000000005
 51
90.000000000000099
  0
ARC
  8
_0-0_
  6
CONTINUOUS
 62
    7
 10
1772.6835118786866
 20
2063.3989332097039
 40
2.2503999999999999
 50
90.000000000000028
 51
270.00000000000011
  0
ARC
  8
_0-0_
  6
CONTINUOUS
 62
    7
 10
1779.1835118786866
 20
2063.3989332097039
 40
2.2503999999999999
 50
270.00000000000005
 51
90.000000000000099
  0
ARC
  8
_0-0_
  6
CONTINUOUS
 62
    7
 10
592.68351187868665
 20
1898.3989332097039
 40
2.2503999999999999
 50
90.000000000000028
 51
270.00000000000011
  0
ARC
  8
_0-0_
  6
CONTINUOUS
 62
    7
 10
599.18351187868665
 20
1898.3989332097039
 40
2.2503999999999999
 50
270.00000000000005
 51
90.000000000000099
  0
ARC
  8
_0-0_
  6
CONTINUOUS
 62
    7
 10
592.68351187868665
 20
2063.3989332097039
 40
2.2503999999999999
 50
90.000000000000028
 51
270.00000000000011
  0
ARC
  8
_0-0_
  6
CONTINUOUS
 62
    7
 10
599.18351187868665
 20
2063.3989332097039
 40
2.2503999999999999
 50
270.00000000000005
 51
90.000000000000099
  0
CIRCLE
  8
_0-0_
  6
CONTINUOUS
 62
    7
 10
1775.9331118786867
 20
749.86053320970404
 40
3.2503999999999999
  0
CIRCLE
  8
_0-0_
  6
CONTINUOUS
 62
    7
 10
1775.9331118786867
 20
749.86053320970404
 40
3
  0
CIRCLE
  8
_0-0_
  6
CONTINUOUS
 62
    7
 10
1775.9331118786867
 20
639.86053320970393
 40
3
  0
ARC
  8
_0-0_
  6
CONTINUOUS
 62
    7
 10
2238.9091118786868
 20
2027.942133209704
 40
5
 50
90.000000000000028
 51
180.00000000000005
  0
ARC
  8
_0-0_
  6
CONTINUOUS
 62
    7
 10
2238.9091118786868
 20
1947.942133209704
 40
5
 50
180.00000000000005
 51
270.00000000000005
  0
ARC
  8
_0-0_
  6
CONTINUOUS
 62
    7
 10
2328.9091118786864
 20
1947.942133209704
 40
5
 50
270.00000000000005
 51
0.0000000000000508
  0
ARC
  8
_0-0_
  6
CONTINUOUS
 62
    7
 10
2328.9091118786864
 20
2027.942133209704
 40
5
 50
0
 51
90.000000000000028
  0
ARC
  8
_0-0_
  6
CONTINUOUS
 62
    7
 10
2255.1595118786867
 20
2027.942133209704
 40
5
 50
90.000000000000028
 51
180.00000000000005
  0
ARC
  8
_0-0_
  6
CONTINUOUS
 62
    7
 10
2245.1595118786867
 20
1967.942133209704
 40
5
 50
270.00000000000005
 51
0.0000000000000508
  0
ARC
  8
_0-0_
  6
CONTINUOUS
 62
    7
 10
2238.9091118786868
 20
1957.942133209704
 40
5
 50
90.000000000000028
 51
180.00000000000005
  0
ARC
  8
_0-0_
  6
CONTINUOUS
 62
    7
 10
2299.4091118786868
 20
1933.942133209704
 40
1
 50
180.00000000000005
 51
270.00000000000005
  0
ARC
  8
_0-0_
  6
CONTINUOUS
 62
    7
 10
2268.4091118786868
 20
1933.942133209704
 40
1
 50
270.00000000000005
 51
0.0000000000000508
  0
ARC
  8
_0-0_
  6
CONTINUOUS
 62
    7
 10
2268.4091118786868
 20
1933.942133209704
 40
3
 50
270.00000000000005
 51
0.0000000000000508
  0
ARC
  8
_0-0_
  6
CONTINUOUS
 62
    7
 10
2299.4091118786868
 20
1933.942133209704
 40
3
 50
180.00000000000005
 51
270.00000000000005
  0
ARC
  8
_0-0_
  6
CONTINUOUS
 62
    7
 10
2283.9091118786868
 20
2005.8093332097039
 40
1
 50
34.839000000000005
 51
145.16100000000002
  0
ARC
  8
_0-0_
  6
CONTINUOUS
 62
    7
 10
2283.9091118786868
 20
2005.8093332097039
 40
3
 50
34.839000000000005
 51
145.16100000000002
  0
ARC
  8
_0-0_
  6
CONTINUOUS
 62
    7
 10
2264.4091118786868
 20
1977.793333209704
 40
1
 50
145.161
 51
240.00000000000002
  0
ARC
  8
_0-0_
  6
CONTINUOUS
 62
    7
 10
2264.4091118786868
 20
1977.793333209704
 40
3
 50
145.161
 51
240.00000000000002
  0
ARC
  8
_0-0_
  6
CONTINUOUS
 62
    7
 10
2303.4091118786868
 20
1977.793333209704
 40
1
 50
300.00000000000005
 51
34.839000000000112
  0
ARC
  8
_0-0_
  6
CONTINUOUS
 62
    7
 10
2303.4091118786868
 20
1977.793333209704
 40
3
 50
300.00000000000005
 51
34.839000000000112
  0
ARC
  8
_0-0_
  6
CONTINUOUS
 62
    7
 10
2299.4091118786868
 20
1970.8645332097039
 40
1
 50
120.00000000000001
 51
180.00000000000005
  0
ARC
  8
_0-0_
  6
CONTINUOUS
 62
    7
 10
2299.4091118786868
 20
1970.8645332097039
 40
3
 50
120.00000000000001
 51
180.00000000000005
  0
ARC
  8
_0-0_
  6
CONTINUOUS
 62
    7
 10
2268.4091118786868
 20
1970.8645332097039
 40
1
 50
0
 51
60.000000000000007
  0
ARC
  8
_0-0_
  6
CONTINUOUS
 62
    7
 10
2268.4091118786868
 20
1970.8645332097039
 40
3
 50
0
 51
60.000000000000007
  0
ARC
  8
_0-0_
  6
CONTINUOUS
 62
    7
 10
2592.084311878687
 20
2028.3757332097038
 40
5
 50
90.000000000000028
 51
180.00000000000005
  0
ARC
  8
_0-0_
  6
CONTINUOUS
 62
    7
 10
2592.084311878687
 20
1948.3757332097038
 40
5
 50
180.00000000000005
 51
270.00000000000005
  0
ARC
  8
_0-0_
  6
CONTINUOUS
 62
    7
 10
2682.084311878687
 20
1948.3757332097038
 40
5
 50
270.00000000000005
 51
0.0000000000000508
  0
ARC
  8
_0-0_
  6
CONTINUOUS
 62
    7
 10
2682.084311878687
 20
2028.3757332097038
 40
5
 50
0
 51
90.000000000000028
  0
ARC
  8
_0-0_
  6
CONTINUOUS
 62
    7
 10
2592.084311878687
 20
1958.3757332097038
 40
5
 50
90.000000000000028
 51
180.00000000000005
  0
ARC
  8
_0-0_
  6
CONTINUOUS
 62
    7
 10
2627.084311878687
 20
1923.3757332097038
 40
5
 50
180.00000000000005
 51
270.00000000000005
  0
ARC
  8
_0-0_
  6
CONTINUOUS
 62
    7
 10
2647.084311878687
 20
1923.3757332097038
 40
5
 50
270.00000000000005
 51
0.0000000000000508
  0
ARC
  8
_0-0_
  6
CONTINUOUS
 62
    7
 10
2620.584311878687
 20
1941.8757332097038
 40
1.5
 50
0
 51
90.000000000000028
  0
ARC
  8
_0-0_
  6
CONTINUOUS
 62
    7
 10
2653.584311878687
 20
1941.8757332097038
 40
1.5
 50
90.000000000000028
 51
180.00000000000005
  0
ARC
  8
_0-0_
  6
CONTINUOUS
 62
    7
 10
2227.3155118786867
 20
1067.387733209704
 40
1
 50
180.00000000000005
 51
270.00000000000005
  0
ARC
  8
_0-0_
  6
CONTINUOUS
 62
    7
 10
2231.3155118786867
 20
1067.387733209704
 40
1
 50
270.00000000000005
 51
0.0000000000000508
  0
ARC
  8
_0-0_
  6
CONTINUOUS
 62
    7
 10
2337.3155118786867
 20
1067.387733209704
 40
1
 50
180.00000000000005
 51
270.00000000000005
  0
ARC
  8
_0-0_
  6
CONTINUOUS
 62
    7
 10
2341.3155118786867
 20
1067.387733209704
 40
1
 50
270.00000000000005
 51
0.0000000000000508
  0
ARC
  8
_0-0_
  6
CONTINUOUS
 62
    7
 10
2609.5787118786865
 20
1300.387733209704
 40
2
 50
90.000000000000028
 51
180.00000000000005
  0
ARC
  8
_0-0_
  6
CONTINUOUS
 62
    7
 10
2832.0787118786865
 20
1300.387733209704
 40
2
 50
0
 51
90.000000000000028
  0
ARC
  8
_0-0_
  6
CONTINUOUS
 62
    7
 10
2609.5787118786865
 20
1300.387733209704
 40
4
 50
90.000000000000028
 51
180.00000000000005
  0
ARC
  8
_0-0_
  6
CONTINUOUS
 62
    7
 10
2832.0787118786865
 20
1300.387733209704
 40
4
 50
0
 51
90.000000000000028
  0
ARC
  8
_0-0_
  6
CONTINUOUS
 62
    7
 10
2153.0659118786866
 20
1284.7605332097039
 40
4
 50
180.00000000000005
 51
190.63600000000002
  0
ARC
  8
_0-0_
  6
CONTINUOUS
 62
    7
 10
2151.0659118786866
 20
1284.574133209704
 40
4
 50
180.00000000000005
 51
190.63600000000002
  0
ARC
  8
_0-0_
  6
CONTINUOUS
 62
    7
 10
2192.3843118786867
 20
1075.387733209704
 40
4
 50
190.63600000000002
 51
270.00000000000005
  0
ARC
  8
_0-0_
  6
CONTINUOUS
 62
    7
 10
2192.3843118786867
 20
1075.387733209704
 40
6
 50
190.63600000000002
 51
270.00000000000005
  0
ARC
  8
_0-0_
  6
CONTINUOUS
 62
    7
 10
2378.3155118786867
 20
1321.387733209704
 40
1
 50
0
 51
90.000000000000028
  0
ARC
  8
_0-0_
  6
CONTINUOUS
 62
    7
 10
2375.3155118786867
 20
1308.387733209704
 40
4
 50
270.00000000000005
 51
0.0000000000000508
  0
ARC
  8
_0-0_
  6
CONTINUOUS
 62
    7
 10
2150.3155118786867
 20
1321.387733209704
 40
1
 50
90.000000000000028
 51
180.00000000000005
  0
ARC
  8
_0-0_
  6
CONTINUOUS
 62
    7
 10
2153.3155118786867
 20
1308.387733209704
 40
4
 50
180.00000000000005
 51
270.00000000000005
  0
ARC
  8
_0-0_
  6
CONTINUOUS
 62
    7
 10
2607.5787118786865
 20
1284.574133209704
 40
4
 50
180.00000000000005
 51
190.63600000000002
  0
ARC
  8
_0-0_
  6
CONTINUOUS
 62
    7
 10
2609.5787118786865
 20
1284.7605332097039
 40
4
 50
180.00000000000005
 51
190.63600000000002
  0
ARC
  8
_0-0_
  6
CONTINUOUS
 62
    7
 10
2648.8971118786867
 20
1075.387733209704
 40
4
 50
190.63600000000002
 51
270.00000000000005
  0
ARC
  8
_0-0_
  6
CONTINUOUS
 62
    7
 10
2648.8971118786867
 20
1075.387733209704
 40
6
 50
190.63600000000002
 51
270.00000000000005
  0
CIRCLE
  8
_0-0_
  6
CONTINUOUS
 62
    7
 10
2660.8283118786866
 20
1081.387733209704
 40
5
  0
CIRCLE
  8
_0-0_
  6
CONTINUOUS
 62
    7
 10
2660.8283118786866
 20
1081.387733209704
 40
4.5999999999999996
  0
ARC
  8
_0-0_
  6
CONTINUOUS
 62
    7
 10
2666.8787118786867
 20
1083.6237332097039
 40
1.4495999999999999
 50
20.284000000000002
 51
200.28400000000004
  0
ARC
  8
_0-0_
  6
CONTINUOUS
 62
    7
 10
2654.7787118786864
 20
1083.6237332097039
 40
1.4495999999999999
 50
339.71600000000017
 51
159.7160000000002
  0
CIRCLE
  8
_0-0_
  6
CONTINUOUS
 62
    7
 10
2700.8283118786866
 20
1081.387733209704
 40
5
  0
CIRCLE
  8
_0-0_
  6
CONTINUOUS
 62
    7
 10
2700.8283118786866
 20
1081.387733209704
 40
4.5999999999999996
  0
ARC
  8
_0-0_
  6
CONTINUOUS
 62
    7
 10
2706.8787118786867
 20
1083.6237332097039
 40
1.4495999999999999
 50
20.284000000000002
 51
200.28400000000004
  0
ARC
  8
_0-0_
  6
CONTINUOUS
 62
    7
 10
2694.7787118786864
 20
1083.6237332097039
 40
1.4495999999999999
 50
339.71600000000017
 51
159.7160000000002
  0
CIRCLE
  8
_0-0_
  6
CONTINUOUS
 62
    7
 10
2740.8283118786866
 20
1081.387733209704
 40
5
  0
CIRCLE
  8
_0-0_
  6
CONTINUOUS
 62
    7
 10
2740.8283118786866
 20
1081.387733209704
 40
4.5999999999999996
  0
ARC
  8
_0-0_
  6
CONTINUOUS
 62
    7
 10
2734.7787118786864
 20
1083.6237332097039
 40
1.4495999999999999
 50
339.71600000000017
 51
159.7160000000002
  0
ARC
  8
_0-0_
  6
CONTINUOUS
 62
    7
 10
2660.8283118786866
 20
1081.387733209704
 40
7.9000000000000003
 50
159.71600000000003
 51
180.00000000000005
  0
ARC
  8
_0-0_
  6
CONTINUOUS
 62
    7
 10
2660.8283118786866
 20
1081.387733209704
 40
7.9000000000000003
 50
325.8200000000001
 51
20.284000000000087
  0
ARC
  8
_0-0_
  6
CONTINUOUS
 62
    7
 10
2668.1915118786864
 20
1076.387733209704
 40
1
 50
145.82000000000002
 51
270.00000000000005
  0
ARC
  8
_0-0_
  6
CONTINUOUS
 62
    7
 10
2700.8283118786866
 20
1081.387733209704
 40
7.9000000000000003
 50
159.71600000000003
 51
214.18000000000006
  0
ARC
  8
_0-0_
  6
CONTINUOUS
 62
    7
 10
2700.8283118786866
 20
1081.387733209704
 40
7.9000000000000003
 50
325.8200000000001
 51
20.284000000000087
  0
ARC
  8
_0-0_
  6
CONTINUOUS
 62
    7
 10
2740.8283118786866
 20
1081.387733209704
 40
7.9000000000000003
 50
159.71600000000003
 51
214.18000000000006
  0
ARC
  8
_0-0_
  6
CONTINUOUS
 62
    7
 10
2693.4659118786867
 20
1076.387733209704
 40
1
 50
270.00000000000005
 51
34.180000000000084
  0
ARC
  8
_0-0_
  6
CONTINUOUS
 62
    7
 10
2708.1915118786864
 20
1076.387733209704
 40
1
 50
145.82000000000002
 51
270.00000000000005
  0
ARC
  8
_0-0_
  6
CONTINUOUS
 62
    7
 10
2733.4659118786867
 20
1076.387733209704
 40
1
 50
270.00000000000005
 51
34.180000000000084
  0
ARC
  8
_0-0_
  6
CONTINUOUS
 62
    7
 10
2669.6723118786867
 20
1082.387733209704
 40
1
 50
186.45100000000007
 51
270.00000000000005
  0
ARC
  8
_0-0_
  6
CONTINUOUS
 62
    7
 10
2691.9851118786864
 20
1082.387733209704
 40
1
 50
270.00000000000005
 51
353.54900000000003
  0
ARC
  8
_0-0_
  6
CONTINUOUS
 62
    7
 10
2709.6723118786867
 20
1082.387733209704
 40
1
 50
186.45100000000007
 51
270.00000000000005
  0
ARC
  8
_0-0_
  6
CONTINUOUS
 62
    7
 10
2731.9851118786864
 20
1082.387733209704
 40
1
 50
270.00000000000005
 51
353.54900000000003
  0
ARC
  8
_0-0_
  6
CONTINUOUS
 62
    7
 10
2653.928311878687
 20
1072.387733209704
 40
1
 50
180.00000000000005
 51
270.00000000000005
  0
ARC
  8
_0-0_
  6
CONTINUOUS
 62
    7
 10
2746.8787118786867
 20
1083.6237332097039
 40
1.4495999999999999
 50
20.284000000000002
 51
200.28400000000004
  0
ARC
  8
_0-0_
  6
CONTINUOUS
 62
    7
 10
2740.8283118786866
 20
1081.387733209704
 40
7.9000000000000003
 50
325.8200000000001
 51
20.284000000000087
  0
ARC
  8
_0-0_
  6
CONTINUOUS
 62
    7
 10
2748.1915118786864
 20
1076.387733209704
 40
1
 50
145.82000000000002
 51
270.00000000000005
  0
ARC
  8
_0-0_
  6
CONTINUOUS
 62
    7
 10
2749.6723118786867
 20
1082.387733209704
 40
1
 50
186.45100000000007
 51
270.00000000000005
  0
CIRCLE
  8
_0-0_
  6
CONTINUOUS
 62
    7
 10
2780.8283118786866
 20
1081.387733209704
 40
5
  0
CIRCLE
  8
_0-0_
  6
CONTINUOUS
 62
    7
 10
2780.8283118786866
 20
1081.387733209704
 40
4.5999999999999996
  0
ARC
  8
_0-0_
  6
CONTINUOUS
 62
    7
 10
2786.8787118786867
 20
1083.6237332097039
 40
1.4495999999999999
 50
20.284000000000002
 51
200.28400000000004
  0
ARC
  8
_0-0_
  6
CONTINUOUS
 62
    7
 10
2774.7787118786864
 20
1083.6237332097039
 40
1.4495999999999999
 50
339.71600000000017
 51
159.7160000000002
  0
ARC
  8
_0-0_
  6
CONTINUOUS
 62
    7
 10
2780.8283118786866
 20
1081.387733209704
 40
7.9000000000000003
 50
159.71600000000003
 51
214.18000000000006
  0
ARC
  8
_0-0_
  6
CONTINUOUS
 62
    7
 10
2780.8283118786866
 20
1081.387733209704
 40
7.9000000000000003
 50
325.8200000000001
 51
20.284000000000087
  0
ARC
  8
_0-0_
  6
CONTINUOUS
 62
    7
 10
2773.4659118786867
 20
1076.387733209704
 40
1
 50
270.00000000000005
 51
34.180000000000084
  0
ARC
  8
_0-0_
  6
CONTINUOUS
 62
    7
 10
2788.1915118786864
 20
1076.387733209704
 40
1
 50
145.82000000000002
 51
270.00000000000005
  0
ARC
  8
_0-0_
  6
CONTINUOUS
 62
    7
 10
2771.9851118786864
 20
1082.387733209704
 40
1
 50
270.00000000000005
 51
353.54900000000003
  0
ARC
  8
_0-0_
  6
CONTINUOUS
 62
    7
 10
2789.6723118786867
 20
1082.387733209704
 40
1
 50
186.45100000000007
 51
270.00000000000005
  0
CIRCLE
  8
_0-0_
  6
CONTINUOUS
 62
    7
 10
2820.8283118786866
 20
1081.387733209704
 40
5
  0
CIRCLE
  8
_0-0_
  6
CONTINUOUS
 62
    7
 10
2820.8283118786866
 20
1081.387733209704
 40
4.5999999999999996
  0
ARC
  8
_0-0_
  6
CONTINUOUS
 62
    7
 10
2826.8787118786867
 20
1083.6237332097039
 40
1.4495999999999999
 50
20.284000000000002
 51
200.28400000000004
  0
ARC
  8
_0-0_
  6
CONTINUOUS
 62
    7
 10
2814.7787118786864
 20
1083.6237332097039
 40
1.4495999999999999
 50
339.71600000000017
 51
159.7160000000002
  0
ARC
  8
_0-0_
  6
CONTINUOUS
 62
    7
 10
2820.8283118786866
 20
1081.387733209704
 40
7.9000000000000003
 50
159.71600000000003
 51
214.18000000000006
  0
ARC
  8
_0-0_
  6
CONTINUOUS
 62
    7
 10
2820.8283118786866
 20
1081.387733209704
 40
7.9000000000000003
 50
0.0000000000001017
 51
20.284000000000098
  0
ARC
  8
_0-0_
  6
CONTINUOUS
 62
    7
 10
2813.4659118786867
 20
1076.387733209704
 40
1
 50
270.00000000000005
 51
34.180000000000084
  0
ARC
  8
_0-0_
  6
CONTINUOUS
 62
    7
 10
2811.9851118786864
 20
1082.387733209704
 40
1
 50
270.00000000000005
 51
353.54900000000003
  0
ARC
  8
_0-0_
  6
CONTINUOUS
 62
    7
 10
2827.7283118786863
 20
1072.387733209704
 40
1
 50
270.00000000000005
 51
0.0000000000000508
  0
ARC
  8
_0-0_
  6
CONTINUOUS
 62
    7
 10
2153.0659118786866
 20
1300.387733209704
 40
4
 50
90.000000000000028
 51
180.00000000000005
  0
ARC
  8
_0-0_
  6
CONTINUOUS
 62
    7
 10
2153.0659118786866
 20
1300.387733209704
 40
2
 50
90.000000000000028
 51
180.00000000000005
  0
ARC
  8
_0-0_
  6
CONTINUOUS
 62
    7
 10
2375.565911878687
 20
1300.387733209704
 40
2
 50
0
 51
90.000000000000028
  0
ARC
  8
_0-0_
  6
CONTINUOUS
 62
    7
 10
2375.565911878687
 20
1300.387733209704
 40
4
 50
0
 51
90.000000000000028
  0
ARC
  8
_0-0_
  6
CONTINUOUS
 62
    7
 10
1179.4331118786867
 20
1306.387733209704
 40
1
 50
180.00000000000005
 51
270.00000000000005
  0
ARC
  8
_0-0_
  6
CONTINUOUS
 62
    7
 10
1192.4331118786867
 20
1306.387733209704
 40
1
 50
270.00000000000005
 51
0.0000000000000508
  0
ARC
  8
_0-0_
  6
CONTINUOUS
 62
    7
 10
1179.4331118786867
 20
1316.8237332097039
 40
1
 50
90.000000000000028
 51
180.00000000000005
  0
ARC
  8
_0-0_
  6
CONTINUOUS
 62
    7
 10
1192.4331118786867
 20
1316.8237332097039
 40
1
 50
0
 51
90.000000000000028
  0
CIRCLE
  8
_0-0_
  6
CONTINUOUS
 62
    7
 10
595.93311187868675
 20
639.86053320970393
 40
3.2503999999999999
  0
CIRCLE
  8
_0-0_
  6
CONTINUOUS
 62
    7
 10
595.93311187868675
 20
749.86053320970404
 40
3.2503999999999999
  0
CIRCLE
  8
_0-0_
  6
CONTINUOUS
 62
    7
 10
595.93311187868675
 20
749.86053320970404
 40
3
  0
CIRCLE
  8
_0-0_
  6
CONTINUOUS
 62
    7
 10
595.93311187868675
 20
639.86053320970393
 40
3
  0
ARC
  8
_0-0_
  6
CONTINUOUS
 62
    7
 10
1192.4331118786867
 20
781.7605332097039
 40
1
 50
0
 51
90.000000000000028
  0
ARC
  8
_0-0_
  6
CONTINUOUS
 62
    7
 10
1179.4331118786867
 20
781.7605332097039
 40
1
 50
90.000000000000028
 51
180.00000000000005
  0
ARC
  8
_0-0_
  6
CONTINUOUS
 62
    7
 10
1179.4331118786867
 20
2080.0485332097041
 40
1
 50
90.000000000000028
 51
180.00000000000005
  0
ARC
  8
_0-0_
  6
CONTINUOUS
 62
    7
 10
1179.4331118786867
 20
1866.2485332097039
 40
1
 50
180.00000000000005
 51
270.00000000000005
  0
ARC
  8
_0-0_
  6
CONTINUOUS
 62
    7
 10
1192.4331118786867
 20
2080.0485332097041
 40
1
 50
0
 51
90.000000000000028
  0
ARC
  8
_0-0_
  6
CONTINUOUS
 62
    7
 10
1192.4331118786867
 20
1866.2485332097039
 40
1
 50
270.00000000000005
 51
0.0000000000000508
  0
ARC
  8
_0-0_
  6
CONTINUOUS
 62
    7
 10
1179.4331118786867
 20
2078.7485332097039
 40
1
 50
180.00000000000005
 51
270.00000000000005
  0
ARC
  8
_0-0_
  6
CONTINUOUS
 62
    7
 10
1192.4331118786867
 20
2078.7485332097039
 40
1
 50
270.00000000000005
 51
0.0000000000000508
  0
ARC
  8
_0-0_
  6
CONTINUOUS
 62
    7
 10
1179.4331118786867
 20
2067.5485332097041
 40
1
 50
90.000000000000028
 51
180.00000000000005
  0
ARC
  8
_0-0_
  6
CONTINUOUS
 62
    7
 10
1192.4331118786867
 20
2067.5485332097041
 40
1
 50
0
 51
90.000000000000028
  0
ARC
  8
_0-0_
  6
CONTINUOUS
 62
    7
 10
1179.4331118786867
 20
2066.2485332097039
 40
1
 50
180.00000000000005
 51
270.00000000000005
  0
ARC
  8
_0-0_
  6
CONTINUOUS
 62
    7
 10
1192.4331118786867
 20
2066.2485332097039
 40
1
 50
270.00000000000005
 51
0.0000000000000508
  0
ARC
  8
_0-0_
  6
CONTINUOUS
 62
    7
 10
1179.4331118786867
 20
2040.0485332097039
 40
1
 50
90.000000000000028
 51
180.00000000000005
  0
ARC
  8
_0-0_
  6
CONTINUOUS
 62
    7
 10
1192.4331118786867
 20
2040.0485332097039
 40
1
 50
0
 51
90.000000000000028
  0
ARC
  8
_0-0_
  6
CONTINUOUS
 62
    7
 10
1192.4331118786867
 20
2026.2485332097039
 40
1
 50
270.00000000000005
 51
0.0000000000000508
  0
ARC
  8
_0-0_
  6
CONTINUOUS
 62
    7
 10
1179.4331118786867
 20
2026.2485332097039
 40
1
 50
180.00000000000005
 51
270.00000000000005
  0
ARC
  8
_0-0_
  6
CONTINUOUS
 62
    7
 10
1179.4331118786867
 20
2000.0485332097039
 40
1
 50
90.000000000000028
 51
180.00000000000005
  0
ARC
  8
_0-0_
  6
CONTINUOUS
 62
    7
 10
1192.4331118786867
 20
2000.0485332097039
 40
1
 50
0
 51
90.000000000000028
  0
ARC
  8
_0-0_
  6
CONTINUOUS
 62
    7
 10
1192.4331118786867
 20
1998.7485332097039
 40
1
 50
270.00000000000005
 51
0.0000000000000508
  0
ARC
  8
_0-0_
  6
CONTINUOUS
 62
    7
 10
1179.4331118786867
 20
1998.7485332097039
 40
1
 50
180.00000000000005
 51
270.00000000000005
  0
ARC
  8
_0-0_
  6
CONTINUOUS
 62
    7
 10
1179.4331118786867
 20
2038.7485332097039
 40
1
 50
180.00000000000005
 51
270.00000000000005
  0
ARC
  8
_0-0_
  6
CONTINUOUS
 62
    7
 10
1192.4331118786867
 20
2038.7485332097039
 40
1
 50
270.00000000000005
 51
0.0000000000000508
  0
ARC
  8
_0-0_
  6
CONTINUOUS
 62
    7
 10
1179.4331118786867
 20
2027.5485332097039
 40
1
 50
90.000000000000028
 51
180.00000000000005
  0
ARC
  8
_0-0_
  6
CONTINUOUS
 62
    7
 10
1192.4331118786867
 20
2027.5485332097039
 40
1
 50
0
 51
90.000000000000028
  0
ARC
  8
_0-0_
  6
CONTINUOUS
 62
    7
 10
1179.4331118786867
 20
1987.5485332097039
 40
1
 50
90.000000000000028
 51
180.00000000000005
  0
ARC
  8
_0-0_
  6
CONTINUOUS
 62
    7
 10
1192.4331118786867
 20
1987.5485332097039
 40
1
 50
0
 51
90.000000000000028
  0
ARC
  8
_0-0_
  6
CONTINUOUS
 62
    7
 10
1192.4331118786867
 20
1986.2485332097039
 40
1
 50
270.00000000000005
 51
0.0000000000000508
  0
ARC
  8
_0-0_
  6
CONTINUOUS
 62
    7
 10
1179.4331118786867
 20
1986.2485332097039
 40
1
 50
180.00000000000005
 51
270.00000000000005
  0
ARC
  8
_0-0_
  6
CONTINUOUS
 62
    7
 10
1179.4331118786867
 20
1960.0485332097039
 40
1
 50
90.000000000000028
 51
180.00000000000005
  0
ARC
  8
_0-0_
  6
CONTINUOUS
 62
    7
 10
1192.4331118786867
 20
1960.0485332097039
 40
1
 50
0
 51
90.000000000000028
  0
ARC
  8
_0-0_
  6
CONTINUOUS
 62
    7
 10
1192.4331118786867
 20
1958.7485332097039
 40
1
 50
270.00000000000005
 51
0.0000000000000508
  0
ARC
  8
_0-0_
  6
CONTINUOUS
 62
    7
 10
1179.4331118786867
 20
1958.7485332097039
 40
1
 50
180.00000000000005
 51
270.00000000000005
  0
ARC
  8
_0-0_
  6
CONTINUOUS
 62
    7
 10
1179.4331118786867
 20
1947.5485332097039
 40
1
 50
90.000000000000028
 51
180.00000000000005
  0
ARC
  8
_0-0_
  6
CONTINUOUS
 62
    7
 10
1192.4331118786867
 20
1947.5485332097039
 40
1
 50
0
 51
90.000000000000028
  0
ARC
  8
_0-0_
  6
CONTINUOUS
 62
    7
 10
1192.4331118786867
 20
1946.2485332097039
 40
1
 50
270.00000000000005
 51
0.0000000000000508
  0
ARC
  8
_0-0_
  6
CONTINUOUS
 62
    7
 10
1179.4331118786867
 20
1946.2485332097039
 40
1
 50
180.00000000000005
 51
270.00000000000005
  0
ARC
  8
_0-0_
  6
CONTINUOUS
 62
    7
 10
1179.4331118786867
 20
1920.0485332097039
 40
1
 50
90.000000000000028
 51
180.00000000000005
  0
ARC
  8
_0-0_
  6
CONTINUOUS
 62
    7
 10
1192.4331118786867
 20
1920.0485332097039
 40
1
 50
0
 51
90.000000000000028
  0
ARC
  8
_0-0_
  6
CONTINUOUS
 62
    7
 10
1192.4331118786867
 20
1918.7485332097039
 40
1
 50
270.00000000000005
 51
0.0000000000000508
  0
ARC
  8
_0-0_
  6
CONTINUOUS
 62
    7
 10
1179.4331118786867
 20
1918.7485332097039
 40
1
 50
180.00000000000005
 51
270.00000000000005
  0
ARC
  8
_0-0_
  6
CONTINUOUS
 62
    7
 10
1179.4331118786867
 20
1907.5485332097039
 40
1
 50
90.000000000000028
 51
180.00000000000005
  0
ARC
  8
_0-0_
  6
CONTINUOUS
 62
    7
 10
1192.4331118786867
 20
1907.5485332097039
 40
1
 50
0
 51
90.000000000000028
  0
ARC
  8
_0-0_
  6
CONTINUOUS
 62
    7
 10
1192.4331118786867
 20
1906.2485332097039
 40
1
 50
270.00000000000005
 51
0.0000000000000508
  0
ARC
  8
_0-0_
  6
CONTINUOUS
 62
    7
 10
1179.4331118786867
 20
1906.2485332097039
 40
1
 50
180.00000000000005
 51
270.00000000000005
  0
ARC
  8
_0-0_
  6
CONTINUOUS
 62
    7
 10
1179.4331118786867
 20
1878.7485332097039
 40
1
 50
180.00000000000005
 51
270.00000000000005
  0
ARC
  8
_0-0_
  6
CONTINUOUS
 62
    7
 10
1179.4331118786867
 20
1880.0485332097039
 40
1
 50
90.000000000000028
 51
180.00000000000005
  0
ARC
  8
_0-0_
  6
CONTINUOUS
 62
    7
 10
1192.4331118786867
 20
1880.0485332097039
 40
1
 50
0
 51
90.000000000000028
  0
ARC
  8
_0-0_
  6
CONTINUOUS
 62
    7
 10
1192.4331118786867
 20
1878.7485332097039
 40
1
 50
270.00000000000005
 51
0.0000000000000508
  0
ARC
  8
_0-0_
  6
CONTINUOUS
 62
    7
 10
1179.4331118786867
 20
1867.5485332097039
 40
1
 50
90.000000000000028
 51
180.00000000000005
  0
ARC
  8
_0-0_
  6
CONTINUOUS
 62
    7
 10
1192.4331118786867
 20
1867.5485332097039
 40
1
 50
0
 51
90.000000000000028
  0
ARC
  8
_0-0_
  6
CONTINUOUS
 62
    7
 10
1766.9331118786867
 20
600.86053320970393
 40
1
 50
180.00000000000005
 51
270.00000000000005
  0
ARC
  8
_0-0_
  6
CONTINUOUS
 62
    7
 10
1784.9331118786867
 20
600.86053320970393
 40
1
 50
270.00000000000005
 51
0.0000000000000508
  0
CIRCLE
  8
_0-0_
  6
CONTINUOUS
 62
    7
 10
1775.9331118786867
 20
654.86053320970393
 40
2.1495999999999999
  0
CIRCLE
  8
_0-0_
  6
CONTINUOUS
 62
    7
 10
1775.9331118786867
 20
614.86053320970393
 40
2.1495999999999999
  0
CIRCLE
  8
_0-0_
  6
CONTINUOUS
 62
    7
 10
1775.9331118786867
 20
614.86053320970393
 40
2.5
  0
CIRCLE
  8
_0-0_
  6
CONTINUOUS
 62
    7
 10
1775.9331118786867
 20
654.86053320970393
 40
2.5
  0
ARC
  8
_0-0_
  6
CONTINUOUS
 62
    7
 10
2683.8283118786866
 20
1067.387733209704
 40
1
 50
180.00000000000005
 51
270.00000000000005
  0
ARC
  8
_0-0_
  6
CONTINUOUS
 62
    7
 10
2687.8283118786866
 20
1067.387733209704
 40
1
 50
270.00000000000005
 51
0.0000000000000508
  0
ARC
  8
_0-0_
  6
CONTINUOUS
 62
    7
 10
2793.8283118786866
 20
1067.387733209704
 40
1
 50
180.00000000000005
 51
270.00000000000005
  0
ARC
  8
_0-0_
  6
CONTINUOUS
 62
    7
 10
2797.8283118786866
 20
1067.387733209704
 40
1
 50
270.00000000000005
 51
0.0000000000000508
  0
CIRCLE
  8
_0-0_
  6
CONTINUOUS
 62
    7
 10
1824.4427118786866
 20
642.42933320970394
 40
25
  0
CIRCLE
  8
_0-0_
  6
CONTINUOUS
 62
    7
 10
2648.2555118786867
 20
1362.0165332097039
 40
25
  0
CIRCLE
  8
_0-0_
  6
CONTINUOUS
 62
    7
 10
1860.6323118786867
 20
1150.846133209704
 40
25
  0
CIRCLE
  8
_0-0_
  6
CONTINUOUS
 62
    7
 10
1398.4235118786866
 20
1804.532533209704
 40
25
  0
CIRCLE
  8
_0-0_
  6
CONTINUOUS
 62
    7
 10
2395.0963118786867
 20
2097.6181332097039
 40
25
  0
CIRCLE
  8
_0-0_
  6
CONTINUOUS
 62
    7
 10
2313.1187118786865
 20
1372.886933209704
 40
25
  0
CIRCLE
  8
_0-0_
  6
CONTINUOUS
 62
    7
 10
2227.2563118786865
 20
1128.3645332097039
 40
25
  0
CIRCLE
  8
_0-0_
  6
CONTINUOUS
 62
    7
 10
2774.2267118786867
 20
1148.0781332097039
 40
25
  0
POINT
  8
_0-0_
 62
    7
 10
585.93311187868675
 20
1629.5141332097041
  0
POINT
  8
_0-0_
 62
    7
 10
1785.9331118786867
 20
1649.0629332097039
  0
POINT
  8
_0-0_
 62
    7
 10
1765.9331118786867
 20
1649.0629332097039
  0
POINT
  8
_0-0_
 62
    7
 10
1837.0275118786867
 20
2063.3989332097039
  0
POINT
  8
_0-0_
 62
    7
 10
1837.0275118786867
 20
1898.3989332097039
  0
POINT
  8
_0-0_
 62
    7
 10
1886.5523118786868
 20
2090.3989332097039
  0
POINT
  8
_0-0_
 62
    7
 10
1886.5523118786868
 20
1855.8989332097039
  0
POINT
  8
_0-0_
 62
    7
 10
1785.9331118786867
 20
960.00933320970398
  0
POINT
  8
_0-0_
 62
    7
 10
585.93311187868675
 20
960.00933320970398
  0
POINT
  8
_0-0_
 62
    7
 10
2478.5467118786864
 20
1569.387733209704
  0
POINT
  8
_0-0_
 62
    7
 10
2478.5467118786864
 20
1069.387733209704
  0
POINT
  8
_0-0_
 62
    7
 10
2433.5467118786864
 20
1516.887733209704
  0
POINT
  8
_0-0_
 62
    7
 10
2433.5467118786864
 20
1121.887733209704
  0
POINT
  8
_0-0_
 62
    7
 10
2354.565911878687
 20
1647.6877332097039
  0
POINT
  8
_0-0_
 62
    7
 10
2189.5659118786866
 20
1647.6877332097039
  0
POINT
  8
_0-0_
 62
    7
 10
2095.3091118786869
 20
1304.387733209704
  0
POINT
  8
_0-0_
 62
    7
 10
2095.3091118786869
 20
1069.387733209704
  0
TEXT
  8
_0-0_
 62
    7
 10
1710.9331118786865
 20
1651.5029332097039
 40
25.600000000000001
 41
1
 50
0
  1
20
  0
TEXT
  8
_0-0_
 62
    7
 10
1834.5875118786868
 20
2105.3989332097044
 40
25.600000000000001
 41
1
 50
90.000003000000944
  1
27
  0
TEXT
  8
_0-0_
 62
    7
 10
1834.5875118786866
 20
1950.8989332097039
 40
25.600000000000001
 41
1
 50
90.000002999999608
  1
165
  0
TEXT
  8
_0-0_
 62
    7
 10
1884.1123118786867
 20
1923.1485332097038
 40
25.600000000000001
 41
1
 50
90.000003000000148
  1
234.5
  0
TEXT
  8
_0-0_
 62
    7
 10
2476.1067118786868
 20
1289.3877332097042
 40
25.600000000000001
 41
1
 50
90.000003000000944
  1
500
  0
TEXT
  8
_0-0_
 62
    7
 10
2431.1067118786863
 20
1584.3877332097035
 40
25.600000000000001
 41
1
 50
90.000002999998912
  1
52.5
  0
TEXT
  8
_0-0_
 62
    7
 10
2431.1067118786868
 20
1289.3877332097042
 40
25.600000000000001
 41
1
 50
90.000003000000944
  1
395
  0
TEXT
  8
_0-0_
 62
    7
 10
2242.0659118786861
 20
1650.127733209704
 40
25.600000000000001
 41
1
 50
0
  1
165
  0
TEXT
  8
_0-0_
 62
    7
 10
2092.8691118786864
 20
1156.887733209704
 40
25.600000000000001
 41
1
 50
90.000002999999608
  1
235
  0
TEXT
  8
_0-0_
 62
    7
 10
1707.6555118786868
 20
1615.215733209704
 40
25.600000000000001
 41
1
 50
0
  1
A
  0
TEXT
  8
_0-0_
 62
    7
 10
1707.6555118786868
 20
1014.8645332097039
 40
25.600000000000001
 41
1
 50
0
  1
A
  0
TEXT
  8
_0-0_
 62
    7
 10
2270.064311878687
 20
1103.1605332097039
 40
25.600000000000001
 41
1
 50
0
  1
B
  0
TEXT
  8
_0-0_
 62
    7
 10
2270.064311878687
 20
1023.335733209704
 40
25.600000000000001
 41
1
 50
0
  1
B
  0
TEXT
  8
_0-0_
 62
    7
 10
2340.7667118786857
 20
1105.7669332097038
 40
25.600000000000001
 41
1
 50
0
  1
C
  0
TEXT
  8
_0-0_
 62
    7
 10
2342.7211118786863
 20
1021.380533209704
 40
25.600000000000001
 41
1
 50
0
  1
C
  0
TEXT
  8
_0-0_
 62
    7
 10
2430.9595118786874
 20
1358.4341332097042
 40
25.600000000000001
 41
1.0588239999999999
 50
90.000003000000674
  1
405
  0
TEXT
  8
_0-0_
 62
    7
 10
2426.6195118786863
 20
945.73893320970364
 40
12.8
 41
1.499999
 50
90.000002999997533
  1
1
  0
TEXT
  8
_0-0_
 62
    7
 10
2426.9571118786866
 20
1262.2365332097037
 40
12.8
 41
1.499999
 50
90.000002999997533
  1
1
  0
TEXT
  8
_0-0_
 62
    7
 10
1383.4235118786866
 20
1785.6925332097039
 40
38.399999999999998
 41
1
 50
0
  1
4
  0
TEXT
  8
_0-0_
 62
    7
 10
2298.1187118786865
 20
1354.046933209704
 40
38.399999999999998
 41
1.499999
 50
0
  1
1
  0
TEXT
  8
_0-0_
 62
    7
 10
2385.6508058656504
 20
2080.2636691407478
 40
38.399999999999998
 41
1
 50
0
  1
5
  0
TEXT
  8
_0-0_
 62
    7
 10
2669.1004158586251
 20
993.50208616398333
 40
25.600000000000001
 41
1.09375
 50
0
  1
SEC A-A
  0
LINE
  8
_0-0_
  6
CONTINUOUS
 62
    7
 10
2667.7154638569145
 20
995.75173320970407
 11
2771.1817801866359
 21
995.75173320970407
  0
TEXT
  8
_0-0_
 62
    7
 10
2230.8342649826022
 20
1832.1294538183929
 40
25.600000000000001
 41
1.1602209999999999
 50
0
  1
SEC B-B
  0
LINE
  8
_0-0_
  6
CONTINUOUS
 62
    7
 10
2231.090022495804
 20
1832.3973332097039
 11
2337.172252749041
 21
1832.3973332097039
  0
TEXT
  8
_0-0_
 62
    7
 10
2579.7375374323546
 20
1832.9171426166626
 40
25.600000000000001
 41
1.1602209999999999
 50
0
  1
SEC C-C
  0
LINE
  8
_0-0_
  6
CONTINUOUS
 62
    7
 10
2579.3770668825713
 20
1832.3973332097039
 11
2686.8632139970636
 21
1832.3973332097039
  0
TEXT
  8
_0-0_
 62
    7
 10
2429.6349660086948
 20
977.27343073014344
 40
25.600000000000001
 41
1.1999999999999999
 50
90.000003000000006
  1
42.5
  0
TEXT
  8
_0-0_
 62
    7
 10
2219.607639705996
 20
1108.8638041530896
 40
38.399999999999998
 41
1
 50
0
  1
7
  0
TEXT
  8
_0-0_
 62
    7
 10
2636.8704757553218
 20
1344.9704604676649
 40
38.399999999999998
 41
1
 50
0
  1
3
  0
TEXT
  8
_0-0_
 62
    7
 10
2764.4393294730566
 20
1129.5477773636177
 40
38.399999999999998
 41
1
 50
0
  1
8
  0
TEXT
  8
_0-0_
 62
    7
 10
1850.6427789868578
 20
1133.5474406916205
 40
38.399999999999998
 41
1
 50
0
  1
2
  0
TEXT
  8
_0-0_
 62
    7
 10
1815.7804074074711
 20
623.78218695945679
 40
38.399999999999998
 41
1
 50
0
  1
6
  0
TEXT
  8
_0-0_
 62
    7
 10
1254.2963118786865
 20
536.11173320970397
 40
25.600000000000001
 41
0.8333329999999999
 50
0
  1
Ｌ＝６００×２段は中間押さえなし
  0
TEXT
  8
_0-0_
 62
    7
 10
1046.8698351383045
 20
962.44933320970403
 40
25.600000000000001
 41
1
 50
0
  1
600,800,900,1000,1200
  0
LINE
  8
_1-0_
  6
CONTINUOUS
 62
    9
 10
2225.0358150325114
 20
345.16244740291097
 11
2225.0358150325114
 21
705.16244740291097
  0
LINE
  8
_1-0_
  6
CONTINUOUS
 62
    9
 10
2442.1786721753683
 20
345.16244740291097
 11
2442.1786721753683
 21
705.16244740291097
  0
LINE
  8
_1-0_
  6
CONTINUOUS
 62
    9
 10
2693.6072436039398
 20
345.16244740291097
 11
2693.6072436039398
 21
705.16244740291097
  0
LINE
  8
_1-0_
  6
CONTINUOUS
 62
    9
 10
2745.0358150325114
 20
345.16244740291097
 11
2745.0358150325114
 21
705.16244740291097
  0
TEXT
  8
_1-0_
 62
    7
 10
2188.8072436039396
 20
672.63673311719674
 40
25.600000000000001
 41
1
 50
0
  1
8
  0
TEXT
  8
_1-0_
 62
    7
 10
2241.4167631467971
 20
672.63673311719674
 40
25.600000000000001
 41
0.8333329999999999
 50
0
  1
中間押え（Ｂ）
  0
TEXT
  8
_1-0_
 62
    7
 10
2454.0643864610829
 20
672.63673311719674
 40
25.600000000000001
 41
1.125
 50
0
  1
A.B.S.
  0
TEXT
  8
_1-0_
 62
    7
 10
2709.2643855467972
 20
672.63673311719674
 40
25.600000000000001
 41
1.499999
 50
0
  1
1
  0
TEXT
  8
_1-0_
 62
    7
 10
2755.3215274896538
 20
672.63673311719674
 40
25.600000000000001
 41
0.8333329999999999
 50
0
  1
指定色
  0
TEXT
  8
_1-0_
 62
    7
 10
2188.8072436039396
 20
632.63673311719674
 40
25.600000000000001
 41
1
 50
0
  1
7
  0
TEXT
  8
_1-0_
 62
    7
 10
2242.9405720610825
 20
632.63673311719674
 40
25.600000000000001
 41
0.8333329999999999
 50
0
  1
パイプ受枠（Ｂ）
  0
TEXT
  8
_1-0_
 62
    7
 10
2454.0643864610829
 20
632.63673311719674
 40
25.600000000000001
 41
1.125
 50
0
  1
A.B.S.
  0
TEXT
  8
_1-0_
 62
    7
 10
2708.8072436039396
 20
632.63673311719674
 40
25.600000000000001
 41
1
 50
0
  1
2
  0
TEXT
  8
_1-0_
 62
    7
 10
2755.3215274896538
 20
632.63673311719674
 40
25.600000000000001
 41
0.8333329999999999
 50
0
  1
指定色
  0
TEXT
  8
_1-0_
 62
    7
 10
2454.2216436039398
 20
595.8531902600539
 40
25.600000000000001
 41
0.7500000000000001
 50
0
  1
M5*L5
  0
TEXT
  8
_1-0_
 62
    7
 10
2188.8072436039396
 20
592.63673311719674
 40
25.600000000000001
 41
1
 50
0
  1
6
  0
TEXT
  8
_1-0_
 62
    7
 10
2241.4167631467971
 20
592.63673311719674
 40
25.600000000000001
 41
0.8333329999999999
 50
0
  1
ＨＳ－くぼみ先
  0
TEXT
  8
_1-0_
 62
    7
 10
2708.8072436039396
 20
592.63673311719674
 40
25.600000000000001
 41
1
 50
0
  1
8
  0
TEXT
  8
_1-0_
 62
    7
 10
2754.4072436039396
 20
592.63673311719674
 40
25.600000000000001
 41
1
 50
0
  1
MFBP
  0
TEXT
  8
_1-0_
 62
    7
 10
2188.8072436039396
 20
552.63673311719674
 40
25.600000000000001
 41
1
 50
0
  1
5
  0
TEXT
  8
_1-0_
 62
    7
 10
2238.3691453182254
 20
552.63673311719674
 40
25.600000000000001
 41
0.8333329999999999
 50
0
  1
スプリング
  0
TEXT
  8
_1-0_
 62
    7
 10
2456.719709889654
 20
552.63673311719674
 40
25.600000000000001
 41
0.8776600000000001
 50
0
  1
SUS302 t0.4
  0
TEXT
  8
_1-0_
 62
    7
 10
2708.8072436039396
 20
552.63673311719674
 40
25.600000000000001
 41
1
 50
0
  1
4
  0
TEXT
  8
_1-0_
 62
    7
 10
2758.3691453182254
 20
552.63673311719674
 40
25.600000000000001
 41
0.8333329999999999
 50
0
  1
光沢バレル
  0
TEXT
  8
_1-0_
 62
    7
 10
2188.8072436039396
 20
512.63673311719674
 40
25.600000000000001
 41
1
 50
0
  1
4
  0
TEXT
  8
_1-0_
 62
    7
 10
2235.3215274896542
 20
512.63673311719674
 40
25.600000000000001
 41
0.8333329999999999
 50
0
  1
パイプ
  0
TEXT
  8
_1-0_
 62
    7
 10
2456.5298209753686
 20
512.63673311719674
 40
25.600000000000001
 41
0.858779
 50
0
  1
SUS304 φ10
  0
TEXT
  8
_1-0_
 62
    7
 10
2699.2072417753684
 20
512.63673311719674
 40
25.600000000000001
 41
1.499999
 50
0
  1
11
  0
TEXT
  8
_1-0_
 62
    7
 10
2188.8072436039396
 20
472.63673311719674
 40
25.600000000000001
 41
1
 50
0
  1
3
  0
TEXT
  8
_1-0_
 62
    7
 10
2241.4167631467971
 20
472.63673311719674
 40
25.600000000000001
 41
0.8333329999999999
 50
0
  1
中間押え（Ａ）
  0
TEXT
  8
_1-0_
 62
    7
 10
2454.0643864610829
 20
472.63673311719674
 40
25.600000000000001
 41
1.125
 50
0
  1
A.B.S.
  0
TEXT
  8
_1-0_
 62
    7
 10
2709.2643855467972
 20
472.63673311719674
 40
25.600000000000001
 41
1.499999
 50
0
  1
1
  0
TEXT
  8
_1-0_
 62
    7
 10
2755.3215274896538
 20
472.63673311719674
 40
25.600000000000001
 41
0.8333329999999999
 50
0
  1
指定色
  0
TEXT
  8
_1-0_
 62
    7
 10
2188.8072436039396
 20
432.63673311719674
 40
25.600000000000001
 41
1
 50
0
  1
2
  0
TEXT
  8
_1-0_
 62
    7
 10
2244.4643809753683
 20
432.63673311719674
 40
25.600000000000001
 41
0.8333329999999999
 50
0
  1
フレーム（２段用）
  0
TEXT
  8
_1-0_
 62
    7
 10
2456.719709889654
 20
432.63673311719674
 40
25.600000000000001
 41
0.8776600000000001
 50
0
  1
SUS430 t2.0
  0
TEXT
  8
_1-0_
 62
    7
 10
2708.8072436039396
 20
432.63673311719674
 40
25.600000000000001
 41
1
 50
0
  1
2
  0
TEXT
  8
_1-0_
 62
    7
 10
2767.51199880394
 20
432.63673311719674
 40
25.600000000000001
 41
0.8333329999999999
 50
0
  1
スポット組立後電解研磨
  0
TEXT
  8
_1-0_
 62
    7
 10
2189.2643855467968
 20
392.63673311719674
 40
25.600000000000001
 41
1.499999
 50
0
  1
1
  0
TEXT
  8
_1-0_
 62
    7
 10
2242.9405720610825
 20
392.63673311719674
 40
25.600000000000001
 41
0.8333329999999999
 50
0
  1
パイプ受枠（Ａ）
  0
TEXT
  8
_1-0_
 62
    7
 10
2454.0643864610829
 20
392.63673311719674
 40
25.600000000000001
 41
1.125
 50
0
  1
A.B.S.
  0
TEXT
  8
_1-0_
 62
    7
 10
2708.8072436039396
 20
392.63673311719674
 40
25.600000000000001
 41
1
 50
0
  1
2
  0
TEXT
  8
_1-0_
 62
    7
 10
2755.3215274896538
 20
392.63673311719674
 40
25.600000000000001
 41
0.8333329999999999
 50
0
  1
指定色
  0
TEXT
  8
_1-0_
 62
    7
 10
2179.5120042896542
 20
352.63673311719674
 40
25.600000000000001
 41
0.8333329999999999
 50
0
  1
記号
  0
TEXT
  8
_1-0_
 62
    7
 10
2303.3215293182256
 20
352.63673311719674
 40
25.600000000000001
 41
1.25
 50
0
  1
部品名
  0
TEXT
  8
_1-0_
 62
    7
 10
2499.3215293182256
 20
352.63673311719674
 40
25.600000000000001
 41
1.25
 50
0
  1
材質・寸法
  0
TEXT
  8
_1-0_
 62
    7
 10
2699.5120042896542
 20
352.63673311719674
 40
25.600000000000001
 41
0.8333329999999999
 50
0
  1
数量
  0
TEXT
  8
_1-0_
 62
    7
 10
2804.6548559467969
 20
352.63673311719674
 40
25.600000000000001
 41
0.8333329999999999
 50
0
  1
仕上・処理・加工・記事
  0
LINE
  8
_1-0_
  6
CONTINUOUS
 62
    9
 10
3082.1786721753683
 20
345.16244740291097
 11
3082.1786721753683
 21
705.16244740291097
  0
LINE
  8
_1-0_
  6
CONTINUOUS
 62
    6
 10
2173.6072436039398
 20
705.16244740291097
 11
2173.6072436039398
 21
345.16244740291097
  0
LINE
  8
_1-0_
  6
CONTINUOUS
 62
    6
 10
2173.6072436039398
 20
345.16244740291097
 11
3082.1786721753683
 21
345.16244740291097
  0
LINE
  8
_1-0_
  6
CONTINUOUS
 62
    9
 10
2173.6072436039398
 20
385.16244740291097
 11
3082.1786721753683
 21
385.16244740291097
  0
LINE
  8
_1-0_
  6
CONTINUOUS
 62
    9
 10
2173.6072436039398
 20
425.16244740291097
 11
3082.1786721753683
 21
425.16244740291097
  0
LINE
  8
_1-0_
  6
CONTINUOUS
 62
    9
 10
2173.6072436039398
 20
465.16244740291097
 11
3082.1786721753683
 21
465.16244740291097
  0
LINE
  8
_1-0_
  6
CONTINUOUS
 62
    9
 10
2173.6072436039398
 20
505.16244740291097
 11
3082.1786721753683
 21
505.16244740291097
  0
LINE
  8
_1-0_
  6
CONTINUOUS
 62
    9
 10
2173.6072436039398
 20
545.16244740291097
 11
3082.1786721753683
 21
545.16244740291097
  0
LINE
  8
_1-0_
  6
CONTINUOUS
 62
    9
 10
2173.6072436039398
 20
585.16244740291097
 11
3082.1786721753683
 21
585.16244740291097
  0
LINE
  8
_1-0_
  6
CONTINUOUS
 62
    9
 10
2173.6072436039398
 20
625.16244740291097
 11
3082.1786721753683
 21
625.16244740291097
  0
LINE
  8
_1-0_
  6
CONTINUOUS
 62
    9
 10
2173.6072436039398
 20
665.16244740291097
 11
3082.1786721753683
 21
665.16244740291097
  0
LINE
  8
_1-0_
  6
CONTINUOUS
 62
    9
 10
2173.6072436039398
 20
705.16244740291097
 11
3082.1786721753683
 21
705.16244740291097
  0
LINE
  8
_e-0_
  6
CONTINUOUS
 62
    7
 10
1799.15969553145
 20
180.4755431850225
 11
1822.4780940920632
 21
188.96274617184155
  0
LINE
  8
_e-0_
  6
CONTINUOUS
 62
    7
 10
1794.2378805204102
 20
174.42743793253578
 11
1834.1733116927141
 21
188.96274617184087
  0
LINE
  8
_e-0_
  6
CONTINUOUS
 62
    7
 10
1791.4963413793709
 20
169.17288819921975
 11
1815.2224257202901
 21
177.80847667500381
  0
LINE
  8
_e-0_
  6
CONTINUOUS
 62
    7
 10
1789.9005169459167
 20
164.33534451642401
 11
1807.297877932925
 21
170.667466070479
  0
LINE
  8
_e-0_
  6
CONTINUOUS
 62
    7
 10
1789.0929124455756
 20
159.78468942733661
 11
1803.6969183526982
 21
165.10011287857707
  0
LINE
  8
_e-0_
  6
CONTINUOUS
 62
    7
 10
1788.9028784262236
 20
155.458811610888
 11
1803.630799507252
 21
160.81933649700431
  0
LINE
  8
_e-0_
  6
CONTINUOUS
 62
    7
 10
1789.237951111271
 20
151.32405700465733
 11
1803.9938825776434
 21
156.69477683728882
  0
LINE
  8
_e-0_
  6
CONTINUOUS
 62
    7
 10
1790.0469568315213
 20
147.3617999162775
 11
1805.1466063707946
 21
152.85762289642434
  0
LINE
  8
_e-0_
  6
CONTINUOUS
 62
    7
 10
1791.3049953613781
 20
143.56297740480158
 11
1807.0609647304768
 21
149.29768126716362
  0
LINE
  8
_e-0_
  6
CONTINUOUS
 62
    7
 10
1793.0073754777156
 20
139.92588200465161
 11
1809.8108797066627
 21
146.04185737535453
  0
LINE
  8
_e-0_
  6
CONTINUOUS
 62
    7
 10
1795.1685584573249
 20
136.45577719012817
 11
1813.6350441183699
 21
143.17702830225243
  0
LINE
  8
_e-0_
  6
CONTINUOUS
 62
    7
 10
1797.825501510237
 20
133.16611428562509
 11
1819.2884224350011
 21
140.97797864264839
  0
LINE
  8
_e-0_
  6
CONTINUOUS
 62
    7
 10
1801.0474066621295
 20
130.08208076863911
 11
1831.7830637584372
 21
141.2689450823077
  0
LINE
  8
_e-0_
  6
CONTINUOUS
 62
    7
 10
1804.9590351324045
 20
127.24908600942535
 11
1827.4785371223003
 21
135.44551442424608
  0
LINE
  8
_e-0_
  6
CONTINUOUS
 62
    7
 10
1827.7988970908747
 20
182.38593790599782
 11
1845.868529293365
 21
188.96274617184224
  0
LINE
  8
_e-0_
  6
CONTINUOUS
 62
    7
 10
1812.5809147631646
 20
172.59033422321851
 11
1854.5718552493517
 21
187.87378666903407
  0
LINE
  8
_e-0_
  6
CONTINUOUS
 62
    7
 10
1822.5866463957597
 20
171.97541161963511
 11
1854.5718552493517
 21
183.61707557913052
  0
LINE
  8
_e-0_
  6
CONTINUOUS
 62
    7
 10
1834.281863996412
 20
171.97541161963511
 11
1854.5718552493517
 21
179.36036448922698
  0
LINE
  8
_e-0_
  6
CONTINUOUS
 62
    7
 10
1837.6310683902199
 20
168.93771123755107
 11
1854.5718552493517
 21
175.10365339932343
  0
LINE
  8
_e-0_
  6
CONTINUOUS
 62
    7
 10
1837.6310683902199
 20
164.68100014764752
 11
1854.5718552493517
 21
170.84694230941943
  0
LINE
  8
_e-0_
  6
CONTINUOUS
 62
    7
 10
1837.6310683902199
 20
160.42428905774386
 11
1854.5718552493517
 21
166.59023121951588
  0
LINE
  8
_e-0_
  6
CONTINUOUS
 62
    7
 10
1837.6310683902199
 20
156.16757796784031
 11
1854.5718552493517
 21
162.33352012961222
  0
LINE
  8
_e-0_
  6
CONTINUOUS
 62
    7
 10
1837.5716293718969
 20
151.88923284451311
 11
1854.5718552493517
 21
158.07680903970867
  0
LINE
  8
_e-0_
  6
CONTINUOUS
 62
    7
 10
1836.6541440652501
 20
147.2985844126133
 11
1854.5718552493517
 21
153.82009794980513
  0
LINE
  8
_e-0_
  6
CONTINUOUS
 62
    7
 10
1834.8469483448066
 20
142.38410787297516
 11
1854.5718552493517
 21
149.56338685990158
  0
LINE
  8
_e-0_
  6
CONTINUOUS
 62
    7
 10
1831.6512602623913
 20
136.96426144307315
 11
1853.6196446255551
 21
144.9600994461839
  0
LINE
  8
_e-0_
  6
CONTINUOUS
 62
    7
 10
1824.728028825393
 20
130.18770018516579
 11
1851.3619683492729
 21
139.88166139310442
  0
LINE
  8
_e-0_
  6
CONTINUOUS
 62
    7
 10
1817.7142474344375
 20
123.37818143930417
 11
1847.4672537819262
 21
134.20739012972353
  0
LINE
  8
_e-0_
  6
CONTINUOUS
 62
    7
 10
1829.841064481754
 20
123.53527079101559
 11
1838.3105180260349
 21
126.61789978163415
  0
LINE
  8
_e-0_
  6
CONTINUOUS
 62
    3
 10
1817.2881251349729
 20
178.91272189956373
 11
1813.990530083641
 21
176.66526465717856
  0
LINE
  8
_e-0_
  6
CONTINUOUS
 62
    3
 10
1830.0404250697356
 20
123.3781814393028
 11
1817.6672721483171
 21
123.3781814393028
  0
ARC
  8
_e-0_
  6
CONTINUOUS
 62
    3
 10
1830.0404250697356
 20
127.3781814393028
 40
4
 50
270
 51
286.20399351045659
  0
LINE
  8
_e-0_
  6
CONTINUOUS
 62
    3
 10
1854.71403998919
 20
188.96274617184087
 11
1854.71403998919
 21
148.67859318667296
  0
ARC
  8
_e-0_
  6
CONTINUOUS
 62
    3
 10
1821.6686839374967
 20
156.18640857001628
 40
34
 50
286.20399351045648
 51
345.50707147989851
  0
ARC
  8
_e-0_
  6
CONTINUOUS
 62
    3
 10
1850.71403998919
 20
148.67859318667296
 40
4
 50
345.50707147989879
 51
0.0000000000000159
  0
ARC
  8
_e-0_
  6
CONTINUOUS
 62
    3
 10
1804.2051423063574
 20
157.25630611245424
 40
32
 50
279.71265316664215
 51
332.69093929010892
  0
ARC
  8
_e-0_
  6
CONTINUOUS
 62
    3
 10
1808.9289399201584
 20
129.65765150568313
 40
4
 50
241.9452628118
 51
279.71265316664221
  0
ARC
  8
_e-0_
  6
CONTINUOUS
 62
    3
 10
1814.7424011534753
 20
184.96274617184087
 40
4
 50
90
 51
106.05338143786269
  0
LINE
  8
_e-0_
  6
CONTINUOUS
 62
    3
 10
1834.8777504483584
 20
188.96274617184064
 11
1826.7055104803337
 21
185.05236087191406
  0
LINE
  8
_e-0_
  6
CONTINUOUS
 62
    3
 10
1826.7055104803337
 20
185.05236087191406
 11
1821.9705179862462
 21
182.01541117400984
  0
LINE
  8
_e-0_
  6
CONTINUOUS
 62
    3
 10
1817.2881251349729
 20
178.91272189956373
 11
1821.9705179862462
 21
182.01541117400995
  0
ARC
  8
_e-0_
  6
CONTINUOUS
 62
    3
 10
1814.7424011534753
 20
184.96274617184087
 40
4
 50
90
 51
106.05338143786269
  0
ARC
  8
_e-0_
  6
CONTINUOUS
 62
    3
 10
1814.7424011534753
 20
184.96274617184087
 40
4
 50
90
 51
106.05338143786269
  0
LINE
  8
_e-0_
  6
CONTINUOUS
 62
    3
 10
1834.8777504483584
 20
188.96274617184087
 11
1814.7424011534753
 21
188.96274617184087
  0
ARC
  8
_e-0_
  6
CONTINUOUS
 62
    3
 10
1823.0383859374321
 20
156.13261199830003
 40
34
 50
106.05338143786271
 51
241.94526281180051
  0
ARC
  8
_e-0_
  6
CONTINUOUS
 62
    3
 10
1814.7424011534753
 20
184.96274617184087
 40
4
 50
90
 51
106.05338143786269
  0
LINE
  8
_e-0_
  6
CONTINUOUS
 62
    3
 10
1843.4685376728652
 20
188.96274617184087
 11
1854.71403998919
 21
188.96274617184087
  0
ARC
  8
_e-0_
  6
CONTINUOUS
 62
    3
 10
1843.4685376728652
 20
184.96274617184087
 40
4
 50
90
 51
112.84552721528329
  0
LINE
  8
_e-0_
  6
CONTINUOUS
 62
    3
 10
1837.7732531300582
 20
171.97541161963374
 11
1819.3448349985546
 21
171.97541161963374
  0
ARC
  8
_e-0_
  6
CONTINUOUS
 62
    3
 10
1819.3448349985546
 20
167.97541161963374
 40
4
 50
90
 51
110.93110431809542
  0
ARC
  8
_e-0_
  6
CONTINUOUS
 62
    3
 10
1807.5143643403869
 20
163.02291095987675
 40
0.4
 50
165.368776721252
 51
224.67319701305797
  0
LINE
  8
_e-0_
  6
CONTINUOUS
 62
    3
 10
1807.229912962631
 20
162.74168611443656
 11
1807.0779579353225
 21
162.89538454320518
  0
ARC
  8
_e-0_
  6
CONTINUOUS
 62
    3
 10
1825.060756612811
 20
153.03124084639648
 40
20
 50
110.93110431809527
 51
150.17701829297226
  0
ARC
  8
_e-0_
  6
CONTINUOUS
 62
    3
 10
1807.3624093130783
 20
163.17660938864537
 40
0.4
 50
224.67319701305652
 51
330.17701829297561
  0
LINE
  8
_e-0_
  6
CONTINUOUS
 62
    3
 10
1841.9155457675856
 20
188.64896593497712
 11
1830.9496666087848
 21
184.02907817402558
  0
LINE
  8
_e-0_
  6
CONTINUOUS
 62
    3
 10
1830.9496666087848
 20
184.02907817402558
 11
1825.8225740245354
 21
181.22891367658587
  0
ARC
  8
_e-0_
  6
CONTINUOUS
 62
    3
 10
1826.4787689126405
 20
158.07201617005557
 40
20
 50
126.05682261028304
 51
165.36877672125814
  0
ARC
  8
_e-0_
  6
CONTINUOUS
 62
    3
 10
1861.753985197844
 20
109.7521084101595
 40
80
 50
116.6886898974924
 51
126.03335467187628
  0
LINE
  8
_e-0_
  6
CONTINUOUS
 62
    3
 10
1813.990530083641
 20
176.66526465717856
 11
1807.6157844690919
 21
170.8613064936211
  0
LINE
  8
_e-0_
  6
CONTINUOUS
 62
    3
 10
1807.6157844690919
 20
170.8613064936211
 11
1806.1396681199041
 21
169.15472945634155
  0
ARC
  8
_e-0_
  6
CONTINUOUS
 62
    3
 10
1823.7704576956566
 20
160.50144394614471
 40
20
 50
169.07329675873063
 51
296.32138326661799
  0
LINE
  8
_e-0_
  6
CONTINUOUS
 62
    3
 10
1806.1396681199041
 20
169.15472945634166
 11
1804.1330481690713
 21
164.2925054182366
  0
LINE
  8
_e-0_
  6
CONTINUOUS
 62
    3
 10
1837.7732531300582
 20
171.97541161963374
 11
1837.7732531300582
 21
152.39922642879082
  0
ARC
  8
_e-0_
  6
CONTINUOUS
 62
    3
 10
1825.9582253346216
 20
136.16454720859519
 40
4
 50
311.4163090429962
 51
326.13300916724881
  0
ARC
  8
_e-0_
  6
CONTINUOUS
 62
    3
 10
1805.9597041870072
 20
155.84858921749628
 40
32
 50
316.78132524618342
 51
353.81191653224226
  0
ARC
  8
_e-0_
  6
CONTINUOUS
 62
    3
 10
1796.8511097137852
 20
169.16115037066731
 40
48
 50
294.69555798319504
 51
311.41630904299643
  0
ARC
  8
_e-0_
  6
CONTINUOUS
 62
    3
 10
1821.6724035816769
 20
183.24435654847059
 40
60
 50
264.68313230529076
 51
266.17253517307824
  0
ARC
  8
_e-0_
  6
CONTINUOUS
 62
    3
 10
1816.1496457734733
 20
123.90078784728848
 40
0.4
 50
174.02086603460466
 51
264.68313230528985
  0
ARC
  8
_e-0_
  6
CONTINUOUS
 62
    3
 10
1817.7409416081895
 20
123.73412181471258
 40
2
 50
114.69555798319522
 51
174.02086603461154
  0
LINE
  8
_e-0_
  6
CONTINUOUS
 62
    7
 10
1905.6429448438564
 20
156.4040755346341
 11
1914.7404640960178
 21
159.71530174808458
  0
LINE
  8
_e-0_
  6
CONTINUOUS
 62
    3
 10
1953.1377700733225
 20
150.96631928229271
 11
1953.1377700733225
 21
130.05196832477395
  0
CIRCLE
  8
_e-0_
  6
CONTINUOUS
 62
    3
 10
1896.5443457570117
 20
150.83016693518175
 40
10.67019036466452
  0
CIRCLE
  8
_e-0_
  6
CONTINUOUS
 62
    3
 10
1896.3173717991116
 20
150.60319297728165
 40
20.553366051118132
  0
LINE
  8
_e-0_
  6
CONTINUOUS
 62
    3
 10
1923.7261206963871
 20
171.46982239905753
 11
1923.7261206963871
 21
130.05196832477395
  0
LINE
  8
_e-0_
  6
CONTINUOUS
 62
    3
 10
1923.7261206963871
 20
130.05196832477395
 11
1936.016495919116
 21
130.05196832477395
  0
LINE
  8
_e-0_
  6
CONTINUOUS
 62
    3
 10
1936.016495919116
 20
130.05196832477395
 11
1936.016495919116
 21
158.96631928229271
  0
LINE
  8
_e-0_
  6
CONTINUOUS
 62
    3
 10
1965.0729321393255
 20
130.05196832477395
 11
1953.1377700733225
 21
130.05196832477395
  0
LINE
  8
_e-0_
  6
CONTINUOUS
 62
    3
 10
1945.1377700733225
 20
158.96631928229271
 11
1936.016495919116
 21
158.96631928229271
  0
ARC
  8
_e-0_
  6
CONTINUOUS
 62
    3
 10
1945.1377700733225
 20
150.96631928229271
 40
8
 50
0
 51
90
  0
LINE
  8
_e-0_
  6
CONTINUOUS
 62
    3
 10
1945.0729321393253
 20
171.46982239905753
 11
1923.7261206963871
 21
171.46982239905753
  0
LINE
  8
_e-0_
  6
CONTINUOUS
 62
    3
 10
1965.0729321393255
 20
151.46982239905764
 11
1965.0729321393255
 21
130.05196832477395
  0
ARC
  8
_e-0_
  6
CONTINUOUS
 62
    3
 10
1945.0729321393253
 20
151.46982239905764
 40
20
 50
0
 51
90
  0
ARC
  8
_e-0_
  6
CONTINUOUS
 62
    3
 10
1993.1271598101998
 20
150.60104944138902
 40
10.67019036466452
 50
23.422555400004949
 51
97.191484740792631
  0
LINE
  8
_e-0_
  6
CONTINUOUS
 62
    3
 10
1983.3362122210314
 20
154.84254772906297
 11
2002.9181073993677
 21
154.84254772906297
  0
ARC
  8
_e-0_
  6
CONTINUOUS
 62
    3
 10
1993.1271598101998
 20
150.60104944138902
 40
10.67019036466452
 50
92.530763017635251
 51
156.57744459999506
  0
ARC
  8
_e-0_
  6
CONTINUOUS
 62
    3
 10
1993.1271598101998
 20
150.60104944138902
 40
10.67019036466452
 50
204.21097500392608
 51
316.0067678116265
  0
LINE
  8
_e-0_
  6
CONTINUOUS
 62
    3
 10
1983.3955025449704
 20
146.22522845667162
 11
2013.3470116011717
 21
146.22522845667162
  0
LINE
  8
_e-0_
  6
CONTINUOUS
 62
    3
 10
2000.8035278891911
 20
143.18981907565193
 11
2011.098344284092
 21
140.6913671234538
  0
ARC
  8
_e-0_
  6
CONTINUOUS
 62
    3
 10
1993.3834207304093
 20
151.11357128180816
 40
20.553366051118132
 50
346.24110979921471
 51
329.53046432565099
  0
ARC
  8
_e-0_
  6
CONTINUOUS
 62
    3
 10
2041.3417985500532
 20
150.57429810496887
 40
8.8718053134943541
 50
94.502189492040685
 51
357.22978420280037
  0
LINE
  8
_e-0_
  6
CONTINUOUS
 62
    3
 10
2049.4032362370985
 20
159.41872799738212
 11
2040.6453867475011
 21
159.41872799738212
  0
LINE
  8
_e-0_
  6
CONTINUOUS
 62
    3
 10
2050.2032362370982
 20
158.61872799738239
 11
2050.2032362370982
 21
150.14551886204753
  0
ARC
  8
_e-0_
  6
CONTINUOUS
 62
    3
 10
2049.4032362370985
 20
158.61872799738239
 40
0.8
 50
0
 51
90
  0
LINE
  8
_e-0_
  6
CONTINUOUS
 62
    3
 10
2043.3072279046223
 20
171.49228928402646
 11
2050.0454133528346
 21
171.49228928402646
  0
ARC
  8
_e-0_
  6
CONTINUOUS
 62
    3
 10
2041.7039798451442
 20
151.00154865097374
 40
20.553366051118132
 50
85.526146014136969
 51
347.40557840019874
  0
LINE
  8
_e-0_
  6
CONTINUOUS
 62
    3
 10
2050.0454133528346
 20
188.16274617184092
 11
2050.0454133528346
 21
171.49228928402646
  0
ARC
  8
_e-0_
  6
CONTINUOUS
 62
    3
 10
2050.8454133528348
 20
188.16274617184092
 40
0.8
 50
90
 51
180
  0
LINE
  8
_e-0_
  6
CONTINUOUS
 62
    3
 10
2061.7627907212699
 20
188.16274617184092
 11
2061.7627907212699
 21
146.51992369265053
  0
LINE
  8
_e-0_
  6
CONTINUOUS
 62
    3
 10
2060.9627907212702
 20
188.96274617184087
 11
2050.8454133528348
 21
188.96274617184087
  0
ARC
  8
_e-0_
  6
CONTINUOUS
 62
    3
 10
2060.9627907212702
 20
188.16274617184092
 40
0.8
 50
0
 51
90
  0
CIRCLE
  8
_e-0_
  6
CONTINUOUS
 62
    3
 10
2090.1255789798478
 20
150.9546895112785
 40
10.67019036466452
  0
CIRCLE
  8
_e-0_
  6
CONTINUOUS
 62
    3
 10
2089.8986050219477
 20
150.7277155533784
 40
20.553366051118132
  0
ARC
  8
_e-0_
  6
CONTINUOUS
 62
    3
 10
1893.1754669792758
 20
167.70869102623703
 40
4
 50
90
 51
106.05338143786269
  0
ARC
  8
_e-0_
  6
CONTINUOUS
 62
    3
 10
1893.1754669792758
 20
167.70869102623703
 40
4
 50
90
 51
106.05338143786269
  0
ARC
  8
_e-0_
  6
CONTINUOUS
 62
    3
 10
1893.1754669792758
 20
167.70869102623703
 40
4
 50
90
 51
106.05338143786269
  0
ARC
  8
_e-0_
  6
CONTINUOUS
 62
    3
 10
1893.1754669792758
 20
167.70869102623703
 40
4
 50
90
 51
106.05338143786269
  0
LINE
  8
_e-0_
  6
CONTINUOUS
 62
    7
 10
1881.2086156626621
 20
164.53755137803193
 11
1898.9345175509452
 21
170.98925204088993
  0
LINE
  8
_e-0_
  6
CONTINUOUS
 62
    7
 10
1893.1241563622725
 20
164.61774242797366
 11
1905.3474189652451
 21
169.06664618107504
  0
LINE
  8
_e-0_
  6
CONTINUOUS
 62
    7
 10
1877.5318753949675
 20
158.94261627155947
 11
1893.1241563622725
 21
164.61774242797366
  0
LINE
  8
_e-0_
  6
CONTINUOUS
 62
    7
 10
1876.0732238310681
 20
154.15499943023041
 11
1889.919484854834
 21
159.1946262987617
  0
LINE
  8
_e-0_
  6
CONTINUOUS
 62
    7
 10
1875.7800366403625
 20
149.79157692984199
 11
1886.2395327203262
 21
153.59852216837271
  0
LINE
  8
_e-0_
  6
CONTINUOUS
 62
    7
 10
1876.3473137040109
 20
145.74133780568809
 11
1885.9915751011137
 21
149.251561885716
  0
LINE
  8
_e-0_
  6
CONTINUOUS
 62
    7
 10
1877.6673371960962
 20
141.96507597543586
 11
1887.3145170390364
 21
145.47636228287865
  0
LINE
  8
_e-0_
  6
CONTINUOUS
 62
    7
 10
1879.7342544954665
 20
138.46066125919287
 11
1890.182906253118
 21
142.26365948719103
  0
LINE
  8
_e-0_
  6
CONTINUOUS
 62
    7
 10
1882.6398831301016
 20
135.26151250412794
 11
1896.1213476887248
 21
140.16836431778119
  0
LINE
  8
_e-0_
  6
CONTINUOUS
 62
    7
 10
1886.6510546805061
 20
132.46474846310684
 11
1904.3337316321108
 21
138.90071653563609
  0
LINE
  8
_e-0_
  6
CONTINUOUS
 62
    7
 10
1892.628357700282
 20
130.38359775359094
 11
1904.3766337281679
 21
134.65962053168459
  0
LINE
  8
_e-0_
  6
CONTINUOUS
 62
    7
 10
1904.3766337281679
 20
134.65962053168459
 11
1912.1402258327732
 21
137.48533696874528
  0
LINE
  8
_e-0_
  6
CONTINUOUS
 62
    7
 10
1903.6510743720484
 20
138.65224961276771
 11
1915.381367705944
 21
142.92172722551686
  0
LINE
  8
_e-0_
  6
CONTINUOUS
 62
    7
 10
1903.7216556960615
 20
142.93465020370695
 11
1916.6563781097431
 21
147.64250415078277
  0
LINE
  8
_e-0_
  6
CONTINUOUS
 62
    7
 10
1906.923935985063
 20
148.35689600058458
 11
1916.8258455977727
 21
151.96089636200531
  0
LINE
  8
_e-0_
  6
CONTINUOUS
 62
    7
 10
1907.056164052539
 20
152.66173417118397
 11
1916.1566017505376
 21
155.97402261204933
  0
LINE
  8
_e-0_
  6
CONTINUOUS
 62
    7
 10
1896.2427127969253
 20
161.49609305416288
 11
1909.5422316757499
 21
166.33672205611662
  0
LINE
  8
_e-0_
  6
CONTINUOUS
 62
    7
 10
1902.6588260780386
 20
159.57465621826486
 11
1912.5715800130606
 21
163.18260359021769
  0
LINE
  8
_e-0_
  6
CONTINUOUS
 62
    7
 10
1923.7261206963871
 20
167.24252437585994
 11
1935.3405265604278
 21
171.46982239905753
  0
LINE
  8
_e-0_
  6
CONTINUOUS
 62
    7
 10
1923.7261206963871
 20
162.98581328595628
 11
1946.8245867459509
 21
171.3929673852059
  0
LINE
  8
_e-0_
  6
CONTINUOUS
 62
    7
 10
1923.7261206963871
 20
158.72910219605273
 11
1953.5503991546345
 21
169.58425181332142
  0
LINE
  8
_e-0_
  6
CONTINUOUS
 62
    7
 10
1923.7261206963871
 20
154.47239110614918
 11
1957.8197538826655
 21
166.88145876394457
  0
LINE
  8
_e-0_
  6
CONTINUOUS
 62
    7
 10
1923.7261206963871
 20
150.21568001624564
 11
1936.016495919116
 21
154.68901076528163
  0
LINE
  8
_e-0_
  6
CONTINUOUS
 62
    7
 10
1947.0981579390802
 20
158.72240588674685
 11
1960.8704782123877
 21
163.73512052301111
  0
LINE
  8
_e-0_
  6
CONTINUOUS
 62
    7
 10
1923.7261206963871
 20
145.95896892634209
 11
1936.016495919116
 21
150.43229967537808
  0
LINE
  8
_e-0_
  6
CONTINUOUS
 62
    7
 10
1926.8028661349376
 20
130.05196832477395
 11
1936.016495919116
 21
133.40545531576344
  0
LINE
  8
_e-0_
  6
CONTINUOUS
 62
    7
 10
1923.7261206963871
 20
133.18883565663099
 11
1936.016495919116
 21
137.66216640566744
  0
LINE
  8
_e-0_
  6
CONTINUOUS
 62
    7
 10
1923.7261206963871
 20
137.445546746535
 11
1936.016495919116
 21
141.91887749557099
  0
LINE
  8
_e-0_
  6
CONTINUOUS
 62
    7
 10
1923.7261206963871
 20
141.70225783643854
 11
1936.016495919116
 21
146.17558858547454
  0
LINE
  8
_e-0_
  6
CONTINUOUS
 62
    7
 10
1953.1377700733225
 20
148.15051166041303
 11
1965.0729321393255
 21
152.49455539358086
  0
LINE
  8
_e-0_
  6
CONTINUOUS
 62
    7
 10
1953.1377700733225
 20
143.89380057050948
 11
1965.0729321393255
 21
148.23784430367732
  0
LINE
  8
_e-0_
  6
CONTINUOUS
 62
    7
 10
1953.0149893684938
 20
152.36253422841673
 11
1964.4259256662808
 21
156.51577538591891
  0
LINE
  8
_e-0_
  6
CONTINUOUS
 62
    7
 10
1953.1377700733225
 20
139.63708948060593
 11
1965.0729321393255
 21
143.98113321377377
  0
LINE
  8
_e-0_
  6
CONTINUOUS
 62
    7
 10
1953.1377700733225
 20
135.38037839070238
 11
1965.0729321393255
 21
139.72442212387022
  0
LINE
  8
_e-0_
  6
CONTINUOUS
 62
    7
 10
1953.1377700733225
 20
131.12366730079838
 11
1965.0729321393255
 21
135.46771103396667
  0
LINE
  8
_e-0_
  6
CONTINUOUS
 62
    7
 10
1961.8885189368954
 20
130.05196832477395
 11
1965.0729321393255
 21
131.21099994406267
  0
LINE
  8
_e-0_
  6
CONTINUOUS
 62
    7
 10
1951.3460732406733
 20
156.01180952430695
 11
1963.0347003106967
 21
160.26612185723342
  0
LINE
  8
_e-0_
  6
CONTINUOUS
 62
    7
 10
1979.481658721248
 20
166.25232516288804
 11
1994.3017848462382
 21
171.64640994045487
  0
LINE
  8
_e-0_
  6
CONTINUOUS
 62
    7
 10
1975.0362624312069
 20
160.37762214389204
 11
2001.4833422828842
 21
170.00357199316374
  0
LINE
  8
_e-0_
  6
CONTINUOUS
 62
    7
 10
1973.3012705854544
 20
155.48942566543973
 11
2005.9544952752421
 21
167.37422750532857
  0
LINE
  8
_e-0_
  6
CONTINUOUS
 62
    7
 10
1973.3303449058316
 20
151.24329676273509
 11
1983.322525053783
 21
154.88015291201509
  0
LINE
  8
_e-0_
  6
CONTINUOUS
 62
    7
 10
1997.8516166210242
 20
160.16830977341851
 11
2009.1618056823317
 21
164.28488193565783
  0
LINE
  8
_e-0_
  6
CONTINUOUS
 62
    7
 10
2001.4851336038009
 20
157.23409071094647
 11
2011.4737448169212
 21
160.86964787417991
  0
LINE
  8
_e-0_
  6
CONTINUOUS
 62
    7
 10
1974.6984254791341
 20
147.48452627959159
 11
1994.9144232634203
 21
154.84254772906297
  0
LINE
  8
_e-0_
  6
CONTINUOUS
 62
    7
 10
1974.4420548838816
 20
143.13450392407503
 11
2013.022194416631
 21
157.17652634783189
  0
LINE
  8
_e-0_
  6
CONTINUOUS
 62
    7
 10
1976.3711847013269
 20
139.57993866575679
 11
1985.6736257666566
 21
142.96575031955217
  0
LINE
  8
_e-0_
  6
CONTINUOUS
 62
    7
 10
1994.6289683475988
 20
146.22522845667162
 11
2013.8292257457906
 21
153.21355063986266
  0
LINE
  8
_e-0_
  6
CONTINUOUS
 62
    7
 10
2006.3241859482513
 20
146.22522845667162
 11
2013.8230810063378
 21
148.95460304770085
  0
LINE
  8
_e-0_
  6
CONTINUOUS
 62
    7
 10
1979.113490587385
 20
136.32134529163113
 11
1990.1749625942134
 21
140.34739184928548
  0
LINE
  8
_e-0_
  6
CONTINUOUS
 62
    7
 10
1982.8916377773243
 20
133.43976731954217
 11
2006.1288404803767
 21
141.89741743106287
  0
LINE
  8
_e-0_
  6
CONTINUOUS
 62
    7
 10
1988.3765109640426
 20
131.17938680832867
 11
2010.0323829228905
 21
139.06147959842928
  0
LINE
  8
_e-0_
  6
CONTINUOUS
 62
    7
 10
2046.2294865899184
 20
130.95259245035686
 11
2051.1244611839165
 21
132.73421750006127
  0
LINE
  8
_e-0_
  6
CONTINUOUS
 62
    7
 10
2035.6519653973673
 20
131.35940067385172
 11
2058.9658212298627
 21
139.84495024285342
  0
LINE
  8
_e-0_
  6
CONTINUOUS
 62
    7
 10
2030.5290953885596
 20
133.75153956653457
 11
2061.3525300920655
 21
144.97035231645804
  0
LINE
  8
_e-0_
  6
CONTINUOUS
 62
    7
 10
2021.7964428000009
 20
156.11338049753339
 11
2061.7627907212699
 21
170.65994151320171
  0
LINE
  8
_e-0_
  6
CONTINUOUS
 62
    7
 10
2023.8026976998294
 20
161.1003086533251
 11
2061.7627907212699
 21
174.91665260310526
  0
LINE
  8
_e-0_
  6
CONTINUOUS
 62
    7
 10
2050.0454133528346
 20
187.67872037694507
 11
2053.5732452303086
 21
188.96274617184087
  0
LINE
  8
_e-0_
  6
CONTINUOUS
 62
    7
 10
2050.0454133528346
 20
183.42200928704153
 11
2061.7627907212699
 21
187.68678587281613
  0
LINE
  8
_e-0_
  6
CONTINUOUS
 62
    7
 10
2050.0454133528346
 20
179.16529819713775
 11
2061.7627907212699
 21
183.43007478291258
  0
LINE
  8
_e-0_
  6
CONTINUOUS
 62
    7
 10
2050.0454133528346
 20
174.90858710723398
 11
2061.7627907212699
 21
179.17336369300903
  0
LINE
  8
_e-0_
  6
CONTINUOUS
 62
    7
 10
2029.2189769003862
 20
167.32838415270646
 11
2040.7733594073965
 21
171.53383546058432
  0
LINE
  8
_e-0_
  6
CONTINUOUS
 62
    7
 10
2042.57302801994
 20
159.41872799738212
 11
2061.7627907212699
 21
166.40323042329816
  0
LINE
  8
_e-0_
  6
CONTINUOUS
 62
    7
 10
2021.1600731486878
 20
151.62504979656114
 11
2034.8311180695477
 21
156.60090321907046
  0
LINE
  8
_e-0_
  6
CONTINUOUS
 62
    7
 10
2021.4552799350876
 20
147.47578518986074
 11
2032.5186866222093
 21
151.50253591355431
  0
LINE
  8
_e-0_
  6
CONTINUOUS
 62
    7
 10
2022.5261604849429
 20
143.60884274455884
 11
2033.0433127550422
 21
147.43677312012005
  0
LINE
  8
_e-0_
  6
CONTINUOUS
 62
    7
 10
2024.3360261792245
 20
140.01086889539328
 11
2035.3593420170927
 21
144.02302774329245
  0
LINE
  8
_e-0_
  6
CONTINUOUS
 62
    7
 10
2026.9403363024048
 20
136.7020491711255
 11
2040.7358609747477
 21
141.72320951794335
  0
LINE
  8
_e-0_
  6
CONTINUOUS
 62
    7
 10
2047.495343738471
 20
144.18346004297382
 11
2061.7627907212699
 21
149.37638606368363
  0
LINE
  8
_e-0_
  6
CONTINUOUS
 62
    7
 10
2050.1357015495209
 20
149.40118278391173
 11
2061.7627907212699
 21
153.63309715358718
  0
LINE
  8
_e-0_
  6
CONTINUOUS
 62
    7
 10
2050.2032362370982
 20
153.68247448987403
 11
2061.7627907212699
 21
157.88980824349073
  0
LINE
  8
_e-0_
  6
CONTINUOUS
 62
    7
 10
2050.2032362370982
 20
157.93918557977758
 11
2061.7627907212699
 21
162.14651933339428
  0
LINE
  8
_e-0_
  6
CONTINUOUS
 62
    7
 10
2080.248361571269
 20
168.87471688621292
 11
2085.6264527823745
 21
170.8321820042239
  0
LINE
  8
_e-0_
  6
CONTINUOUS
 62
    7
 10
2072.6058681509239
 20
161.8363656757283
 11
2096.0051073493254
 21
170.35299224842094
  0
LINE
  8
_e-0_
  6
CONTINUOUS
 62
    7
 10
2090.9454453140697
 20
130.20102606300906
 11
2102.2909805056269
 21
134.33046316455511
  0
LINE
  8
_e-0_
  6
CONTINUOUS
 62
    7
 10
2082.7265322348339
 20
131.46629743404946
 11
2107.7737324382569
 21
140.58273275980172
  0
LINE
  8
_e-0_
  6
CONTINUOUS
 62
    7
 10
2070.2374250171033
 20
156.717611783562
 11
2101.109711629751
 21
167.95420517430022
  0
LINE
  8
_e-0_
  6
CONTINUOUS
 62
    7
 10
2077.9684061806133
 20
133.99119226933044
 11
2109.7956973458726
 21
145.57537889080822
  0
LINE
  8
_e-0_
  6
CONTINUOUS
 62
    7
 10
2074.5865909892081
 20
137.01702329177305
 11
2085.9278408684017
 21
141.14490066717507
  0
LINE
  8
_e-0_
  6
CONTINUOUS
 62
    7
 10
2072.1384948217432
 20
140.38270024609846
 11
2082.0436981254465
 21
143.98789941300174
  0
LINE
  8
_e-0_
  6
CONTINUOUS
 62
    7
 10
2070.4668153031352
 20
144.03096974999652
 11
2080.0265657212776
 21
147.51043434921393
  0
LINE
  8
_e-0_
  6
CONTINUOUS
 62
    7
 10
2069.5340512115335
 20
147.94818247496459
 11
2079.4728929232223
 21
151.56562502110273
  0
LINE
  8
_e-0_
  6
CONTINUOUS
 62
    7
 10
2069.3948012889891
 20
152.15421073793822
 11
2080.9192226082459
 21
156.34875706529055
  0
LINE
  8
_e-0_
  6
CONTINUOUS
 62
    7
 10
2093.7108173301553
 20
161.00451679286197
 11
2104.6884965044705
 21
165.00006525363653
  0
LINE
  8
_e-0_
  6
CONTINUOUS
 62
    7
 10
2097.8933081617838
 20
158.27010787076233
 11
2107.2854077285314
 21
161.68855255032303
  0
LINE
  8
_e-0_
  6
CONTINUOUS
 62
    7
 10
2100.0757965103339
 20
154.80775757636365
 11
2109.0888047835346
 21
158.08822430900363
  0
LINE
  8
_e-0_
  6
CONTINUOUS
 62
    7
 10
2100.7948252527703
 20
150.81275154628883
 11
2110.153286411532
 21
154.21895284661422
  0
LINE
  8
_e-0_
  6
CONTINUOUS
 62
    7
 10
2099.64684365642
 20
146.13820932582848
 11
2110.4413513906724
 21
150.06708883465262
  0
TEXT
  8
_e-0_
 62
    7
 10
2118.417897376195
 20
165.30979580173413
 40
28
 41
0.5714285714285713
 50
0
  1
ワンド
  0
TEXT
  8
_e-0_
 62
    7
 10
2123.8945593281041
 20
138.47415223737743
 40
24
 41
0.6666666666666666
 50
0
  1
株式
  0
TEXT
  8
_e-0_
 62
    7
 10
2123.3468931329134
 20
116.01983823454884
 40
24
 41
0.6666666666666666
 50
0
  1
会社
  0
TEXT
  8
_f-1_
 62
    7
 10
1356.2317596566522
 20
130.01716738197433
 40
36
 41
0.6666666666666666
 50
0
  1
水切棚　２段
  0
TEXT
  8
_f-1_
 62
    7
 10
2439.5112164767301
 20
134.85981934213805
 40
28
 41
0.5714285714285713
 50
0
  1
２０２３．０５．０１
  0
ENDSEC
  0
EOF
