  0
SECTION
  2
HEADER
  9
$ACADVER
  1
AC1009
  9
$INSBASE
 10
0
 20
0
 30
0
  9
$EXTMIN
 10
0
 20
0
  9
$EXTMAX
 10
3360
 20
2376
  9
$LIMMIN
 10
0
 20
0
  9
$LIMMAX
 10
3360
 20
2376
  9
$LTSCALE
 40
8
  0
ENDSEC
  0
SECTION
  2
TABLES
  0
TABLE
  2
LTYPE
 70
     9
  0
LTYPE
  2
CONTINUOUS
 70
    64
  3
実線
 72
    65
 73
     0
 40
0.0
  0
LTYPE
  2
DASHED1
 70
    64
  3
--  --  --  --  --  --  --  --  
 72
    65
 73
     2
 40
2.5
 49
1.25
 49
-1.25
  0
LTYPE
  2
DASHED2
 70
    64
  3
----    ----    ----    ----    
 72
    65
 73
     2
 40
5.0
 49
2.5
 49
-2.5
  0
LTYPE
  2
DASHED3
 70
    64
  3
------  ------  ------  ------  
 72
    65
 73
     2
 40
5.0
 49
3.75
 49
-1.25
  0
LTYPE
  2
CENTER1
 70
    64
  3
----- - ----- - ----- - ----- - 
 72
    65
 73
     4
 40
10.0
 49
6.25
 49
-1.25
 49
1.25
 49
-1.25
  0
LTYPE
  2
CENTER2
 70
    64
  3
----------  --  ----------  --  
 72
    65
 73
     4
 40
20.0
 49
12.5
 49
-2.5
 49
2.5
 49
-2.5
  0
LTYPE
  2
PHANTOM1
 70
    64
  3
--- - - --- - - --- - - --- - - 
 72
    65
 73
     6
 40
10.0
 49
3.25
 49
-1.25
 49
1.25
 49
-1.25
 49
1.25
 49
-1.25
  0
LTYPE
  2
PHANTOM2
 70
    64
  3
--------  -  -  --------  -  -  
 72
    65
 73
     6
 40
20.0
 49
10.0
 49
-2.5
 49
1.25
 49
-2.5
 49
1.25
 49
-2.5
  0
LTYPE
  2
DOT
 70
    64
  3
-   -   -   -   -   -   -   -   
 72
    65
 73
     2
 40
2.5
 49
0.625
 49
-1.875
  0
LTYPE
  2
DUMMY
 70
    64
  3
ダミー
 72
    65
 73
     0
 40
0.0
  0
LTYPE
  2
RAND1
 70
    64
  3
ランダム線1
 72
    65
 73
     4
 40
10.0
 49
1.0
 49
-2.0
 49
3.0
 49
-4.0
  0
LTYPE
  2
RAND2
 70
    64
  3
ランダム線2
 72
    65
 73
     4
 40
14.0
 49
2.0
 49
-3.0
 49
4.0
 49
-5.0
  0
LTYPE
  2
RAND3
 70
    64
  3
ランダム線3
 72
    65
 73
     4
 40
18.0
 49
3.0
 49
-4.0
 49
5.0
 49
-6.0
  0
LTYPE
  2
RAND4
 70
    64
  3
ランダム線4
 72
    65
 73
     4
 40
22.0
 49
4.0
 49
-5.0
 49
6.0
 49
-7.0
  0
LTYPE
  2
RAND5
 70
    64
  3
ランダム線5
 72
    65
 73
     4
 40
26.0
 49
5.0
 49
-6.0
 49
7.0
 49
-8.0
  0
LTYPE
  2
LONG1
 70
    64
  3
----------  --  ----------  --  
 72
    65
 73
     4
 40
40.0
 49
32.5
 49
-2.5
 49
2.5
 49
-2.5
  0
LTYPE
  2
LONG2
 70
    64
  3
--------  -  -  --------  -  -  
 72
    65
 73
     6
 40
40.0
 49
30.0
 49
-2.5
 49
1.25
 49
-2.5
 49
1.25
 49
-2.5
  0
LTYPE
  2
LONG3
 70
    64
  3
+++++++++++++++..+++++++++++++++
 72
    65
 73
     2
 40
40.0
 49
37.5
 49
-2.5
  0
LTYPE
  2
LONG4
 70
    64
  3
+++++++++++++++..+++++++++++++++
 72
    65
 73
     2
 40
80.0
 49
75.0
 49
-5.0
  0
LTYPE
  2
LONG5
 70
    64
  3
----------  --  ----------  --  
 72
    65
 73
     4
 40
60.0
 49
37.5
 49
-7.5
 49
7.5
 49
-7.5
  0
LTYPE
  2
dashed
 70
   64
  3
-------   -------------   ------
 72
   65
 73
    2
 40
7.5
 49
6
 49
-1.5
  0
LTYPE
  2
dashed_spaced
 70
   64
  3
----        --------        ----
 72
   65
 73
    2
 40
12
 49
6
 49
-6
  0
LTYPE
  2
long_dashed_dotted
 70
   64
  3
------------- --- --------------
 72
   65
 73
    4
 40
15.25
 49
12
 49
-1.5
 49
0.25
 49
-1.5
  0
LTYPE
  2
long_dashed_double-dotted
 70
   64
  3
----------- --- --- ------------
 72
   65
 73
    6
 40
17
 49
12
 49
-1.5
 49
0.25
 49
-1.5
 49
0.25
 49
-1.5
  0
LTYPE
  2
long_dashed_triplicate-dotted
 70
   64
  3
--------- --- --- --- ----------
 72
   65
 73
    8
 40
18.75
 49
12
 49
-1.5
 49
0.25
 49
-1.5
 49
0.25
 49
-1.5
 49
0.25
 49
-1.5
  0
LTYPE
  2
dotted
 70
   64
  3
   -       -       -       -    
 72
   65
 73
    2
 40
1.75
 49
0.25
 49
-1.5
  0
LTYPE
  2
chain
 70
   64
  3
-------------- -- --------------
 72
   65
 73
    4
 40
18.5
 49
12
 49
-1.5
 49
3.5
 49
-1.5
  0
LTYPE
  2
chain_double_dash
 70
   64
  3
------------ -- -- -------------
 72
   65
 73
    6
 40
23.5
 49
12
 49
-1.5
 49
3.5
 49
-1.5
 49
3.5
 49
-1.5
  0
LTYPE
  2
dashed_dotted
 70
   64
  3
-----------     -     ----------
 72
   65
 73
    4
 40
9.25
 49
6
 49
-1.5
 49
0.25
 49
-1.5
  0
LTYPE
  2
double-dashed_dotted
 70
   64
  3
------   -----------   -   -----
 72
   65
 73
    6
 40
16.75
 49
6
 49
-1.5
 49
6
 49
-1.5
 49
0.25
 49
-1.5
  0
LTYPE
  2
dashed_double-dotted
 70
   64
  3
---------    -    -    ---------
 72
   65
 73
    6
 40
11
 49
6
 49
-1.5
 49
0.25
 49
-1.5
 49
0.25
 49
-1.5
  0
LTYPE
  2
double-dashed_double-dotted
 70
   64
  3
-----   ---------   -   -   ----
 72
   65
 73
    8
 40
18.5
 49
6
 49
-1.5
 49
6
 49
-1.5
 49
0.25
 49
-1.5
 49
0.25
 49
-1.5
  0
LTYPE
  2
dashed_triplicate-dotted
 70
   64
  3
-------    -    -    -    ------
 72
   65
 73
    8
 40
12.75
 49
6
 49
-1.5
 49
0.25
 49
-1.5
 49
0.25
 49
-1.5
 49
0.25
 49
-1.5
  0
LTYPE
  2
double-dashed_triplicate-dotted
 70
   64
  3
-----  ---------  -  -  -  -----
 72
   65
 73
   10
 40
20.25
 49
6
 49
-1.5
 49
6
 49
-1.5
 49
0.25
 49
-1.5
 49
0.25
 49
-1.5
 49
0.25
 49
-1.5
  0
LTYPE
  2
undefined
 70
   64
  3
--------------------------------
 72
   65
 73
    0
 40
0
  0
LTYPE
  2
_
 70
   64
  3
                                
 72
   65
 73
    0
 40
0
  0
LTYPE
  2
__18
 70
   64
  3
                                
 72
   65
 73
    0
 40
0
  0
LTYPE
  2
__19
 70
   64
  3
                                
 72
   65
 73
    0
 40
0
  0
LTYPE
  2
__20
 70
   64
  3
                                
 72
   65
 73
    0
 40
0
  0
LTYPE
  2
__21
 70
   64
  3
                                
 72
   65
 73
    0
 40
0
  0
LTYPE
  2
__22
 70
   64
  3
                                
 72
   65
 73
    0
 40
0
  0
LTYPE
  2
__23
 70
   64
  3
                                
 72
   65
 73
    0
 40
0
  0
LTYPE
  2
__24
 70
   64
  3
                                
 72
   65
 73
    0
 40
0
  0
LTYPE
  2
__25
 70
   64
  3
                                
 72
   65
 73
    0
 40
0
  0
LTYPE
  2
__26
 70
   64
  3
                                
 72
   65
 73
    0
 40
0
  0
LTYPE
  2
__27
 70
   64
  3
                                
 72
   65
 73
    0
 40
0
  0
LTYPE
  2
__28
 70
   64
  3
                                
 72
   65
 73
    0
 40
0
  0
LTYPE
  2
__29
 70
   64
  3
                                
 72
   65
 73
    0
 40
0
  0
LTYPE
  2
__30
 70
   64
  3
                                
 72
   65
 73
    0
 40
0
  0
LTYPE
  2
__31
 70
   64
  3
                                
 72
   65
 73
    0
 40
0
  0
LTYPE
  2
__32
 70
   64
  3
                                
 72
   65
 73
    0
 40
0
  0
ENDTAB
  0
TABLE
  2
STYLE
  5
3
100
AcDbSymbolTable
 70
     1
  0
STYLE
  5
10
100
AcDbSymbolTableRecord
100
AcDbTextStyleTableRecord
  2
STANDARD
 70
     0
 40
0.0
 41
1.0
 50
0.0
 71
     0
 42
0.2
  3
txt
  4
bigfont.shx
  0
STYLE
  5
26
100
AcDbSymbolTableRecord
100
AcDbTextStyleTableRecord
  2
TATEGAKI
 70
    68
 40
0.0
 41
1.0
 50
0.0
 71
     0
 42
1.0
  3
txt
  4
bigfont.shx
  0
ENDTAB
  0
TABLE
  2
LAYER
 70
   10
  0
LAYER
  2
_0-0_
 70
   64
 62
    7
  6
CONTINUOUS
  0
LAYER
  2
_0-1_
 70
   64
 62
    7
  6
CONTINUOUS
  0
LAYER
  2
_1-2_
 70
   64
 62
    7
  6
CONTINUOUS
  0
LAYER
  2
_2-0_
 70
   64
 62
    7
  6
CONTINUOUS
  0
LAYER
  2
_e-0_
 70
   64
 62
    7
  6
CONTINUOUS
  0
LAYER
  2
_f-7_
 70
   64
 62
    7
  6
CONTINUOUS
  0
LAYER
  2
_f-8_
 70
   64
 62
    7
  6
CONTINUOUS
  0
LAYER
  2
_f-9_
 70
   64
 62
    7
  6
CONTINUOUS
  0
LAYER
  2
_f-d_固定文字
 70
   64
 62
    7
  6
CONTINUOUS
  0
LAYER
  2
ADD_LINE
 70
   64
 62
    7
  6
CONTINUOUS
  0
ENDTAB
  0
ENDSEC
  0
SECTION
  2
BLOCKS
  0
ENDSEC
  0
SECTION
  2
ENTITIES
  0
LINE
  8
_0-0_
  6
CONTINUOUS
 62
    7
 10
688.37953641293074
 20
1724.5
 11
1285.3795364129312
 21
1724.5
  0
LINE
  8
_f-8_
  6
CONTINUOUS
 62
    7
 10
1732
 20
2297.5999999999999
 11
1732.92
 21
2299.2000000000002
  0
LINE
  8
_f-8_
  6
CONTINUOUS
 62
    7
 10
1726.912
 20
2301.5999999999999
 11
1732
 21
2292.8000000000001
  0
LINE
  8
_f-8_
  6
CONTINUOUS
 62
    7
 10
1732
 20
2292.8000000000001
 11
1737.0799999999999
 21
2301.5999999999999
  0
LINE
  8
_f-8_
  6
CONTINUOUS
 62
    7
 10
1732
 20
2288
 11
1741.2319999999999
 21
2304
  0
LINE
  8
_f-8_
  6
CONTINUOUS
 62
    7
 10
1722.7599999999999
 20
2304
 11
1732
 21
2288
  0
LINE
  8
_f-8_
  6
CONTINUOUS
 62
    7
 10
1741.2319999999999
 20
2304
 11
1722.7599999999999
 21
2304
  0
LINE
  8
_f-8_
  6
CONTINUOUS
 62
    7
 10
1731.0720000000001
 20
2299.2000000000002
 11
1732
 21
2297.5999999999999
  0
LINE
  8
_f-8_
  6
CONTINUOUS
 62
    7
 10
1732.92
 20
2299.2000000000002
 11
1731.0720000000001
 21
2299.2000000000002
  0
LINE
  8
_f-8_
  6
CONTINUOUS
 62
    7
 10
1737.0799999999999
 20
2301.5999999999999
 11
1726.912
 21
2301.5999999999999
  0
LINE
  8
_f-9_
  6
CONTINUOUS
 62
    7
 10
504
 20
96
 11
504
 21
176
  0
LINE
  8
_f-9_
  6
CONTINUOUS
 62
    7
 10
136
 20
96
 11
488
 21
96
  0
LINE
  8
_f-9_
  6
CONTINUOUS
 62
    7
 10
136
 20
176
 11
488
 21
176
  0
LINE
  8
_f-9_
  6
CONTINUOUS
 62
    7
 10
1136
 20
96
 11
1136
 21
176
  0
LINE
  8
_f-9_
  6
CONTINUOUS
 62
    7
 10
1768
 20
96
 11
1768
 21
176
  0
LINE
  8
_f-9_
  6
CONTINUOUS
 62
    7
 10
1776
 20
96
 11
1776
 21
176
  0
LINE
  8
_f-9_
  6
CONTINUOUS
 62
    7
 10
504
 20
96
 11
1768
 21
96
  0
LINE
  8
_f-9_
  6
CONTINUOUS
 62
    7
 10
504
 20
176
 11
1768
 21
176
  0
LINE
  8
_f-9_
  6
CONTINUOUS
 62
    7
 10
2168
 20
96
 11
2168
 21
176
  0
LINE
  8
_f-9_
  6
CONTINUOUS
 62
    7
 10
2176
 20
96
 11
2176
 21
176
  0
LINE
  8
_f-9_
  6
CONTINUOUS
 62
    7
 10
1776
 20
96
 11
2168
 21
96
  0
LINE
  8
_f-9_
  6
CONTINUOUS
 62
    7
 10
1776
 20
176
 11
2168
 21
176
  0
LINE
  8
_f-9_
  6
CONTINUOUS
 62
    7
 10
2416
 20
96
 11
2416
 21
176
  0
LINE
  8
_f-9_
  6
CONTINUOUS
 62
    7
 10
2656
 20
96
 11
2656
 21
176
  0
LINE
  8
_f-9_
  6
CONTINUOUS
 62
    7
 10
2960
 20
96
 11
2960
 21
176
  0
LINE
  8
_f-9_
  6
CONTINUOUS
 62
    7
 10
2176
 20
96
 11
3288
 21
96
  0
LINE
  8
_f-9_
  6
CONTINUOUS
 62
    7
 10
3288
 20
96
 11
3288
 21
176
  0
LINE
  8
_f-9_
  6
CONTINUOUS
 62
    7
 10
2176
 20
176
 11
3288
 21
176
  0
LINE
  8
_0-0_
  6
CONTINUOUS
 62
    7
 10
3304
 20
2288
 11
3304
 21
80
  0
LINE
  8
_0-0_
  6
CONTINUOUS
 62
    7
 10
120
 20
2288
 11
3304
 21
2288
  0
LINE
  8
_0-0_
  6
CONTINUOUS
 62
    7
 10
120
 20
80
 11
3304
 21
80
  0
LINE
  8
_0-0_
  6
CONTINUOUS
 62
    7
 10
120
 20
80
 11
120
 21
2288
  0
TEXT
  8
_f-8_
 62
    7
 10
2432
 20
150
 40
20
 41
0.64
 50
0
  1
ＤＡＴＡ
  0
TEXT
  8
_f-8_
 62
    7
 10
2672
 20
150
 40
20
 41
0.64
 50
0
  1
ＣＨＥＣＫＥＤ
  0
TEXT
  8
_f-8_
 62
    7
 10
2976
 20
150
 40
20
 41
0.64
 50
0
  1
ＳＨＥＥＴ　ＮＯ．
  0
TEXT
  8
_f-8_
 62
    7
 10
2833.5999999999999
 20
150
 40
20
 41
0.64
 50
0
  1
ＤＲＡＷＩＮＧ
  0
LINE
  8
_f-9_
  6
CONTINUOUS
 62
    7
 10
136
 20
136
 11
488
 21
136
  0
TEXT
  8
_f-8_
 62
    7
 10
2192.2991872683369
 20
149.97549839587986
 40
20
 41
0.64
 50
0
  1
ＳＣＡＬＥ
  0
TEXT
  8
_f-8_
 62
    7
 10
1156
 20
150
 40
20
 41
0.8
 50
0
  1
図面名称
  0
TEXT
  8
_f-8_
 62
    7
 10
524
 20
150
 40
20
 41
0.8
 50
0
  1
名　称
  0
TEXT
  8
_f-d_固定文字
 62
    7
 10
120.01199999999994
 20
52
 40
16
 41
1
 50
0
  1
%f
  0
TEXT
  8
_f-d_固定文字
 62
    7
 10
3191.1999999999998
 20
52.000002584023832
 40
16
 41
1
 50
0
  1
%y
  0
TEXT
  8
_f-d_固定文字
 62
    7
 10
3216
 20
52.000002584023832
 40
16
 41
1
 50
0
  1
．
  0
TEXT
  8
_f-d_固定文字
 62
    7
 10
3239.1999999999998
 20
52.000002584023832
 40
16
 41
1
 50
0
  1
%m
  0
TEXT
  8
_f-d_固定文字
 62
    7
 10
3264
 20
52.000002584023832
 40
16
 41
1
 50
0
  1
．
  0
TEXT
  8
_f-d_固定文字
 62
    7
 10
3287.1999999999998
 20
52.000002584023832
 40
16
 41
1
 50
0
  1
%d
  0
TEXT
  8
_2-0_
 62
    7
 10
2552.1689566144777
 20
2114.5351816356742
 40
28
 41
0.8571428571428569
 50
0
  1
付　属　品
  0
LINE
  8
_2-0_
  6
CONTINUOUS
 62
    3
 10
3283.5450643776821
 20
2268.9270386266093
 11
2495.5442643776823
 21
2268.9270386266093
  0
LINE
  8
_2-0_
  6
CONTINUOUS
 62
    7
 10
3283.5450643776821
 20
2100.9270386266098
 11
2495.5442643776823
 21
2100.9270386266098
  0
LINE
  8
_2-0_
  6
CONTINUOUS
 62
    7
 10
3283.5450643776821
 20
2156.9270386266098
 11
2495.5442643776823
 21
2156.9270386266098
  0
LINE
  8
_2-0_
  6
CONTINUOUS
 62
    7
 10
3283.5450643776821
 20
2212.9270386266098
 11
2495.5442643776823
 21
2212.9270386266098
  0
LINE
  8
_2-0_
  6
CONTINUOUS
 62
    7
 10
3283.5450643776821
 20
2216.9270386266098
 11
2495.5442643776823
 21
2216.9270386266098
  0
TEXT
  8
_2-0_
 62
    7
 10
2813.5446643776822
 20
2228.9270386266098
 40
28
 41
0.8571428571428569
 50
0
  1
仕　　　　様
  0
TEXT
  8
_2-0_
 62
    7
 10
2555.1587778531466
 20
2169.3485710112754
 40
28
 41
0.8571428571428569
 50
0
  1
材　　　質
  0
LINE
  8
_2-0_
  6
CONTINUOUS
 62
    3
 10
2495.5442643776823
 20
2268.9270386266093
 11
2495.5442643776823
 21
2044.9270386266096
  0
LINE
  8
_2-0_
  6
CONTINUOUS
 62
    7
 10
2735.5442643776823
 20
2212.9270386266098
 11
2735.5442643776823
 21
2044.9270386266096
  0
LINE
  8
_2-0_
  6
CONTINUOUS
 62
    3
 10
3283.5450643776821
 20
2044.9270386266096
 11
3283.5450643776821
 21
2268.9270386266093
  0
LINE
  8
_2-0_
  6
CONTINUOUS
 62
    3
 10
3283.5450643776821
 20
2044.9270386266096
 11
2495.5442643776823
 21
2044.9270386266096
  0
TEXT
  8
_2-0_
 62
    7
 10
2755.5442643776814
 20
2170.9270386266098
 40
28
 41
0.8571428571428569
 50
0
  1
ステンレスＳＵＳ４３０　０．４ｔ
  0
TEXT
  8
_2-0_
 62
    7
 10
2756.4734079235377
 20
2114.5351816356742
 40
28
 41
0.7714285714285713
 50
0
  1
ドリルネジ＊３
  0
LINE
  8
_e-0_
  6
CONTINUOUS
 62
    7
 10
1795.0287442152689
 20
159.61572384288479
 11
1818.3471427758822
 21
168.10292682970384
  0
LINE
  8
_e-0_
  6
CONTINUOUS
 62
    7
 10
1790.1069292042293
 20
153.56761859039806
 11
1830.0423603765332
 21
168.10292682970316
  0
LINE
  8
_e-0_
  6
CONTINUOUS
 62
    7
 10
1787.3653900631898
 20
148.31306885708204
 11
1811.0914744041092
 21
156.9486573328661
  0
LINE
  8
_e-0_
  6
CONTINUOUS
 62
    7
 10
1785.7695656297357
 20
143.4755251742863
 11
1803.1669266167441
 21
149.80764672834129
  0
LINE
  8
_e-0_
  6
CONTINUOUS
 62
    7
 10
1784.9619611293946
 20
138.92487008519901
 11
1799.5659670365171
 21
144.24029353643936
  0
LINE
  8
_e-0_
  6
CONTINUOUS
 62
    7
 10
1784.7719271100427
 20
134.5989922687504
 11
1799.4998481910708
 21
139.95951715486671
  0
LINE
  8
_e-0_
  6
CONTINUOUS
 62
    7
 10
1785.1069997950901
 20
130.46423766251973
 11
1799.8629312614625
 21
135.83495749515122
  0
LINE
  8
_e-0_
  6
CONTINUOUS
 62
    7
 10
1785.9160055153404
 20
126.5019805741399
 11
1801.0156550546137
 21
131.99780355428674
  0
LINE
  8
_e-0_
  6
CONTINUOUS
 62
    7
 10
1787.1740440451969
 20
122.70315806266398
 11
1802.9300134142958
 21
128.43786192502602
  0
LINE
  8
_e-0_
  6
CONTINUOUS
 62
    7
 10
1788.8764241615347
 20
119.06606266251401
 11
1805.6799283904815
 21
125.18203803321694
  0
LINE
  8
_e-0_
  6
CONTINUOUS
 62
    7
 10
1791.0376071411437
 20
115.59595784799057
 11
1809.504092802189
 21
122.31720896011484
  0
LINE
  8
_e-0_
  6
CONTINUOUS
 62
    7
 10
1793.694550194056
 20
112.3062949434875
 11
1815.1574711188202
 21
120.11815930051079
  0
LINE
  8
_e-0_
  6
CONTINUOUS
 62
    7
 10
1796.9164553459484
 20
109.22226142650151
 11
1827.6521124422563
 21
120.40912574017011
  0
LINE
  8
_e-0_
  6
CONTINUOUS
 62
    7
 10
1800.8280838162236
 20
106.38926666728775
 11
1823.3475858061194
 21
114.58569508210848
  0
LINE
  8
_e-0_
  6
CONTINUOUS
 62
    7
 10
1823.6679457746938
 20
161.5261185638601
 11
1841.7375779771841
 21
168.10292682970452
  0
LINE
  8
_e-0_
  6
CONTINUOUS
 62
    7
 10
1808.4499634469837
 20
151.7305148810808
 11
1850.4409039331708
 21
167.01396732689636
  0
LINE
  8
_e-0_
  6
CONTINUOUS
 62
    7
 10
1818.4556950795788
 20
151.11559227749739
 11
1850.4409039331708
 21
162.75725623699281
  0
LINE
  8
_e-0_
  6
CONTINUOUS
 62
    7
 10
1830.1509126802311
 20
151.11559227749739
 11
1850.4409039331708
 21
158.50054514708926
  0
LINE
  8
_e-0_
  6
CONTINUOUS
 62
    7
 10
1833.5001170740388
 20
148.07789189541335
 11
1850.4409039331708
 21
154.24383405718572
  0
LINE
  8
_e-0_
  6
CONTINUOUS
 62
    7
 10
1833.5001170740388
 20
143.82118080550981
 11
1850.4409039331708
 21
149.98712296728172
  0
LINE
  8
_e-0_
  6
CONTINUOUS
 62
    7
 10
1833.5001170740388
 20
139.56446971560626
 11
1850.4409039331708
 21
145.73041187737817
  0
LINE
  8
_e-0_
  6
CONTINUOUS
 62
    7
 10
1833.5001170740388
 20
135.30775862570271
 11
1850.4409039331708
 21
141.47370078747462
  0
LINE
  8
_e-0_
  6
CONTINUOUS
 62
    7
 10
1833.440678055716
 20
131.02941350237551
 11
1850.4409039331708
 21
137.21698969757107
  0
LINE
  8
_e-0_
  6
CONTINUOUS
 62
    7
 10
1832.5231927490692
 20
126.43876507047571
 11
1850.4409039331708
 21
132.96027860766753
  0
LINE
  8
_e-0_
  6
CONTINUOUS
 62
    7
 10
1830.7159970286256
 20
121.52428853083756
 11
1850.4409039331708
 21
128.70356751776398
  0
LINE
  8
_e-0_
  6
CONTINUOUS
 62
    7
 10
1827.5203089462104
 20
116.10444210093555
 11
1849.4886933093741
 21
124.1002801040463
  0
LINE
  8
_e-0_
  6
CONTINUOUS
 62
    7
 10
1820.5970775092121
 20
109.32788084302819
 11
1847.231017033092
 21
119.02184205096682
  0
LINE
  8
_e-0_
  6
CONTINUOUS
 62
    7
 10
1813.5832961182566
 20
102.51836209716657
 11
1843.3363024657451
 21
113.34757078758593
  0
LINE
  8
_e-0_
  6
CONTINUOUS
 62
    7
 10
1825.7101131655731
 20
102.67545144887799
 11
1834.179566709854
 21
105.75808043949655
  0
LINE
  8
_e-0_
  6
CONTINUOUS
 62
    3
 10
1813.1571738187919
 20
158.05290255742602
 11
1809.8595787674601
 21
155.80544531504096
  0
LINE
  8
_e-0_
  6
CONTINUOUS
 62
    3
 10
1825.9094737535544
 20
102.5183620971652
 11
1813.5363208321361
 21
102.5183620971652
  0
ARC
  8
_e-0_
  6
CONTINUOUS
 62
    3
 10
1825.9094737535544
 20
106.5183620971652
 40
4
 50
270
 51
286.20399351045659
  0
LINE
  8
_e-0_
  6
CONTINUOUS
 62
    3
 10
1850.5830886730091
 20
168.10292682970316
 11
1850.5830886730091
 21
127.81877384453537
  0
ARC
  8
_e-0_
  6
CONTINUOUS
 62
    3
 10
1817.5377326213158
 20
135.32658922787868
 40
34
 50
286.20399351045648
 51
345.50707147989851
  0
ARC
  8
_e-0_
  6
CONTINUOUS
 62
    3
 10
1846.5830886730091
 20
127.81877384453537
 40
4
 50
345.50707147989879
 51
0.0000000000000159
  0
ARC
  8
_e-0_
  6
CONTINUOUS
 62
    3
 10
1800.0741909901762
 20
136.39648677031664
 40
32
 50
279.71265316664215
 51
332.69093929010892
  0
ARC
  8
_e-0_
  6
CONTINUOUS
 62
    3
 10
1804.7979886039772
 20
108.79783216354553
 40
4
 50
241.9452628118
 51
279.71265316664221
  0
ARC
  8
_e-0_
  6
CONTINUOUS
 62
    3
 10
1810.6114498372942
 20
164.10292682970316
 40
4
 50
90
 51
106.05338143786268
  0
LINE
  8
_e-0_
  6
CONTINUOUS
 62
    3
 10
1830.7467991321775
 20
168.10292682970305
 11
1822.5745591641527
 21
164.19254152977646
  0
LINE
  8
_e-0_
  6
CONTINUOUS
 62
    3
 10
1822.5745591641527
 20
164.19254152977646
 11
1817.8395666700653
 21
161.15559183187224
  0
LINE
  8
_e-0_
  6
CONTINUOUS
 62
    3
 10
1813.1571738187919
 20
158.05290255742602
 11
1817.8395666700653
 21
161.15559183187224
  0
ARC
  8
_e-0_
  6
CONTINUOUS
 62
    3
 10
1810.6114498372942
 20
164.10292682970316
 40
4
 50
90
 51
106.05338143786268
  0
ARC
  8
_e-0_
  6
CONTINUOUS
 62
    3
 10
1810.6114498372942
 20
164.10292682970316
 40
4
 50
90
 51
106.05338143786268
  0
LINE
  8
_e-0_
  6
CONTINUOUS
 62
    3
 10
1830.7467991321775
 20
168.10292682970316
 11
1810.6114498372942
 21
168.10292682970316
  0
ARC
  8
_e-0_
  6
CONTINUOUS
 62
    3
 10
1818.9074346212512
 20
135.27279265616243
 40
34
 50
106.05338143786268
 51
241.94526281180051
  0
ARC
  8
_e-0_
  6
CONTINUOUS
 62
    3
 10
1810.6114498372942
 20
164.10292682970316
 40
4
 50
90
 51
106.05338143786268
  0
LINE
  8
_e-0_
  6
CONTINUOUS
 62
    3
 10
1839.3375863566843
 20
168.10292682970316
 11
1850.5830886730091
 21
168.10292682970316
  0
ARC
  8
_e-0_
  6
CONTINUOUS
 62
    3
 10
1839.3375863566843
 20
164.10292682970316
 40
4
 50
90
 51
112.84552721528326
  0
LINE
  8
_e-0_
  6
CONTINUOUS
 62
    3
 10
1833.6423018138771
 20
151.11559227749603
 11
1815.2138836823737
 21
151.11559227749603
  0
ARC
  8
_e-0_
  6
CONTINUOUS
 62
    3
 10
1815.2138836823737
 20
147.11559227749603
 40
4
 50
90
 51
110.93110431809542
  0
ARC
  8
_e-0_
  6
CONTINUOUS
 62
    3
 10
1803.3834130242057
 20
142.16309161773915
 40
0.4
 50
165.368776721252
 51
224.67319701305797
  0
LINE
  8
_e-0_
  6
CONTINUOUS
 62
    3
 10
1803.0989616464501
 20
141.88186677229896
 11
1802.9470066191415
 21
142.03556520106758
  0
ARC
  8
_e-0_
  6
CONTINUOUS
 62
    3
 10
1820.92980529663
 20
132.17142150425888
 40
20
 50
110.93110431809527
 51
150.17701829297229
  0
ARC
  8
_e-0_
  6
CONTINUOUS
 62
    3
 10
1803.2314579968974
 20
142.31679004650777
 40
0.4
 50
224.67319701305652
 51
330.17701829297561
  0
LINE
  8
_e-0_
  6
CONTINUOUS
 62
    3
 10
1837.7845944514047
 20
167.78914659283941
 11
1826.8187152926038
 21
163.16925883188787
  0
LINE
  8
_e-0_
  6
CONTINUOUS
 62
    3
 10
1826.8187152926038
 20
163.16925883188787
 11
1821.6916227083545
 21
160.36909433444816
  0
ARC
  8
_e-0_
  6
CONTINUOUS
 62
    3
 10
1822.3478175964596
 20
137.21219682791797
 40
20
 50
126.05682261028302
 51
165.36877672125814
  0
ARC
  8
_e-0_
  6
CONTINUOUS
 62
    3
 10
1857.6230338816631
 20
88.892289068021909
 40
80
 50
116.68868989749238
 51
126.03335467187628
  0
LINE
  8
_e-0_
  6
CONTINUOUS
 62
    3
 10
1809.8595787674598
 20
155.80544531504096
 11
1803.4848331529108
 21
150.00148715148361
  0
LINE
  8
_e-0_
  6
CONTINUOUS
 62
    3
 10
1803.4848331529108
 20
150.00148715148361
 11
1802.008716803723
 21
148.29491011420395
  0
ARC
  8
_e-0_
  6
CONTINUOUS
 62
    3
 10
1819.6395063794755
 20
139.64162460400712
 40
20
 50
169.07329675873063
 51
296.32138326661799
  0
LINE
  8
_e-0_
  6
CONTINUOUS
 62
    3
 10
1802.0087168037232
 20
148.29491011420418
 11
1800.0020968528904
 21
143.43268607609888
  0
LINE
  8
_e-0_
  6
CONTINUOUS
 62
    3
 10
1833.6423018138771
 20
151.11559227749603
 11
1833.6423018138771
 21
131.53940708665322
  0
ARC
  8
_e-0_
  6
CONTINUOUS
 62
    3
 10
1821.8272740184406
 20
115.30472786645759
 40
4
 50
311.4163090429962
 51
326.13300916724881
  0
ARC
  8
_e-0_
  6
CONTINUOUS
 62
    3
 10
1801.8287528708262
 20
134.98876987535868
 40
32
 50
316.78132524618342
 51
353.81191653224226
  0
ARC
  8
_e-0_
  6
CONTINUOUS
 62
    3
 10
1792.7201583976041
 20
148.3013310285296
 40
48
 50
294.69555798319504
 51
311.41630904299643
  0
ARC
  8
_e-0_
  6
CONTINUOUS
 62
    3
 10
1817.5414522654959
 20
162.38453720633287
 40
60
 50
264.68313230529076
 51
266.17253517307824
  0
ARC
  8
_e-0_
  6
CONTINUOUS
 62
    3
 10
1812.0186944572924
 20
103.04096850515088
 40
0.4
 50
174.02086603460466
 51
264.68313230528985
  0
ARC
  8
_e-0_
  6
CONTINUOUS
 62
    3
 10
1813.6099902920084
 20
102.87430247257498
 40
2
 50
114.69555798319522
 51
174.02086603461154
  0
LINE
  8
_e-0_
  6
CONTINUOUS
 62
    7
 10
1901.5119935276754
 20
135.5442561924965
 11
1910.6095127798369
 21
138.85548240594698
  0
LINE
  8
_e-0_
  6
CONTINUOUS
 62
    3
 10
1949.0068187571414
 20
130.10649994015511
 11
1949.0068187571414
 21
109.19214898263635
  0
CIRCLE
  8
_e-0_
  6
CONTINUOUS
 62
    3
 10
1892.4133944408308
 20
129.97034759304415
 40
10.67019036466452
  0
CIRCLE
  8
_e-0_
  6
CONTINUOUS
 62
    3
 10
1892.1864204829307
 20
129.74337363514405
 40
20.553366051118132
  0
LINE
  8
_e-0_
  6
CONTINUOUS
 62
    3
 10
1919.5951693802062
 20
150.61000305691982
 11
1919.5951693802062
 21
109.19214898263635
  0
LINE
  8
_e-0_
  6
CONTINUOUS
 62
    3
 10
1919.5951693802062
 20
109.19214898263635
 11
1931.8855446029351
 21
109.19214898263635
  0
LINE
  8
_e-0_
  6
CONTINUOUS
 62
    3
 10
1931.8855446029351
 20
109.19214898263635
 11
1931.8855446029351
 21
138.10649994015511
  0
LINE
  8
_e-0_
  6
CONTINUOUS
 62
    3
 10
1960.9419808231443
 20
109.19214898263635
 11
1949.0068187571414
 21
109.19214898263635
  0
LINE
  8
_e-0_
  6
CONTINUOUS
 62
    3
 10
1941.0068187571414
 20
138.10649994015511
 11
1931.8855446029351
 21
138.10649994015511
  0
ARC
  8
_e-0_
  6
CONTINUOUS
 62
    3
 10
1941.0068187571414
 20
130.10649994015511
 40
8
 50
0
 51
90
  0
LINE
  8
_e-0_
  6
CONTINUOUS
 62
    3
 10
1940.9419808231441
 20
150.61000305691982
 11
1919.5951693802062
 21
150.61000305691982
  0
LINE
  8
_e-0_
  6
CONTINUOUS
 62
    3
 10
1960.9419808231443
 20
130.61000305692004
 11
1960.9419808231443
 21
109.19214898263635
  0
ARC
  8
_e-0_
  6
CONTINUOUS
 62
    3
 10
1940.9419808231441
 20
130.61000305692004
 40
20
 50
0
 51
90
  0
ARC
  8
_e-0_
  6
CONTINUOUS
 62
    3
 10
1988.9962084940186
 20
129.74123009925142
 40
10.67019036466452
 50
23.422555400004949
 51
97.191484740792631
  0
LINE
  8
_e-0_
  6
CONTINUOUS
 62
    3
 10
1979.2052609048503
 20
133.98272838692537
 11
1998.7871560831868
 21
133.98272838692537
  0
ARC
  8
_e-0_
  6
CONTINUOUS
 62
    3
 10
1988.9962084940186
 20
129.74123009925142
 40
10.67019036466452
 50
92.530763017635251
 51
156.57744459999506
  0
ARC
  8
_e-0_
  6
CONTINUOUS
 62
    3
 10
1988.9962084940186
 20
129.74123009925142
 40
10.67019036466452
 50
204.21097500392608
 51
316.0067678116265
  0
LINE
  8
_e-0_
  6
CONTINUOUS
 62
    3
 10
1979.2645512287895
 20
125.36540911453403
 11
2009.2160602849908
 21
125.36540911453403
  0
LINE
  8
_e-0_
  6
CONTINUOUS
 62
    3
 10
1996.67257657301
 20
122.32999973351434
 11
2006.9673929679111
 21
119.8315477813162
  0
ARC
  8
_e-0_
  6
CONTINUOUS
 62
    3
 10
1989.2524694142282
 20
130.25375193967056
 40
20.553366051118132
 50
346.24110979921471
 51
329.53046432565099
  0
ARC
  8
_e-0_
  6
CONTINUOUS
 62
    3
 10
2037.2108472338723
 20
129.71447876283127
 40
8.8718053134943541
 50
94.502189492040685
 51
357.22978420280037
  0
LINE
  8
_e-0_
  6
CONTINUOUS
 62
    3
 10
2045.2722849209176
 20
138.55890865524452
 11
2036.5144354313201
 21
138.55890865524452
  0
LINE
  8
_e-0_
  6
CONTINUOUS
 62
    3
 10
2046.0722849209173
 20
137.75890865524479
 11
2046.0722849209173
 21
129.28569951990994
  0
ARC
  8
_e-0_
  6
CONTINUOUS
 62
    3
 10
2045.2722849209176
 20
137.75890865524479
 40
0.8
 50
0
 51
90
  0
LINE
  8
_e-0_
  6
CONTINUOUS
 62
    3
 10
2039.1762765884413
 20
150.63246994188875
 11
2045.9144620366537
 21
150.63246994188875
  0
ARC
  8
_e-0_
  6
CONTINUOUS
 62
    3
 10
2037.5730285289632
 20
130.14172930883614
 40
20.553366051118132
 50
85.526146014136969
 51
347.40557840019874
  0
LINE
  8
_e-0_
  6
CONTINUOUS
 62
    3
 10
2045.9144620366537
 20
167.30292682970321
 11
2045.9144620366537
 21
150.63246994188875
  0
ARC
  8
_e-0_
  6
CONTINUOUS
 62
    3
 10
2046.7144620366539
 20
167.30292682970321
 40
0.8
 50
90
 51
180
  0
LINE
  8
_e-0_
  6
CONTINUOUS
 62
    3
 10
2057.631839405089
 20
167.30292682970321
 11
2057.631839405089
 21
125.66010435051293
  0
LINE
  8
_e-0_
  6
CONTINUOUS
 62
    3
 10
2056.8318394050893
 20
168.10292682970316
 11
2046.7144620366539
 21
168.10292682970316
  0
ARC
  8
_e-0_
  6
CONTINUOUS
 62
    3
 10
2056.8318394050893
 20
167.30292682970321
 40
0.8
 50
0
 51
90
  0
CIRCLE
  8
_e-0_
  6
CONTINUOUS
 62
    3
 10
2085.9946276636665
 20
130.0948701691409
 40
10.67019036466452
  0
CIRCLE
  8
_e-0_
  6
CONTINUOUS
 62
    3
 10
2085.7676537057668
 20
129.8678962112408
 40
20.553366051118132
  0
ARC
  8
_e-0_
  6
CONTINUOUS
 62
    3
 10
1889.0445156630948
 20
146.84887168409932
 40
4
 50
90
 51
106.05338143786268
  0
ARC
  8
_e-0_
  6
CONTINUOUS
 62
    3
 10
1889.0445156630948
 20
146.84887168409932
 40
4
 50
90
 51
106.05338143786268
  0
ARC
  8
_e-0_
  6
CONTINUOUS
 62
    3
 10
1889.0445156630948
 20
146.84887168409932
 40
4
 50
90
 51
106.05338143786268
  0
ARC
  8
_e-0_
  6
CONTINUOUS
 62
    3
 10
1889.0445156630948
 20
146.84887168409932
 40
4
 50
90
 51
106.05338143786268
  0
LINE
  8
_e-0_
  6
CONTINUOUS
 62
    7
 10
1877.0776643464812
 20
143.67773203589422
 11
1894.8035662347642
 21
150.12943269875222
  0
LINE
  8
_e-0_
  6
CONTINUOUS
 62
    7
 10
1888.9932050460915
 20
143.75792308583595
 11
1901.2164676490642
 21
148.20682683893733
  0
LINE
  8
_e-0_
  6
CONTINUOUS
 62
    7
 10
1873.4009240787866
 20
138.08279692942187
 11
1888.9932050460915
 21
143.75792308583595
  0
LINE
  8
_e-0_
  6
CONTINUOUS
 62
    7
 10
1871.942272514887
 20
133.29518008809282
 11
1885.7885335386531
 21
138.3348069566241
  0
LINE
  8
_e-0_
  6
CONTINUOUS
 62
    7
 10
1871.6490853241816
 20
128.93175758770439
 11
1882.1085814041452
 21
132.73870282623511
  0
LINE
  8
_e-0_
  6
CONTINUOUS
 62
    7
 10
1872.21636238783
 20
124.88151846355049
 11
1881.8606237849328
 21
128.3917425435784
  0
LINE
  8
_e-0_
  6
CONTINUOUS
 62
    7
 10
1873.5363858799153
 20
121.10525663329826
 11
1883.1835657228555
 21
124.61654294074105
  0
LINE
  8
_e-0_
  6
CONTINUOUS
 62
    7
 10
1875.6033031792856
 20
117.60084191705527
 11
1886.0519549369369
 21
121.40384014505343
  0
LINE
  8
_e-0_
  6
CONTINUOUS
 62
    7
 10
1878.5089318139207
 20
114.40169316199035
 11
1891.9903963725439
 21
119.30854497564359
  0
LINE
  8
_e-0_
  6
CONTINUOUS
 62
    7
 10
1882.5201033643249
 20
111.60492912096924
 11
1900.2027803159298
 21
118.04089719349849
  0
LINE
  8
_e-0_
  6
CONTINUOUS
 62
    7
 10
1888.4974063841011
 20
109.52377841145334
 11
1900.2456824119869
 21
113.79980118954699
  0
LINE
  8
_e-0_
  6
CONTINUOUS
 62
    7
 10
1900.2456824119869
 20
113.79980118954699
 11
1908.0092745165923
 21
116.62551762660768
  0
LINE
  8
_e-0_
  6
CONTINUOUS
 62
    7
 10
1899.5201230558675
 20
117.79243027063012
 11
1911.2504163897631
 21
122.06190788337926
  0
LINE
  8
_e-0_
  6
CONTINUOUS
 62
    7
 10
1899.5907043798806
 20
122.07483086156935
 11
1912.525426793562
 21
126.78268480864517
  0
LINE
  8
_e-0_
  6
CONTINUOUS
 62
    7
 10
1902.7929846688821
 20
127.49707665844698
 11
1912.6948942815918
 21
131.10107701986771
  0
LINE
  8
_e-0_
  6
CONTINUOUS
 62
    7
 10
1902.9252127363581
 20
131.80191482904638
 11
1912.0256504343567
 21
135.11420326991174
  0
LINE
  8
_e-0_
  6
CONTINUOUS
 62
    7
 10
1892.1117614807444
 20
140.63627371202528
 11
1905.4112803595689
 21
145.47690271397891
  0
LINE
  8
_e-0_
  6
CONTINUOUS
 62
    7
 10
1898.5278747618576
 20
138.71483687612726
 11
1908.4406286968796
 21
142.32278424808009
  0
LINE
  8
_e-0_
  6
CONTINUOUS
 62
    7
 10
1919.5951693802062
 20
146.38270503372223
 11
1931.2095752442469
 21
150.61000305691982
  0
LINE
  8
_e-0_
  6
CONTINUOUS
 62
    7
 10
1919.5951693802062
 20
142.12599394381868
 11
1942.6936354297699
 21
150.53314804306819
  0
LINE
  8
_e-0_
  6
CONTINUOUS
 62
    7
 10
1919.5951693802062
 20
137.86928285391513
 11
1949.4194478384533
 21
148.72443247118371
  0
LINE
  8
_e-0_
  6
CONTINUOUS
 62
    7
 10
1919.5951693802062
 20
133.61257176401159
 11
1953.6888025664843
 21
146.02163942180686
  0
LINE
  8
_e-0_
  6
CONTINUOUS
 62
    7
 10
1919.5951693802062
 20
129.35586067410804
 11
1931.8855446029351
 21
133.82919142314403
  0
LINE
  8
_e-0_
  6
CONTINUOUS
 62
    7
 10
1942.967206622899
 20
137.86258654460925
 11
1956.7395268962068
 21
142.87530118087352
  0
LINE
  8
_e-0_
  6
CONTINUOUS
 62
    7
 10
1919.5951693802062
 20
125.09914958420449
 11
1931.8855446029351
 21
129.57248033324049
  0
LINE
  8
_e-0_
  6
CONTINUOUS
 62
    7
 10
1922.6719148187567
 20
109.19214898263635
 11
1931.8855446029351
 21
112.54563597362584
  0
LINE
  8
_e-0_
  6
CONTINUOUS
 62
    7
 10
1919.5951693802062
 20
112.3290163144934
 11
1931.8855446029351
 21
116.80234706352985
  0
LINE
  8
_e-0_
  6
CONTINUOUS
 62
    7
 10
1919.5951693802062
 20
116.5857274043974
 11
1931.8855446029351
 21
121.05905815343339
  0
LINE
  8
_e-0_
  6
CONTINUOUS
 62
    7
 10
1919.5951693802062
 20
120.84243849430094
 11
1931.8855446029351
 21
125.31576924333694
  0
LINE
  8
_e-0_
  6
CONTINUOUS
 62
    7
 10
1949.0068187571414
 20
127.29069231827543
 11
1960.9419808231443
 21
131.63473605144326
  0
LINE
  8
_e-0_
  6
CONTINUOUS
 62
    7
 10
1949.0068187571414
 20
123.03398122837188
 11
1960.9419808231443
 21
127.37802496153972
  0
LINE
  8
_e-0_
  6
CONTINUOUS
 62
    7
 10
1948.8840380523129
 20
131.50271488627913
 11
1960.2949743500998
 21
135.65595604378131
  0
LINE
  8
_e-0_
  6
CONTINUOUS
 62
    7
 10
1949.0068187571414
 20
118.77727013846833
 11
1960.9419808231443
 21
123.12131387163617
  0
LINE
  8
_e-0_
  6
CONTINUOUS
 62
    7
 10
1949.0068187571414
 20
114.52055904856479
 11
1960.9419808231443
 21
118.86460278173262
  0
LINE
  8
_e-0_
  6
CONTINUOUS
 62
    7
 10
1949.0068187571414
 20
110.26384795866079
 11
1960.9419808231443
 21
114.60789169182908
  0
LINE
  8
_e-0_
  6
CONTINUOUS
 62
    7
 10
1957.7575676207143
 20
109.19214898263635
 11
1960.9419808231443
 21
110.35118060192507
  0
LINE
  8
_e-0_
  6
CONTINUOUS
 62
    7
 10
1947.2151219244924
 20
135.15199018216935
 11
1958.9037489945158
 21
139.40630251509583
  0
LINE
  8
_e-0_
  6
CONTINUOUS
 62
    7
 10
1975.3507074050671
 20
145.39250582075032
 11
1990.170833530057
 21
150.78659059831716
  0
LINE
  8
_e-0_
  6
CONTINUOUS
 62
    7
 10
1970.905311115026
 20
139.51780280175444
 11
1997.3523909667032
 21
149.14375265102603
  0
LINE
  8
_e-0_
  6
CONTINUOUS
 62
    7
 10
1969.1703192692734
 20
134.62960632330214
 11
2001.8235439590612
 21
146.51440816319086
  0
LINE
  8
_e-0_
  6
CONTINUOUS
 62
    7
 10
1969.1993935896505
 20
130.3834774205975
 11
1979.1915737376018
 21
134.02033356987749
  0
LINE
  8
_e-0_
  6
CONTINUOUS
 62
    7
 10
1993.7206653048433
 20
139.30849043128091
 11
2005.0308543661506
 21
143.42506259352012
  0
LINE
  8
_e-0_
  6
CONTINUOUS
 62
    7
 10
1997.35418228762
 20
136.37427136880887
 11
2007.3427935007402
 21
140.00982853204232
  0
LINE
  8
_e-0_
  6
CONTINUOUS
 62
    7
 10
1970.5674741629532
 20
126.62470693745399
 11
1990.7834719472393
 21
133.98272838692537
  0
LINE
  8
_e-0_
  6
CONTINUOUS
 62
    7
 10
1970.3111035677004
 20
122.27468458193743
 11
2008.8912431004498
 21
136.31670700569429
  0
LINE
  8
_e-0_
  6
CONTINUOUS
 62
    7
 10
1972.2402333851457
 20
118.7201193236192
 11
1981.5426744504754
 21
122.10593097741457
  0
LINE
  8
_e-0_
  6
CONTINUOUS
 62
    7
 10
1990.4980170314177
 20
125.36540911453403
 11
2009.6982744296096
 21
132.35373129772506
  0
LINE
  8
_e-0_
  6
CONTINUOUS
 62
    7
 10
2002.1932346320702
 20
125.36540911453403
 11
2009.6921296901566
 21
128.09478370556325
  0
LINE
  8
_e-0_
  6
CONTINUOUS
 62
    7
 10
1974.9825392712041
 20
115.46152594949353
 11
1986.0440112780322
 21
119.48757250714788
  0
LINE
  8
_e-0_
  6
CONTINUOUS
 62
    7
 10
1978.7606864611434
 20
112.57994797740457
 11
2001.9978891641956
 21
121.03759808892527
  0
LINE
  8
_e-0_
  6
CONTINUOUS
 62
    7
 10
1984.2455596478616
 20
110.31956746619107
 11
2005.9014316067095
 21
118.20166025629168
  0
LINE
  8
_e-0_
  6
CONTINUOUS
 62
    7
 10
2042.0985352737372
 20
110.09277310821926
 11
2046.9935098677356
 21
111.87439815792367
  0
LINE
  8
_e-0_
  6
CONTINUOUS
 62
    7
 10
2031.5210140811861
 20
110.49958133171412
 11
2054.8348699136818
 21
118.98513090071583
  0
LINE
  8
_e-0_
  6
CONTINUOUS
 62
    7
 10
2026.3981440723784
 20
112.89172022439697
 11
2057.2215787758841
 21
124.11053297432044
  0
LINE
  8
_e-0_
  6
CONTINUOUS
 62
    7
 10
2017.66549148382
 20
135.2535611553958
 11
2057.631839405089
 21
149.800122171064
  0
LINE
  8
_e-0_
  6
CONTINUOUS
 62
    7
 10
2019.6717463836484
 20
140.2404893111875
 11
2057.631839405089
 21
154.05683326096755
  0
LINE
  8
_e-0_
  6
CONTINUOUS
 62
    7
 10
2045.9144620366537
 20
166.81890103480736
 11
2049.4422939141277
 21
168.10292682970316
  0
LINE
  8
_e-0_
  6
CONTINUOUS
 62
    7
 10
2045.9144620366537
 20
162.56218994490382
 11
2057.631839405089
 21
166.82696653067841
  0
LINE
  8
_e-0_
  6
CONTINUOUS
 62
    7
 10
2045.9144620366537
 20
158.30547885500004
 11
2057.631839405089
 21
162.57025544077487
  0
LINE
  8
_e-0_
  6
CONTINUOUS
 62
    7
 10
2045.9144620366537
 20
154.04876776509627
 11
2057.631839405089
 21
158.31354435087132
  0
LINE
  8
_e-0_
  6
CONTINUOUS
 62
    7
 10
2025.088025584205
 20
146.46856481056875
 11
2036.6424080912156
 21
150.67401611844661
  0
LINE
  8
_e-0_
  6
CONTINUOUS
 62
    7
 10
2038.4420767037588
 20
138.55890865524452
 11
2057.631839405089
 21
145.54341108116045
  0
LINE
  8
_e-0_
  6
CONTINUOUS
 62
    7
 10
2017.0291218325069
 20
130.76523045442354
 11
2030.7001667533668
 21
135.74108387693286
  0
LINE
  8
_e-0_
  6
CONTINUOUS
 62
    7
 10
2017.3243286189065
 20
126.61596584772314
 11
2028.3877353060283
 21
130.64271657141671
  0
LINE
  8
_e-0_
  6
CONTINUOUS
 62
    7
 10
2018.3952091687619
 20
122.74902340242124
 11
2028.9123614388613
 21
126.57695377798245
  0
LINE
  8
_e-0_
  6
CONTINUOUS
 62
    7
 10
2020.2050748630435
 20
119.15104955325568
 11
2031.2283907009116
 21
123.16320840115486
  0
LINE
  8
_e-0_
  6
CONTINUOUS
 62
    7
 10
2022.8093849862239
 20
115.84222982898791
 11
2036.6049096585666
 21
120.86339017580576
  0
LINE
  8
_e-0_
  6
CONTINUOUS
 62
    7
 10
2043.3643924222899
 20
123.32364070083622
 11
2057.631839405089
 21
128.51656672154604
  0
LINE
  8
_e-0_
  6
CONTINUOUS
 62
    7
 10
2046.00475023334
 20
128.54136344177413
 11
2057.631839405089
 21
132.77327781144958
  0
LINE
  8
_e-0_
  6
CONTINUOUS
 62
    7
 10
2046.0722849209173
 20
132.82265514773644
 11
2057.631839405089
 21
137.02998890135313
  0
LINE
  8
_e-0_
  6
CONTINUOUS
 62
    7
 10
2046.0722849209173
 20
137.07936623763998
 11
2057.631839405089
 21
141.28669999125668
  0
LINE
  8
_e-0_
  6
CONTINUOUS
 62
    7
 10
2076.117410255088
 20
148.01489754407521
 11
2081.4955014661936
 21
149.97236266208619
  0
LINE
  8
_e-0_
  6
CONTINUOUS
 62
    7
 10
2068.4749168347425
 20
140.9765463335907
 11
2091.8741560331445
 21
149.49317290628323
  0
LINE
  8
_e-0_
  6
CONTINUOUS
 62
    7
 10
2086.8144939978883
 20
109.34120672087146
 11
2098.1600291894455
 21
113.47064382241751
  0
LINE
  8
_e-0_
  6
CONTINUOUS
 62
    7
 10
2078.595580918653
 20
110.60647809191186
 11
2103.6427811220755
 21
119.72291341766413
  0
LINE
  8
_e-0_
  6
CONTINUOUS
 62
    7
 10
2066.1064737009223
 20
135.8577924414244
 11
2096.97876031357
 21
147.09438583216251
  0
LINE
  8
_e-0_
  6
CONTINUOUS
 62
    7
 10
2073.8374548644324
 20
113.13137292719284
 11
2105.6647460296917
 21
124.71555954867062
  0
LINE
  8
_e-0_
  6
CONTINUOUS
 62
    7
 10
2070.4556396730267
 20
116.15720394963545
 11
2081.7968895522208
 21
120.28508132503748
  0
LINE
  8
_e-0_
  6
CONTINUOUS
 62
    7
 10
2068.0075435055623
 20
119.52288090396086
 11
2077.9127468092656
 21
123.12808007086414
  0
LINE
  8
_e-0_
  6
CONTINUOUS
 62
    7
 10
2066.3358639869543
 20
123.17115040785893
 11
2075.8956144050966
 21
126.65061500707633
  0
LINE
  8
_e-0_
  6
CONTINUOUS
 62
    7
 10
2065.4030998953521
 20
127.08836313282699
 11
2075.3419416070414
 21
130.70580567896513
  0
LINE
  8
_e-0_
  6
CONTINUOUS
 62
    7
 10
2065.2638499728082
 20
131.29439139580063
 11
2076.7882712920645
 21
135.48893772315295
  0
LINE
  8
_e-0_
  6
CONTINUOUS
 62
    7
 10
2089.5798660139744
 20
140.14469745072437
 11
2100.5575451882896
 21
144.14024591149882
  0
LINE
  8
_e-0_
  6
CONTINUOUS
 62
    7
 10
2093.7623568456028
 20
137.41028852862473
 11
2103.1544564123505
 21
140.82873320818544
  0
LINE
  8
_e-0_
  6
CONTINUOUS
 62
    7
 10
2095.944845194153
 20
133.94793823422605
 11
2104.9578534673537
 21
137.22840496686603
  0
LINE
  8
_e-0_
  6
CONTINUOUS
 62
    7
 10
2096.6638739365894
 20
129.95293220415123
 11
2106.022335095351
 21
133.35913350447663
  0
LINE
  8
_e-0_
  6
CONTINUOUS
 62
    7
 10
2095.5158923402391
 20
125.27838998369088
 11
2106.3104000744915
 21
129.20726949251502
  0
TEXT
  8
_e-0_
 62
    7
 10
2114.286946060014
 20
144.44997645959642
 40
28
 41
0.5714285714285712
 50
0
  1
ワンド
  0
TEXT
  8
_e-0_
 62
    7
 10
2119.7636080119232
 20
117.61433289523984
 40
24
 41
0.6666666666666666
 50
0
  1
株式
  0
TEXT
  8
_e-0_
 62
    7
 10
2119.2159418167325
 20
95.160018892411244
 40
24
 41
0.6666666666666666
 50
0
  1
会社
  0
LINE
  8
_f-7_
  6
CONTINUOUS
 62
    7
 10
95.988000000000056
 20
1149.709493367299
 11
95.988000000000056
 21
1177.4223062884009
  0
LINE
  8
_f-7_
  6
CONTINUOUS
 62
    7
 10
95.988000000000056
 20
1177.4223062884009
 11
119.98800000000005
 21
1163.5658998278499
  0
LINE
  8
_f-7_
  6
CONTINUOUS
 62
    7
 10
119.98800000000005
 20
1163.5658998278499
 11
95.988000000000056
 21
1149.709493367299
  0
LINE
  8
_f-7_
  6
CONTINUOUS
 62
    7
 10
99.988000000000056
 20
1156.6376965975744
 11
99.988000000000056
 21
1170.4941030581255
  0
LINE
  8
_f-7_
  6
CONTINUOUS
 62
    7
 10
99.988000000000056
 20
1170.4941030581255
 11
111.98800000000005
 21
1163.5658998278499
  0
LINE
  8
_f-7_
  6
CONTINUOUS
 62
    7
 10
111.98800000000005
 20
1163.5658998278499
 11
99.988000000000056
 21
1156.6376965975744
  0
LINE
  8
_f-7_
  6
CONTINUOUS
 62
    7
 10
103.18799999999987
 20
1162.1802591817947
 11
103.18799999999987
 21
1164.9515404739051
  0
LINE
  8
_f-7_
  6
CONTINUOUS
 62
    7
 10
103.18799999999987
 20
1164.9515404739051
 11
105.58800000000042
 21
1163.5658998278499
  0
LINE
  8
_f-7_
  6
CONTINUOUS
 62
    7
 10
105.58800000000042
 20
1163.5658998278499
 11
103.18799999999987
 21
1162.1802591817947
  0
TEXT
  8
_f-8_
 62
    7
 10
1347.1553871747914
 20
109.7925514811759
 40
36
 41
0.6666666666666666
 50
0
  1
バックガード
  0
TEXT
  8
_f-8_
 62
    7
 10
2434.4
 20
114
 40
28
 41
0.5714285714285712
 50
0
  1
２０２３．０５．０１
  0
TEXT
  8
_f-8_
 62
    7
 10
2865.5999999999999
 20
116
 40
24
 41
0.7333333333333332
 50
0
  1
Ｔ．Ｋ
  0
LINE
  8
_f-7_
  6
CONTINUOUS
 62
    7
 10
3328
 20
1149.709493367299
 11
3328
 21
1177.4223062884009
  0
LINE
  8
_f-7_
  6
CONTINUOUS
 62
    7
 10
3328
 20
1177.4223062884009
 11
3304
 21
1163.5658998278499
  0
LINE
  8
_f-7_
  6
CONTINUOUS
 62
    7
 10
3304
 20
1163.5658998278499
 11
3328
 21
1149.709493367299
  0
LINE
  8
_f-7_
  6
CONTINUOUS
 62
    7
 10
3324
 20
1156.6376965975744
 11
3324
 21
1170.4941030581255
  0
LINE
  8
_f-7_
  6
CONTINUOUS
 62
    7
 10
3324
 20
1170.4941030581255
 11
3312
 21
1163.5658998278499
  0
LINE
  8
_f-7_
  6
CONTINUOUS
 62
    7
 10
3312
 20
1163.5658998278499
 11
3324
 21
1156.6376965975744
  0
LINE
  8
_f-7_
  6
CONTINUOUS
 62
    7
 10
3320.8000000000001
 20
1162.1802591817947
 11
3320.8000000000001
 21
1164.9515404739051
  0
LINE
  8
_f-7_
  6
CONTINUOUS
 62
    7
 10
3320.8000000000001
 20
1164.9515404739051
 11
3318.3999999999996
 21
1163.5658998278499
  0
LINE
  8
_f-7_
  6
CONTINUOUS
 62
    7
 10
3318.3999999999996
 20
1163.5658998278499
 11
3320.8000000000001
 21
1162.1802591817947
  0
LINE
  8
_0-1_
  6
CONTINUOUS
 62
    4
 10
686.87953641293051
 20
342.5
 11
1286.8795364129307
 21
342.5
  0
LINE
  8
_0-0_
  6
CONTINUOUS
 62
    7
 10
686.87953641293051
 20
1742.5
 11
1286.8795364129312
 21
1742.5
  0
LINE
  8
_0-0_
  6
CONTINUOUS
 62
    7
 10
1286.8795364129312
 20
1742.5
 11
1286.8795364129312
 21
2012.5000000000004
  0
LINE
  8
_0-0_
  6
CONTINUOUS
 62
    7
 10
1286.8795364129312
 20
2012.5000000000004
 11
686.87953641293051
 21
2012.5000000000004
  0
LINE
  8
_0-0_
  6
CONTINUOUS
 62
    7
 10
686.87953641293051
 20
2012.5000000000004
 11
686.87953641293051
 21
1742.5
  0
LINE
  8
_0-0_
  6
CONTINUOUS
 62
    7
 10
688.37953641293074
 20
1742.5
 11
688.37953641293074
 21
1724.5
  0
LINE
  8
_0-0_
  6
CONTINUOUS
 62
    7
 10
1285.3795364129312
 20
1724.5
 11
1285.3795364129312
 21
1742.5
  0
LINE
  8
_0-0_
  6
CONTINUOUS
 62
    7
 10
686.87953641293051
 20
510.5
 11
1286.8795364129307
 21
510.5
  0
LINE
  8
_0-0_
  6
CONTINUOUS
 62
    7
 10
1286.8795364129307
 20
510.5
 11
1286.8795364129307
 21
780.5
  0
LINE
  8
_0-0_
  6
CONTINUOUS
 62
    7
 10
1286.8795364129307
 20
780.5
 11
686.87953641293051
 21
780.5
  0
LINE
  8
_0-0_
  6
CONTINUOUS
 62
    7
 10
686.87953641293051
 20
780.5
 11
686.87953641293051
 21
510.5
  0
LINE
  8
_0-0_
  6
CONTINUOUS
 62
    7
 10
688.37953641293074
 20
510.5
 11
688.37953641293074
 21
492.5
  0
LINE
  8
_0-0_
  6
CONTINUOUS
 62
    7
 10
688.37953641293074
 20
492.5
 11
1285.3795364129312
 21
492.5
  0
LINE
  8
_0-0_
  6
CONTINUOUS
 62
    7
 10
1285.3795364129312
 20
492.5
 11
1285.3795364129312
 21
510.5
  0
LINE
  8
_0-0_
  6
CONTINUOUS
 62
    7
 10
1286.8795364129309
 20
1346.5
 11
686.87953641293051
 21
1346.5
  0
LINE
  8
_0-0_
  6
CONTINUOUS
 62
    7
 10
686.87953641293051
 20
1126.5
 11
1286.8795364129309
 21
1126.5
  0
LINE
  8
_0-0_
  6
CONTINUOUS
 62
    7
 10
686.87953641293051
 20
1346.5
 11
686.87953641293051
 21
1126.5
  0
LINE
  8
_0-0_
  6
CONTINUOUS
 62
    7
 10
1286.8795364129309
 20
1346.5
 11
1286.8795364129309
 21
1126.5
  0
LINE
  8
_0-0_
  6
CONTINUOUS
 62
    7
 10
688.37953641293074
 20
1126.5
 11
688.37953641293074
 21
1108.5
  0
LINE
  8
_0-0_
  6
CONTINUOUS
 62
    7
 10
688.37953641293074
 20
1108.5
 11
1285.3795364129312
 21
1108.5
  0
LINE
  8
_0-0_
  6
CONTINUOUS
 62
    7
 10
1285.3795364129312
 20
1108.5
 11
1285.3795364129312
 21
1126.5
  0
POINT
  8
_0-1_
 62
    3
 10
688.37953641293074
 20
1634.5
  0
POINT
  8
_0-1_
 62
    3
 10
1285.3795364129312
 20
1634.5
  0
LINE
  8
_0-1_
  6
CONTINUOUS
 62
    4
 10
688.37953641293074
 20
1627.5
 11
688.37953641293074
 21
1694.5
  0
LINE
  8
_0-1_
  6
CONTINUOUS
 62
    4
 10
1285.3795364129312
 20
1627.5
 11
1285.3795364129312
 21
1694.5
  0
POINT
  8
_0-1_
 62
    3
 10
686.87953641293051
 20
1574.5
  0
POINT
  8
_0-1_
 62
    3
 10
1286.8795364129312
 20
1574.5
  0
LINE
  8
_0-1_
  6
CONTINUOUS
 62
    4
 10
686.87953641293051
 20
1567.5
 11
686.87953641293051
 21
1694.5
  0
LINE
  8
_0-1_
  6
CONTINUOUS
 62
    4
 10
1286.8795364129312
 20
1567.5
 11
1286.8795364129312
 21
1694.5
  0
LINE
  8
_0-1_
  6
CONTINUOUS
 62
    4
 10
686.87953641293051
 20
1574.5
 11
1286.8795364129312
 21
1574.5
  0
LINE
  8
_0-1_
  6
CONTINUOUS
 62
    4
 10
688.37953641293074
 20
1634.5
 11
1285.3795364129312
 21
1634.5
  0
TEXT
  8
_0-1_
 62
    7
 10
915.73138141437357
 20
1576.25
 40
28
 41
0.6285714285714286
 50
0
  1
６００（７００）
  0
POINT
  8
_0-1_
 62
    3
 10
688.37953641293074
 20
1018.5
  0
POINT
  8
_0-1_
 62
    3
 10
1285.3795364129312
 20
1018.5
  0
LINE
  8
_0-1_
  6
CONTINUOUS
 62
    4
 10
688.37953641293074
 20
1011.5
 11
688.37953641293074
 21
1078.5
  0
LINE
  8
_0-1_
  6
CONTINUOUS
 62
    4
 10
1285.3795364129312
 20
1011.5
 11
1285.3795364129312
 21
1078.5
  0
POINT
  8
_0-1_
 62
    3
 10
686.87953641293051
 20
958.5
  0
POINT
  8
_0-1_
 62
    3
 10
1286.8795364129312
 20
958.5
  0
LINE
  8
_0-1_
  6
CONTINUOUS
 62
    4
 10
686.87953641293051
 20
951.5
 11
686.87953641293051
 21
1078.5
  0
LINE
  8
_0-1_
  6
CONTINUOUS
 62
    4
 10
1286.8795364129312
 20
951.5
 11
1286.8795364129312
 21
1078.5
  0
POINT
  8
_0-1_
 62
    3
 10
688.37953641293074
 20
402.5
  0
POINT
  8
_0-1_
 62
    3
 10
1285.3795364129312
 20
402.5
  0
LINE
  8
_0-1_
  6
CONTINUOUS
 62
    4
 10
688.37953641293074
 20
395.5
 11
688.37953641293074
 21
462.5
  0
LINE
  8
_0-1_
  6
CONTINUOUS
 62
    4
 10
1285.3795364129312
 20
395.5
 11
1285.3795364129312
 21
462.5
  0
POINT
  8
_0-1_
 62
    3
 10
686.87953641293051
 20
342.5
  0
POINT
  8
_0-1_
 62
    3
 10
1286.8795364129307
 20
342.5
  0
LINE
  8
_0-1_
  6
CONTINUOUS
 62
    4
 10
686.87953641293051
 20
335.5
 11
686.87953641293051
 21
462.5
  0
LINE
  8
_0-1_
  6
CONTINUOUS
 62
    4
 10
1286.8795364129307
 20
335.5
 11
1286.8795364129307
 21
462.5
  0
LINE
  8
_0-1_
  6
CONTINUOUS
 62
    4
 10
688.37953641293074
 20
1018.5
 11
1285.3795364129312
 21
1018.5
  0
LINE
  8
_0-1_
  6
CONTINUOUS
 62
    4
 10
686.87953641293051
 20
958.5
 11
1286.8795364129312
 21
958.5
  0
LINE
  8
_0-1_
  6
CONTINUOUS
 62
    4
 10
688.37953641293074
 20
402.5
 11
1285.3795364129312
 21
402.5
  0
TEXT
  8
_0-1_
 62
    7
 10
915.73138141437402
 20
1636.25
 40
28
 41
0.6285714285714286
 50
0
  1
５９７（６９７）
  0
TEXT
  8
_0-1_
 62
    7
 10
917.72751092495605
 20
1025.6405579399142
 40
28
 41
0.6285714285714286
 50
0
  1
５９７（６９７）
  0
TEXT
  8
_0-1_
 62
    7
 10
919.95819762023506
 20
965.41201716738191
 40
28
 41
0.6285714285714286
 50
0
  1
６００（７００）
  0
TEXT
  8
_0-1_
 62
    7
 10
918.94098533966257
 20
407.7403433476395
 40
28
 41
0.6285714285714286
 50
0
  1
５９７（６９７）
  0
TEXT
  8
_0-1_
 62
    7
 10
918.74472320552877
 20
345.28111587982846
 40
28
 41
0.6285714285714286
 50
0
  1
６００（７００）
  0
LINE
  8
_0-0_
  6
CONTINUOUS
 62
    7
 10
1593.130531711198
 20
1346.5
 11
1605.1305317111978
 21
1346.5
  0
LINE
  8
_0-0_
  6
CONTINUOUS
 62
    7
 10
1585.1305317111978
 20
1126.5
 11
1585.1305317111978
 21
1338.5
  0
LINE
  8
_0-0_
  6
CONTINUOUS
 62
    7
 10
1604.6305317111978
 20
1122
 11
1604.6305317111978
 21
1126.5
  0
LINE
  8
_0-0_
  6
CONTINUOUS
 62
    7
 10
1605.1305317111978
 20
1742.5
 11
1575.1305317111978
 21
1742.5
  0
LINE
  8
_0-0_
  6
CONTINUOUS
 62
    7
 10
1580.1305317111978
 20
510.5
 11
1605.1305317111978
 21
510.5
  0
ARC
  8
_0-0_
  6
CONTINUOUS
 62
    7
 10
1588.1305317111982
 20
772.5
 40
8.0000000000000017
 50
90
 51
180
  0
LINE
  8
_0-0_
  6
CONTINUOUS
 62
    7
 10
1580.1305317111978
 20
510.5
 11
1580.1305317111978
 21
772.5
  0
LINE
  8
_0-0_
  6
CONTINUOUS
 62
    7
 10
1588.1305317111982
 20
780.5
 11
1605.1305317111978
 21
780.5
  0
ARC
  8
_0-0_
  6
CONTINUOUS
 62
    7
 10
1593.130531711198
 20
1338.5
 40
8.0000000000000017
 50
90
 51
180
  0
LINE
  8
_0-0_
  6
CONTINUOUS
 62
    7
 10
1585.1305317111978
 20
1126.5
 11
1605.1305317111978
 21
1126.5
  0
POINT
  8
_0-1_
 62
    3
 10
1605.1305317111978
 20
2102.5000000000004
  0
POINT
  8
_0-1_
 62
    3
 10
1585.1305317111978
 20
2102.5000000000004
  0
LINE
  8
_0-1_
  6
CONTINUOUS
 62
    4
 10
1605.1305317111978
 20
2109.5000000000004
 11
1605.1305317111978
 21
2042.5000000000004
  0
LINE
  8
_0-1_
  6
CONTINUOUS
 62
    4
 10
1585.1305317111978
 20
2109.5000000000004
 11
1585.1305317111978
 21
2042.5000000000004
  0
LINE
  8
_0-1_
  6
CONTINUOUS
 62
    4
 10
1605.1305317111978
 20
2102.5000000000004
 11
1585.1305317111978
 21
2102.5000000000004
  0
TEXT
  8
_0-1_
 62
    7
 10
1577.4905317111979
 20
2106.5000000000004
 40
28
 41
0.6285714285714286
 50
0
  1
２０
  0
POINT
  8
_0-1_
 62
    3
 10
1485.130531711198
 20
1742.5
  0
POINT
  8
_0-1_
 62
    3
 10
1485.130531711198
 20
2012.5000000000004
  0
LINE
  8
_0-1_
  6
CONTINUOUS
 62
    4
 10
1478.130531711198
 20
1742.5
 11
1545.1305317111978
 21
1742.5
  0
LINE
  8
_0-1_
  6
CONTINUOUS
 62
    4
 10
1478.130531711198
 20
2012.5000000000004
 11
1545.1305317111978
 21
2012.5000000000004
  0
LINE
  8
_0-1_
  6
CONTINUOUS
 62
    4
 10
1485.130531711198
 20
1742.5
 11
1485.130531711198
 21
2012.5000000000004
  0
TEXT
  8
_0-1_
 62
    7
 10
1481.130531711198
 20
1851.0200000000002
 40
28
 41
0.6285714285714286
 50
90
  1
２７０
  0
POINT
  8
_0-1_
 62
    3
 10
1575.1305317111978
 20
1574.5
  0
POINT
  8
_0-1_
 62
    3
 10
1605.1305317111978
 20
1574.5
  0
LINE
  8
_0-1_
  6
CONTINUOUS
 62
    4
 10
1575.1305317111978
 20
1567.5
 11
1575.1305317111978
 21
1694.5
  0
LINE
  8
_0-1_
  6
CONTINUOUS
 62
    4
 10
1605.1305317111978
 20
1567.5
 11
1605.1305317111978
 21
1694.5
  0
LINE
  8
_0-1_
  6
CONTINUOUS
 62
    4
 10
1575.1305317111978
 20
1574.5
 11
1605.1305317111978
 21
1574.5
  0
TEXT
  8
_0-1_
 62
    7
 10
1572.4905317111979
 20
1578.5
 40
28
 41
0.6285714285714286
 50
0
  1
３０
  0
LINE
  8
_0-0_
  6
CONTINUOUS
 62
    7
 10
1605.1305317111978
 20
1724.5
 11
1605.1305317111978
 21
1731
  0
LINE
  8
_0-0_
  6
CONTINUOUS
 62
    7
 10
1604.6305317111978
 20
1738
 11
1604.6305317111978
 21
1742.5
  0
LINE
  8
_0-0_
  6
CONTINUOUS
 62
    7
 10
1604.6305317111978
 20
1724.5
 11
1605.1305317111978
 21
1724.5
  0
ARC
  8
_0-0_
  6
CONTINUOUS
 62
    7
 10
1593.1305317111978
 20
2004.5000000000004
 40
8
 50
90
 51
180
  0
LINE
  8
_0-0_
  6
CONTINUOUS
 62
    7
 10
1593.1305317111978
 20
2012.5000000000004
 11
1605.1305317111978
 21
2012.5000000000004
  0
LINE
  8
_0-0_
  6
CONTINUOUS
 62
    7
 10
1585.1305317111978
 20
2004.5000000000004
 11
1575.1305317111978
 21
1742.5
  0
LINE
  8
_0-0_
  6
CONTINUOUS
 62
    7
 10
1605.1305317111978
 20
1108.5
 11
1605.1305317111978
 21
1115
  0
LINE
  8
_0-0_
  6
CONTINUOUS
 62
    7
 10
1604.6305317111978
 20
1108.5
 11
1605.1305317111978
 21
1108.5
  0
LINE
  8
_0-0_
  6
CONTINUOUS
 62
    7
 10
1604.6305317111978
 20
506
 11
1604.6305317111978
 21
510.5
  0
LINE
  8
_0-0_
  6
CONTINUOUS
 62
    7
 10
1605.1305317111978
 20
492.5
 11
1605.1305317111978
 21
499.00000000000011
  0
LINE
  8
_0-0_
  6
CONTINUOUS
 62
    7
 10
1604.6305317111978
 20
492.5
 11
1605.1305317111978
 21
492.5
  0
POINT
  8
_0-1_
 62
    3
 10
1485.1305317111978
 20
1346.5
  0
POINT
  8
_0-1_
 62
    3
 10
1485.1305317111978
 20
1126.5
  0
LINE
  8
_0-1_
  6
CONTINUOUS
 62
    4
 10
1478.1305317111978
 20
1346.5
 11
1545.1305317111978
 21
1346.5
  0
LINE
  8
_0-1_
  6
CONTINUOUS
 62
    4
 10
1478.1305317111978
 20
1126.5
 11
1545.1305317111978
 21
1126.5
  0
LINE
  8
_0-1_
  6
CONTINUOUS
 62
    4
 10
1485.1305317111978
 20
1346.5
 11
1485.1305317111978
 21
1126.5
  0
TEXT
  8
_0-1_
 62
    7
 10
1481.1305317111978
 20
1210.0199999999999
 40
28
 41
0.6285714285714286
 50
90
  1
２２０
  0
POINT
  8
_0-1_
 62
    3
 10
1485.1305317111978
 20
780.5
  0
POINT
  8
_0-1_
 62
    3
 10
1485.1305317111978
 20
510.5
  0
LINE
  8
_0-1_
  6
CONTINUOUS
 62
    4
 10
1478.1305317111978
 20
780.5
 11
1545.1305317111978
 21
780.5
  0
LINE
  8
_0-1_
  6
CONTINUOUS
 62
    4
 10
1478.1305317111978
 20
510.5
 11
1545.1305317111978
 21
510.5
  0
LINE
  8
_0-1_
  6
CONTINUOUS
 62
    4
 10
1485.1305317111978
 20
780.5
 11
1485.1305317111978
 21
510.5
  0
TEXT
  8
_0-1_
 62
    7
 10
1481.1305317111978
 20
619.01999999999998
 40
28
 41
0.6285714285714286
 50
90
  1
２７０
  0
POINT
  8
_0-1_
 62
    3
 10
1605.1305317111978
 20
1427.5
  0
POINT
  8
_0-1_
 62
    3
 10
1585.1305317111978
 20
1427.5
  0
LINE
  8
_0-1_
  6
CONTINUOUS
 62
    4
 10
1605.1305317111978
 20
1427.5
 11
1585.1305317111978
 21
1427.5
  0
TEXT
  8
_0-1_
 62
    7
 10
1577.4905317111979
 20
1431.5
 40
28
 41
0.6285714285714286
 50
0
  1
２０
  0
LINE
  8
_0-1_
  6
CONTINUOUS
 62
    4
 10
1605.1305317111978
 20
1434.5
 11
1605.1305317111978
 21
1367.5
  0
LINE
  8
_0-1_
  6
CONTINUOUS
 62
    4
 10
1585.1305317111978
 20
1434.5
 11
1585.1305317111978
 21
1367.5
  0
POINT
  8
_0-1_
 62
    3
 10
1605.1305317111978
 20
861.5
  0
POINT
  8
_0-1_
 62
    3
 10
1580.1305317111978
 20
861.5
  0
LINE
  8
_0-1_
  6
CONTINUOUS
 62
    4
 10
1605.1305317111978
 20
861.5
 11
1580.1305317111978
 21
861.5
  0
TEXT
  8
_0-1_
 62
    7
 10
1574.9905317111979
 20
865.5
 40
28
 41
0.6285714285714286
 50
0
  1
２５
  0
LINE
  8
_0-1_
  6
CONTINUOUS
 62
    4
 10
1605.1305317111978
 20
868.5
 11
1605.1305317111978
 21
801.5
  0
LINE
  8
_0-1_
  6
CONTINUOUS
 62
    4
 10
1580.1305317111978
 20
868.5
 11
1580.1305317111978
 21
801.5
  0
LINE
  8
_2-0_
  6
CONTINUOUS
 62
    3
 10
568.48068669527901
 20
2012.5000000000004
 11
568.48068669527901
 21
1724.5000000000002
  0
TEXT
  8
_2-0_
 62
    7
 10
211.87875351971706
 20
1754.5000000000002
 40
36
 41
0.6666666666666666
 50
0
  1
ＢＧ５－８０－６０
  0
TEXT
  8
_2-0_
 62
    7
 10
211.87875351971706
 20
1850.5000000000004
 40
36
 41
0.6666666666666666
 50
0
  1
ＢＧ５－８０－７０
  0
LINE
  8
_2-0_
  6
CONTINUOUS
 62
    3
 10
163.87875351971706
 20
2012.5000000000004
 11
163.87875351971706
 21
1724.5000000000002
  0
LINE
  8
_2-0_
  6
CONTINUOUS
 62
    3
 10
163.87875351971706
 20
2012.5000000000004
 11
568.48068669527901
 21
2012.5000000000004
  0
LINE
  8
_2-0_
  6
CONTINUOUS
 62
    3
 10
163.87875351971706
 20
1916.5000000000004
 11
568.48068669527901
 21
1916.5000000000004
  0
LINE
  8
_2-0_
  6
CONTINUOUS
 62
    3
 10
163.87875351971706
 20
1724.5000000000002
 11
568.48068669527901
 21
1724.5000000000002
  0
LINE
  8
_2-0_
  6
CONTINUOUS
 62
    3
 10
163.87875351971706
 20
1820.5000000000002
 11
568.48068669527901
 21
1820.5000000000002
  0
TEXT
  8
_2-0_
 62
    7
 10
306.17972010749781
 20
1946.5000000000004
 40
36
 41
0.6666666666666666
 50
0
  1
対象品名
  0
LINE
  8
_2-0_
  6
CONTINUOUS
 62
    3
 10
568.48068669527901
 20
1346.5
 11
568.48068669527901
 21
1058.4999999999997
  0
LINE
  8
_2-0_
  6
CONTINUOUS
 62
    3
 10
163.87875351971706
 20
1346.5
 11
163.87875351971706
 21
1058.4999999999997
  0
LINE
  8
_2-0_
  6
CONTINUOUS
 62
    3
 10
163.87875351971706
 20
1346.5
 11
568.48068669527901
 21
1346.5
  0
LINE
  8
_2-0_
  6
CONTINUOUS
 62
    3
 10
163.87875351971706
 20
1250.5
 11
568.48068669527901
 21
1250.5
  0
LINE
  8
_2-0_
  6
CONTINUOUS
 62
    3
 10
163.87875351971706
 20
1058.4999999999997
 11
568.48068669527901
 21
1058.4999999999997
  0
LINE
  8
_2-0_
  6
CONTINUOUS
 62
    3
 10
163.87875351971706
 20
1154.4999999999997
 11
568.48068669527901
 21
1154.4999999999997
  0
TEXT
  8
_2-0_
 62
    7
 10
211.87875351971706
 20
1184.5
 40
36
 41
0.6666666666666666
 50
0
  1
ＢＧ５－８５－７０
  0
TEXT
  8
_2-0_
 62
    7
 10
211.87875351971706
 20
1088.4999999999997
 40
36
 41
0.6666666666666666
 50
0
  1
ＢＧ５－８５－６０
  0
TEXT
  8
_2-0_
 62
    7
 10
306.17972010749781
 20
1280.5
 40
36
 41
0.6666666666666666
 50
0
  1
対象品名
  0
LINE
  8
_2-0_
  6
CONTINUOUS
 62
    3
 10
568.48068669527901
 20
780.5
 11
568.48068669527901
 21
492.49999999999977
  0
LINE
  8
_2-0_
  6
CONTINUOUS
 62
    3
 10
163.87875351971706
 20
780.5
 11
163.87875351971706
 21
492.49999999999977
  0
LINE
  8
_2-0_
  6
CONTINUOUS
 62
    3
 10
163.87875351971706
 20
780.5
 11
568.48068669527901
 21
780.5
  0
LINE
  8
_2-0_
  6
CONTINUOUS
 62
    3
 10
163.87875351971706
 20
684.5
 11
568.48068669527901
 21
684.5
  0
LINE
  8
_2-0_
  6
CONTINUOUS
 62
    3
 10
163.87875351971706
 20
492.49999999999977
 11
568.48068669527901
 21
492.49999999999977
  0
LINE
  8
_2-0_
  6
CONTINUOUS
 62
    3
 10
163.87875351971706
 20
588.49999999999977
 11
568.48068669527901
 21
588.49999999999977
  0
TEXT
  8
_2-0_
 62
    7
 10
211.87875351971706
 20
618.5
 40
36
 41
0.6666666666666666
 50
0
  1
ＢＧ４－８０－７０
  0
TEXT
  8
_2-0_
 62
    7
 10
211.87875351971706
 20
522.49999999999977
 40
36
 41
0.6666666666666666
 50
0
  1
ＢＧ４－８０－６０
  0
TEXT
  8
_2-0_
 62
    7
 10
306.17972010749781
 20
714.5
 40
36
 41
0.6666666666666666
 50
0
  1
対象品名
  0
LINE
  8
_2-0_
  6
CONTINUOUS
 62
    3
 10
2359.7324648867597
 20
780.5
 11
2359.7324648867597
 21
492.49999999999977
  0
LINE
  8
_2-0_
  6
CONTINUOUS
 62
    3
 10
1955.1305317111978
 20
780.5
 11
1955.1305317111978
 21
492.49999999999977
  0
LINE
  8
_2-0_
  6
CONTINUOUS
 62
    3
 10
1955.1305317111978
 20
780.5
 11
2359.7324648867597
 21
780.5
  0
LINE
  8
_2-0_
  6
CONTINUOUS
 62
    3
 10
1955.1305317111978
 20
684.5
 11
2359.7324648867597
 21
684.5
  0
LINE
  8
_2-0_
  6
CONTINUOUS
 62
    3
 10
1955.1305317111978
 20
492.49999999999977
 11
2359.7324648867597
 21
492.49999999999977
  0
LINE
  8
_2-0_
  6
CONTINUOUS
 62
    3
 10
1955.1305317111978
 20
588.49999999999977
 11
2359.7324648867597
 21
588.49999999999977
  0
TEXT
  8
_2-0_
 62
    7
 10
2097.4314982989785
 20
714.5
 40
36
 41
0.6666666666666666
 50
0
  1
対象品名
  0
TEXT
  8
_2-0_
 62
    7
 10
2003.1305317111978
 20
618.5
 40
36
 41
0.6666666666666666
 50
0
  1
ＢＧ４－８０－４０
  0
TEXT
  8
_2-0_
 62
    7
 10
2003.1305317111978
 20
522.49999999999977
 40
36
 41
0.6666666666666666
 50
0
  1
ＢＧ４－８０－３５
  0
LINE
  8
_1-2_
  6
CONTINUOUS
 62
    4
 10
2901.2462013390631
 20
1264.0488781882768
 11
2929.6839965649705
 21
1292.4866734141842
  0
LINE
  8
_1-2_
  6
CONTINUOUS
 62
    4
 10
2872.9619300915892
 20
1264.0488781882695
 11
2912.9619300915883
 21
1304.0488781882686
  0
LINE
  8
_1-2_
  6
CONTINUOUS
 62
    4
 10
2844.6776588441252
 20
1264.0488781882722
 11
2884.6776588441243
 21
1304.0488781882713
  0
LINE
  8
_1-2_
  6
CONTINUOUS
 62
    4
 10
2816.3933875966613
 20
1264.0488781882745
 11
2856.3933875966604
 21
1304.0488781882736
  0
LINE
  8
_1-2_
  6
CONTINUOUS
 62
    4
 10
2788.1091163491964
 20
1264.0488781882772
 11
2828.1091163491964
 21
1304.0488781882768
  0
LINE
  8
_1-2_
  6
CONTINUOUS
 62
    4
 10
2759.8248451017698
 20
1264.0488781882795
 11
2799.8248451017698
 21
1304.04887818828
  0
LINE
  8
_1-2_
  6
CONTINUOUS
 62
    4
 10
2731.540573854304
 20
1264.0488781882818
 11
2771.540573854304
 21
1304.0488781882818
  0
LINE
  8
_1-2_
  6
CONTINUOUS
 62
    4
 10
2703.2563026068301
 20
1264.0488781882736
 11
2743.2563026068301
 21
1304.0488781882736
  0
LINE
  8
_1-2_
  6
CONTINUOUS
 62
    4
 10
2674.9720313593593
 20
1264.04887818827
 11
2714.9720313593588
 21
1304.0488781882691
  0
LINE
  8
_1-2_
  6
CONTINUOUS
 62
    4
 10
2646.6877601118953
 20
1264.0488781882722
 11
2686.6877601118944
 21
1304.0488781882713
  0
LINE
  8
_1-2_
  6
CONTINUOUS
 62
    4
 10
2618.4034888644314
 20
1264.048878188275
 11
2658.4034888644305
 21
1304.0488781882745
  0
LINE
  8
_1-2_
  6
CONTINUOUS
 62
    4
 10
2590.1192176169674
 20
1264.0488781882777
 11
2630.1192176169665
 21
1304.0488781882768
  0
LINE
  8
_1-2_
  6
CONTINUOUS
 62
    4
 10
2561.8349463695035
 20
1264.0488781882804
 11
2601.8349463695026
 21
1304.0488781882795
  0
LINE
  8
_1-2_
  6
CONTINUOUS
 62
    4
 10
2533.5506751220714
 20
1264.0488781882791
 11
2573.5506751220714
 21
1304.0488781882791
  0
LINE
  8
_1-2_
  6
CONTINUOUS
 62
    7
 10
2929.6839965649651
 20
1304.0488781882818
 11
2929.6839965649651
 21
1844.0488781882818
  0
LINE
  8
_1-2_
  6
CONTINUOUS
 62
    7
 10
2929.6839965649651
 20
1304.0488781882818
 11
2869.6839965649651
 21
1304.0488781882818
  0
ARC
  8
_1-2_
  6
CONTINUOUS
 62
    7
 10
2908.9437633547677
 20
1824.0625815129465
 40
20
 50
92.121096396660405
 51
179.99999999999306
  0
LINE
  8
_1-2_
  6
CONTINUOUS
 62
    7
 10
2888.9985578753157
 20
1825.5420335677388
 11
2869.6839965649651
 21
1304.0488781882818
  0
LINE
  8
_1-2_
  6
CONTINUOUS
 62
    7
 10
2929.6839965649651
 20
1844.0488781882818
 11
2908.2035301445712
 21
1844.0488781882818
  0
LINE
  8
_1-2_
  6
CONTINUOUS
 62
    7
 10
2929.6839965649651
 20
1236.0488781882818
 11
2929.6839965649651
 21
1324.0488781882818
  0
LINE
  8
_1-2_
  6
CONTINUOUS
 62
    4
 10
2929.5304725865271
 20
1283.2464909511463
 11
2929.6839965649724
 21
1283.4000149295916
  0
LINE
  8
_1-2_
  6
CONTINUOUS
 62
    4
 10
2929.6839965649651
 20
1304.0488781882818
 11
2545.266403874607
 21
1304.0488781882818
  0
LINE
  8
_1-2_
  6
CONTINUOUS
 62
    4
 10
2929.6839965649651
 20
1264.0488781882818
 11
2533.5506751220714
 21
1264.0488781882818
  0
LINE
  8
_1-2_
  6
CONTINUOUS
 62
    4
 10
2929.6839965649651
 20
1062.9329983599554
 11
2929.6839965649651
 21
1304.0488781882818
  0
TEXT
  8
_1-2_
 62
    7
 10
3023.1625295879457
 20
1254.6649514259543
 40
28
 41
0.8571428571428569
 50
0
  1
ドリルネジ
  0
LINE
  8
_1-2_
  6
CONTINUOUS
 62
    7
 10
3021.2308596586917
 20
1241.7123278828275
 11
3159.0552518705444
 21
1241.7123278828275
  0
TEXT
  8
_1-2_
 62
    7
 10
2531.2352515021457
 20
1805.1905090895693
 40
40
 41
1
 50
0
  1
取付例
  0
LINE
  8
_1-2_
  6
CONTINUOUS
 62
    4
 10
2495.5442643776823
 20
1901.6711957848483
 11
3283.2953373390555
 21
1901.6711957848483
  0
LINE
  8
_1-2_
  6
CONTINUOUS
 62
    4
 10
3283.2953373390555
 20
1901.6711957848483
 11
3283.2953373390555
 21
1004.2978052269082
  0
LINE
  8
_1-2_
  6
CONTINUOUS
 62
    4
 10
3283.2953373390555
 20
1004.2978052269082
 11
2495.5442643776823
 21
1004.2978052269082
  0
LINE
  8
_1-2_
  6
CONTINUOUS
 62
    4
 10
2495.5442643776823
 20
1004.2978052269082
 11
2495.5442643776823
 21
1901.6711957848483
  0
LINE
  8
_0-0_
  6
CONTINUOUS
 62
    7
 10
3040.5551291323854
 20
510.5
 11
3065.5551291323854
 21
510.5
  0
LINE
  8
_0-0_
  6
CONTINUOUS
 62
    7
 10
3065.0551291323854
 20
506
 11
3065.0551291323854
 21
510.5
  0
LINE
  8
_0-0_
  6
CONTINUOUS
 62
    7
 10
3065.5551291323854
 20
492.5
 11
3065.5551291323854
 21
499.00000000000011
  0
LINE
  8
_0-0_
  6
CONTINUOUS
 62
    7
 10
3065.0551291323854
 20
492.5
 11
3065.0551291323854
 21
499.00000000000011
  0
LINE
  8
_0-0_
  6
CONTINUOUS
 62
    7
 10
3065.0551291323854
 20
492.5
 11
3065.5551291323854
 21
492.5
  0
LINE
  8
_0-0_
  6
DASHED1
 62
    7
 10
3065.5551291323854
 20
506
 11
3065.5551291323854
 21
499.00000000000011
  0
LINE
  8
_0-0_
  6
DASHED1
 62
    7
 10
3065.0551291323854
 20
499.00000000000011
 11
3065.0551291323854
 21
506
  0
LINE
  8
_0-0_
  6
DASHED1
 62
    7
 10
3065.0551291323854
 20
506
 11
3065.5551291323854
 21
506
  0
LINE
  8
_0-0_
  6
DASHED1
 62
    7
 10
3065.0551291323854
 20
499.00000000000011
 11
3065.5551291323854
 21
499.00000000000011
  0
LINE
  8
_0-0_
  6
CONTINUOUS
 62
    7
 10
2478.1324648867598
 20
510.5
 11
2878.1324648867594
 21
510.5
  0
LINE
  8
_0-0_
  6
CONTINUOUS
 62
    7
 10
2878.1324648867594
 20
510.5
 11
2878.1324648867594
 21
670.5
  0
LINE
  8
_0-0_
  6
CONTINUOUS
 62
    7
 10
2878.1324648867594
 20
670.5
 11
2478.1324648867598
 21
670.5
  0
LINE
  8
_0-0_
  6
CONTINUOUS
 62
    7
 10
2478.1324648867598
 20
670.5
 11
2478.1324648867598
 21
510.5
  0
ARC
  8
_0-0_
  6
CONTINUOUS
 62
    7
 10
3048.5551291323854
 20
662.5
 40
8.0000000000000017
 50
90
 51
180
  0
LINE
  8
_0-0_
  6
CONTINUOUS
 62
    7
 10
3048.5551291323854
 20
670.5
 11
3065.5551291323854
 21
670.5
  0
LINE
  8
_0-0_
  6
CONTINUOUS
 62
    7
 10
3040.5551291323854
 20
510.5
 11
3040.5551291323854
 21
662.5
  0
LINE
  8
_0-0_
  6
CONTINUOUS
 62
    7
 10
3065.5551291323854
 20
506
 11
3065.5551291323854
 21
670.5
  0
LINE
  8
_0-0_
  6
CONTINUOUS
 62
    7
 10
2488.1324648867594
 20
510.5
 11
2488.1324648867594
 21
492.5
  0
LINE
  8
_0-0_
  6
CONTINUOUS
 62
    7
 10
2868.1324648867594
 20
492.5
 11
2488.1324648867594
 21
492.5
  0
LINE
  8
_0-0_
  6
CONTINUOUS
 62
    7
 10
2868.1324648867594
 20
492.5
 11
2868.1324648867594
 21
510.5
  0
POINT
  8
_0-1_
 62
    3
 10
2488.1324648867594
 20
402.5
  0
POINT
  8
_0-1_
 62
    3
 10
2868.1324648867594
 20
402.5
  0
LINE
  8
_0-1_
  6
CONTINUOUS
 62
    4
 10
2488.1324648867594
 20
394.5
 11
2488.1324648867594
 21
462.5
  0
LINE
  8
_0-1_
  6
CONTINUOUS
 62
    4
 10
2868.1324648867594
 20
394.5
 11
2868.1324648867594
 21
462.5
  0
POINT
  8
_0-1_
 62
    3
 10
2478.1324648867598
 20
342.5
  0
POINT
  8
_0-1_
 62
    3
 10
2878.1324648867594
 20
342.5
  0
LINE
  8
_0-1_
  6
CONTINUOUS
 62
    4
 10
2478.1324648867598
 20
334.5
 11
2478.1324648867598
 21
462.5
  0
LINE
  8
_0-1_
  6
CONTINUOUS
 62
    4
 10
2878.1324648867594
 20
334.5
 11
2878.1324648867594
 21
462.5
  0
CIRCLE
  8
_0-0_
  6
CONTINUOUS
 62
    7
 10
2525.6744479334975
 20
501.47136281179371
 40
3.5
  0
CIRCLE
  8
_0-0_
  6
CONTINUOUS
 62
    7
 10
2830.674447933497
 20
501.47136281179371
 40
3.5
  0
POINT
  8
_0-1_
 62
    3
 10
3065.5551291323854
 20
760.5
  0
POINT
  8
_0-1_
 62
    3
 10
3040.5551291323854
 20
760.5
  0
LINE
  8
_0-1_
  6
CONTINUOUS
 62
    4
 10
3065.5551291323854
 20
768.5
 11
3065.5551291323854
 21
700.5
  0
LINE
  8
_0-1_
  6
CONTINUOUS
 62
    4
 10
3040.5551291323854
 20
768.5
 11
3040.5551291323854
 21
700.5
  0
LINE
  8
_0-1_
  6
CONTINUOUS
 62
    4
 10
3065.5551291323854
 20
760.5
 11
3040.5551291323854
 21
760.5
  0
TEXT
  8
_0-1_
 62
    7
 10
3035.4151291323855
 20
764.5
 40
28
 41
0.6285714285714286
 50
0
  1
２５
  0
LINE
  8
_0-1_
  6
CONTINUOUS
 62
    4
 10
2488.1324648867594
 20
402.5
 11
2868.1324648867594
 21
402.5
  0
LINE
  8
_0-1_
  6
CONTINUOUS
 62
    4
 10
2478.1324648867598
 20
342.5
 11
2878.1324648867594
 21
342.5
  0
TEXT
  8
_0-1_
 62
    7
 10
2607.4524648867595
 20
346.5
 40
28
 41
0.6285714285714286
 50
0
  1
４００（３５０）
  0
TEXT
  8
_0-1_
 62
    7
 10
2607.4524648867595
 20
406.5
 40
28
 41
0.6285714285714286
 50
0
  1
３８０（２５０）
  0
POINT
  8
_0-1_
 62
    3
 10
2950.5551291323854
 20
510.5
  0
POINT
  8
_0-1_
 62
    3
 10
2950.5551291323854
 20
670.5
  0
LINE
  8
_0-1_
  6
CONTINUOUS
 62
    4
 10
2942.5551291323854
 20
510.5
 11
3010.5551291323849
 21
510.5
  0
LINE
  8
_0-1_
  6
CONTINUOUS
 62
    4
 10
2942.5551291323854
 20
670.5
 11
3010.5551291323849
 21
670.5
  0
LINE
  8
_0-1_
  6
CONTINUOUS
 62
    4
 10
2950.5551291323854
 20
510.5
 11
2950.5551291323854
 21
670.5
  0
TEXT
  8
_0-1_
 62
    7
 10
2946.5551291323854
 20
564.01999999999998
 40
28
 41
0.6285714285714286
 50
90
  1
１６０
  0
TEXT
  8
_f-8_
 62
    7
 10
2288.8000000000001
 20
114
 40
28
 41
0.5714285714285712
 50
0
  1
１／８
  0
POINT
  8
_0-1_
 62
    3
 10
686.87953641293051
 20
1800.8990228013028
  0
POINT
  8
_0-1_
 62
    3
 10
746.87953641293051
 20
1800.8990228013028
  0
LINE
  8
_0-1_
  6
CONTINUOUS
 62
    4
 10
686.87953641293051
 20
1800.8990228013028
 11
746.87953641293051
 21
1800.8990228013028
  0
TEXT
  8
_0-1_
 62
    7
 10
699.23953641293053
 20
1804.8990228013028
 40
28
 41
0.6285714285714286
 50
0
  1
６０
  0
POINT
  8
_0-1_
 62
    3
 10
1286.8795364129312
 20
1800.8990228013028
  0
POINT
  8
_0-1_
 62
    3
 10
1226.8795364129312
 20
1800.8990228013028
  0
LINE
  8
_0-1_
  6
CONTINUOUS
 62
    4
 10
1286.8795364129312
 20
1800.8990228013028
 11
1226.8795364129312
 21
1800.8990228013028
  0
TEXT
  8
_0-1_
 62
    7
 10
1239.2395364129311
 20
1804.8990228013028
 40
28
 41
0.6285714285714286
 50
0
  1
６０
  0
LINE
  8
_0-1_
  6
CENTER2
 62
    4
 10
1226.8795364129312
 20
1735.338221095184
 11
1226.8795364129312
 21
1814.1609141741555
  0
LINE
  8
_0-1_
  6
CENTER2
 62
    4
 10
746.87953641293051
 20
1814.1609141741555
 11
746.87953641293051
 21
1735.338221095184
  0
LINE
  8
_0-0_
  6
CONTINUOUS
 62
    7
 10
1604.6305317111978
 20
1724.5
 11
1604.6305317111978
 21
1738
  0
LINE
  8
_0-0_
  6
CONTINUOUS
 62
    7
 10
1605.1305317111978
 20
1731
 11
1605.1305317111978
 21
2012.5000000000004
  0
LINE
  8
_0-1_
  6
CENTER2
 62
    4
 10
1595.1305317111978
 20
1138.7022130265199
 11
1595.1305317111978
 21
1118.507891683326
  0
LINE
  8
_0-0_
  6
CONTINUOUS
 62
    7
 10
1604.6305317111978
 20
1108.5
 11
1604.6305317111978
 21
1122
  0
LINE
  8
_0-0_
  6
CONTINUOUS
 62
    7
 10
1605.1305317111978
 20
1346.5
 11
1605.1305317111978
 21
1115
  0
LINE
  8
_0-0_
  6
CONTINUOUS
 62
    7
 10
1604.6305317111978
 20
492.5
 11
1604.6305317111978
 21
506
  0
LINE
  8
_0-0_
  6
CONTINUOUS
 62
    7
 10
1605.1305317111978
 20
499.00000000000011
 11
1605.1305317111978
 21
780.5
  0
LINE
  8
_1-2_
  6
CONTINUOUS
 62
    4
 10
2907.0407020749689
 20
1347.936823521004
 11
2907.0407020749689
 21
1349.936823521004
  0
LINE
  8
_1-2_
  6
CONTINUOUS
 62
    4
 10
2907.0407020749689
 20
1349.936823521004
 11
2895.0407020749689
 21
1349.936823521004
  0
LINE
  8
_1-2_
  6
CONTINUOUS
 62
    4
 10
2895.0407020749689
 20
1349.936823521004
 11
2895.0407020749689
 21
1347.936823521004
  0
LINE
  8
_1-2_
  6
CONTINUOUS
 62
    4
 10
2895.0407020749689
 20
1347.936823521004
 11
2907.0407020749689
 21
1347.936823521004
  0
LINE
  8
_1-2_
  6
CONTINUOUS
 62
    4
 10
2895.0407020749689
 20
1349.936823521004
 11
2901.0407020749689
 21
1349.936823521004
  0
LINE
  8
_1-2_
  6
CONTINUOUS
 62
    4
 10
2901.0407020749689
 20
1347.936823521004
 11
2898.5407020749694
 21
1347.936823521004
  0
LINE
  8
_1-2_
  6
CONTINUOUS
 62
    4
 10
2901.0407020749689
 20
1347.936823521004
 11
2903.5407020749689
 21
1347.936823521004
  0
LINE
  8
_1-2_
  6
CONTINUOUS
 62
    4
 10
2898.5407020749694
 20
1347.936823521004
 11
2898.5407020749694
 21
1327.936823521004
  0
LINE
  8
_1-2_
  6
CONTINUOUS
 62
    4
 10
2903.5407020749689
 20
1347.936823521004
 11
2903.5407020749689
 21
1327.936823521004
  0
LINE
  8
_1-2_
  6
CONTINUOUS
 62
    4
 10
2898.5407020749694
 20
1327.936823521004
 11
2901.0407020749689
 21
1319.936823521004
  0
LINE
  8
_1-2_
  6
CONTINUOUS
 62
    4
 10
2901.0407020749689
 20
1319.936823521004
 11
2903.5407020749689
 21
1327.936823521004
  0
LINE
  8
_1-2_
  6
CONTINUOUS
 62
    4
 10
2903.5407020749685
 20
1337.434386191403
 11
2898.5407020749685
 21
1338.7741321535586
  0
LINE
  8
_1-2_
  6
CONTINUOUS
 62
    4
 10
2903.5407020749689
 20
1347.7871479955038
 11
2902.9821054091557
 21
1347.9368235210031
  0
LINE
  8
_1-2_
  6
CONTINUOUS
 62
    4
 10
2903.5407020749685
 20
1337.434386191403
 11
2898.5407020749685
 21
1338.7741321535586
  0
LINE
  8
_1-2_
  6
CONTINUOUS
 62
    4
 10
2903.2941012494529
 20
1327.1477008793517
 11
2898.540702074968
 21
1328.4213703494579
  0
LINE
  8
_1-2_
  6
CONTINUOUS
 62
    4
 10
2903.5407020749689
 20
1347.7871479955038
 11
2902.9821054091557
 21
1347.9368235210031
  0
LINE
  8
_1-2_
  6
CONTINUOUS
 62
    4
 10
2903.5407020749671
 20
1346.7518718151022
 11
2899.1184021040562
 21
1347.9368235209967
  0
LINE
  8
_1-2_
  6
CONTINUOUS
 62
    4
 10
2903.540702074968
 20
1345.7165956346816
 11
2898.540702074968
 21
1347.0563415968372
  0
LINE
  8
_1-2_
  6
CONTINUOUS
 62
    4
 10
2903.5407020749685
 20
1344.6813194542801
 11
2898.540702074968
 21
1346.0210654164357
  0
LINE
  8
_1-2_
  6
CONTINUOUS
 62
    4
 10
2903.540702074968
 20
1343.6460432738685
 11
2898.540702074968
 21
1344.9857892360246
  0
LINE
  8
_1-2_
  6
CONTINUOUS
 62
    4
 10
2903.540702074968
 20
1342.6107670934579
 11
2898.5407020749676
 21
1343.9505130556135
  0
LINE
  8
_1-2_
  6
CONTINUOUS
 62
    4
 10
2903.5407020749676
 20
1341.5754909130473
 11
2898.5407020749694
 21
1342.915236875202
  0
LINE
  8
_1-2_
  6
CONTINUOUS
 62
    4
 10
2903.5407020749689
 20
1340.5402147326358
 11
2898.5407020749694
 21
1341.8799606947914
  0
LINE
  8
_1-2_
  6
CONTINUOUS
 62
    4
 10
2903.5407020749671
 20
1339.5049385522252
 11
2898.5407020749671
 21
1340.8446845143807
  0
LINE
  8
_1-2_
  6
CONTINUOUS
 62
    4
 10
2903.5407020749671
 20
1338.4696623718236
 11
2898.5407020749689
 21
1339.8094083339783
  0
LINE
  8
_1-2_
  6
CONTINUOUS
 62
    4
 10
2903.5407020749685
 20
1337.434386191403
 11
2898.5407020749685
 21
1338.7741321535586
  0
LINE
  8
_1-2_
  6
CONTINUOUS
 62
    4
 10
2903.540702074968
 20
1336.3991100110015
 11
2898.5407020749676
 21
1337.7388559731571
  0
LINE
  8
_1-2_
  6
CONTINUOUS
 62
    4
 10
2903.540702074968
 20
1335.3638338305809
 11
2898.540702074968
 21
1336.7035797927364
  0
LINE
  8
_1-2_
  6
CONTINUOUS
 62
    4
 10
2903.540702074968
 20
1334.3285576501793
 11
2898.540702074968
 21
1335.6683036123349
  0
LINE
  8
_1-2_
  6
CONTINUOUS
 62
    4
 10
2903.5407020749689
 20
1333.2932814697678
 11
2898.5407020749689
 21
1334.6330274319229
  0
LINE
  8
_1-2_
  6
CONTINUOUS
 62
    4
 10
2903.5407020749676
 20
1332.2580052893572
 11
2898.5407020749676
 21
1333.5977512515128
  0
LINE
  8
_1-2_
  6
CONTINUOUS
 62
    4
 10
2903.5407020749671
 20
1331.2227291089466
 11
2898.5407020749671
 21
1332.5624750711021
  0
LINE
  8
_1-2_
  6
CONTINUOUS
 62
    4
 10
2903.5407020749689
 20
1330.1874529285441
 11
2898.5407020749694
 21
1331.5271988906997
  0
LINE
  8
_1-2_
  6
CONTINUOUS
 62
    4
 10
2903.5407020749689
 20
1329.1521767481235
 11
2898.5407020749685
 21
1330.4919227102795
  0
LINE
  8
_1-2_
  6
CONTINUOUS
 62
    4
 10
2903.5407020749671
 20
1328.1169005677229
 11
2898.5407020749671
 21
1329.4566465298785
  0
LINE
  8
_1-2_
  6
CONTINUOUS
 62
    4
 10
2903.2941012494529
 20
1327.1477008793517
 11
2898.540702074968
 21
1328.4213703494579
  0
LINE
  8
_1-2_
  6
CONTINUOUS
 62
    4
 10
2902.9955743325472
 20
1326.1924147452536
 11
2898.7285328419266
 21
1327.3357650667358
  0
LINE
  8
_1-2_
  6
CONTINUOUS
 62
    4
 10
2902.6970474156387
 20
1325.2371286111474
 11
2899.0816222828534
 21
1326.2058788557724
  0
LINE
  8
_1-2_
  6
CONTINUOUS
 62
    4
 10
2902.3985204987302
 20
1324.2818424770412
 11
2899.4347117237794
 21
1325.075992644809
  0
LINE
  8
_1-2_
  6
CONTINUOUS
 62
    4
 10
2902.0999935818226
 20
1323.326556342934
 11
2899.7878011647035
 21
1323.9461064338465
  0
LINE
  8
_1-2_
  6
CONTINUOUS
 62
    4
 10
2901.8014666649141
 20
1322.3712702088278
 11
2900.140890605634
 21
1322.8162202228822
  0
LINE
  8
_1-2_
  6
CONTINUOUS
 62
    4
 10
2901.5029397480057
 20
1321.4159840747215
 11
2900.4939800465585
 21
1321.6863340119198
  0
LINE
  8
_1-2_
  6
CONTINUOUS
 62
    4
 10
2901.2044128310999
 20
1320.4606979406235
 11
2900.8470694874822
 21
1320.5564478009664
  0
LINE
  8
_1-2_
  6
CONTINUOUS
 62
    7
 10
3021.2308596586917
 20
1241.7123278828275
 11
2908.8946841822444
 21
1327.6133051444753
  0
POINT
  8
_0-1_
 62
    3
 10
686.87953641293051
 20
1183.518027149068
  0
POINT
  8
_0-1_
 62
    3
 10
746.87953641293051
 20
1183.518027149068
  0
LINE
  8
_0-1_
  6
CONTINUOUS
 62
    4
 10
686.87953641293051
 20
1183.518027149068
 11
746.87953641293051
 21
1183.518027149068
  0
TEXT
  8
_0-1_
 62
    7
 10
699.23953641293053
 20
1187.518027149068
 40
28
 41
0.6285714285714286
 50
0
  1
６０
  0
POINT
  8
_0-1_
 62
    3
 10
1286.8795364129312
 20
1183.518027149068
  0
POINT
  8
_0-1_
 62
    3
 10
1226.8795364129312
 20
1183.518027149068
  0
LINE
  8
_0-1_
  6
CONTINUOUS
 62
    4
 10
1286.8795364129312
 20
1183.518027149068
 11
1226.8795364129312
 21
1183.518027149068
  0
TEXT
  8
_0-1_
 62
    7
 10
1239.2395364129311
 20
1187.518027149068
 40
28
 41
0.6285714285714286
 50
0
  1
６０
  0
LINE
  8
_0-1_
  6
CENTER2
 62
    4
 10
1226.8795364129312
 20
1117.9572254429492
 11
1226.8795364129312
 21
1196.7799185219209
  0
LINE
  8
_0-1_
  6
CENTER2
 62
    4
 10
746.87953641293051
 20
1196.7799185219209
 11
746.87953641293051
 21
1117.9572254429492
  0
POINT
  8
_0-1_
 62
    3
 10
686.87953641293051
 20
566.8925081433224
  0
POINT
  8
_0-1_
 62
    3
 10
746.87953641293051
 20
566.8925081433224
  0
LINE
  8
_0-1_
  6
CONTINUOUS
 62
    4
 10
686.87953641293051
 20
566.8925081433224
 11
746.87953641293051
 21
566.8925081433224
  0
TEXT
  8
_0-1_
 62
    7
 10
699.23953641293053
 20
570.8925081433224
 40
28
 41
0.6285714285714286
 50
0
  1
６０
  0
POINT
  8
_0-1_
 62
    3
 10
1286.8795364129312
 20
566.8925081433224
  0
POINT
  8
_0-1_
 62
    3
 10
1226.8795364129312
 20
566.8925081433224
  0
LINE
  8
_0-1_
  6
CONTINUOUS
 62
    4
 10
1286.8795364129312
 20
566.8925081433224
 11
1226.8795364129312
 21
566.8925081433224
  0
TEXT
  8
_0-1_
 62
    7
 10
1239.2395364129311
 20
570.8925081433224
 40
28
 41
0.6285714285714286
 50
0
  1
６０
  0
LINE
  8
_0-1_
  6
CENTER2
 62
    4
 10
1226.8795364129312
 20
501.33170643720347
 11
1226.8795364129312
 21
580.1543995161752
  0
LINE
  8
_0-1_
  6
CENTER2
 62
    4
 10
746.87953641293051
 20
580.1543995161752
 11
746.87953641293051
 21
501.33170643720347
  0
LINE
  8
_0-1_
  6
CENTER2
 62
    4
 10
986.87953641293086
 20
2032.5000000000004
 11
986.87953641293086
 21
1732.0645314618836
  0
LINE
  8
_0-1_
  6
CENTER2
 62
    4
 10
986.87953641293086
 20
1366.5
 11
986.87953641293086
 21
1114.6835358096489
  0
LINE
  8
_0-1_
  6
CENTER2
 62
    4
 10
986.87953641293086
 20
800.5
 11
986.87953641293086
 21
498.05801680390311
  0
LINE
  8
_0-1_
  6
CENTER2
 62
    4
 10
1590.1305317111978
 20
1753.3411807468089
 11
1590.1305317111978
 21
1733.8181767345627
  0
LINE
  8
_0-1_
  6
CENTER2
 62
    4
 10
1592.6305317111978
 20
524.83046511302791
 11
1592.6305317111978
 21
500.24615900798255
  0
ENDSEC
  0
EOF
